ISO-10303-21;
HEADER;
/* Generated by software containing ST-Developer
 * from STEP Tools, Inc. (www.steptools.com) 
 */

FILE_DESCRIPTION(
/* description */ (''),
/* implementation_level */ '2;1');

FILE_NAME(
/* name */ 'C:/Users/tomsa/Desktop/TubeTournage.step',
/* time_stamp */ '2021-05-20T09:21:32+02:00',
/* author */ (''),
/* organization */ (''),
/* preprocessor_version */ 'ST-DEVELOPER v18.1',
/* originating_system */ 'Autodesk Translation Framework v10.6.0.1341',

/* authorisation */ '');

FILE_SCHEMA (('AUTOMOTIVE_DESIGN { 1 0 10303 214 3 1 1 }'));
ENDSEC;

DATA;
#10=MECHANICAL_DESIGN_GEOMETRIC_PRESENTATION_REPRESENTATION('',(#13),#380);
#11=SHAPE_REPRESENTATION_RELATIONSHIP('SRR','None',#387,#12);
#12=ADVANCED_BREP_SHAPE_REPRESENTATION('',(#14),#379);
#13=STYLED_ITEM('',(#396),#14);
#14=MANIFOLD_SOLID_BREP('Corps1',#207);
#15=CYLINDRICAL_SURFACE('',#226,5.);
#16=CYLINDRICAL_SURFACE('',#233,5.);
#17=CYLINDRICAL_SURFACE('',#237,4.);
#18=CYLINDRICAL_SURFACE('',#240,4.8);
#19=CYLINDRICAL_SURFACE('',#249,4.8);
#20=CYLINDRICAL_SURFACE('',#250,5.);
#21=FACE_BOUND('',#50,.T.);
#22=FACE_BOUND('',#54,.T.);
#23=FACE_BOUND('',#59,.T.);
#24=FACE_BOUND('',#62,.T.);
#25=FACE_BOUND('',#64,.T.);
#26=FACE_BOUND('',#66,.T.);
#27=PLANE('',#224);
#28=PLANE('',#231);
#29=PLANE('',#238);
#30=PLANE('',#242);
#31=PLANE('',#244);
#32=PLANE('',#246);
#33=FACE_OUTER_BOUND('',#48,.T.);
#34=FACE_OUTER_BOUND('',#49,.T.);
#35=FACE_OUTER_BOUND('',#51,.T.);
#36=FACE_OUTER_BOUND('',#52,.T.);
#37=FACE_OUTER_BOUND('',#53,.T.);
#38=FACE_OUTER_BOUND('',#55,.T.);
#39=FACE_OUTER_BOUND('',#56,.T.);
#40=FACE_OUTER_BOUND('',#57,.T.);
#41=FACE_OUTER_BOUND('',#58,.T.);
#42=FACE_OUTER_BOUND('',#60,.T.);
#43=FACE_OUTER_BOUND('',#61,.T.);
#44=FACE_OUTER_BOUND('',#63,.T.);
#45=FACE_OUTER_BOUND('',#65,.T.);
#46=FACE_OUTER_BOUND('',#67,.T.);
#47=FACE_OUTER_BOUND('',#68,.T.);
#48=EDGE_LOOP('',(#141,#142,#143,#144));
#49=EDGE_LOOP('',(#145));
#50=EDGE_LOOP('',(#146));
#51=EDGE_LOOP('',(#147,#148,#149,#150));
#52=EDGE_LOOP('',(#151,#152,#153,#154));
#53=EDGE_LOOP('',(#155));
#54=EDGE_LOOP('',(#156));
#55=EDGE_LOOP('',(#157,#158,#159,#160));
#56=EDGE_LOOP('',(#161,#162,#163,#164));
#57=EDGE_LOOP('',(#165,#166,#167,#168));
#58=EDGE_LOOP('',(#169));
#59=EDGE_LOOP('',(#170));
#60=EDGE_LOOP('',(#171,#172,#173,#174));
#61=EDGE_LOOP('',(#175));
#62=EDGE_LOOP('',(#176));
#63=EDGE_LOOP('',(#177));
#64=EDGE_LOOP('',(#178));
#65=EDGE_LOOP('',(#179));
#66=EDGE_LOOP('',(#180));
#67=EDGE_LOOP('',(#181,#182,#183,#184));
#68=EDGE_LOOP('',(#185,#186,#187,#188));
#69=LINE('',#327,#78);
#70=LINE('',#335,#79);
#71=LINE('',#340,#80);
#72=LINE('',#347,#81);
#73=LINE('',#351,#82);
#74=LINE('',#354,#83);
#75=LINE('',#361,#84);
#76=LINE('',#374,#85);
#77=LINE('',#376,#86);
#78=VECTOR('',#257,4.9);
#79=VECTOR('',#268,5.);
#80=VECTOR('',#273,4.9);
#81=VECTOR('',#282,5.);
#82=VECTOR('',#287,4.1);
#83=VECTOR('',#292,4.);
#84=VECTOR('',#301,4.8);
#85=VECTOR('',#318,4.8);
#86=VECTOR('',#321,5.);
#87=CIRCLE('',#222,4.8);
#88=CIRCLE('',#223,5.);
#89=CIRCLE('',#225,4.);
#90=CIRCLE('',#227,5.);
#91=CIRCLE('',#229,4.8);
#92=CIRCLE('',#230,5.);
#93=CIRCLE('',#232,4.2);
#94=CIRCLE('',#234,5.);
#95=CIRCLE('',#236,4.);
#96=CIRCLE('',#239,4.8);
#97=CIRCLE('',#241,4.8);
#98=CIRCLE('',#243,5.);
#99=CIRCLE('',#245,4.8);
#100=CIRCLE('',#247,5.);
#101=CIRCLE('',#248,4.8);
#102=VERTEX_POINT('',#324);
#103=VERTEX_POINT('',#326);
#104=VERTEX_POINT('',#330);
#105=VERTEX_POINT('',#333);
#106=VERTEX_POINT('',#337);
#107=VERTEX_POINT('',#339);
#108=VERTEX_POINT('',#343);
#109=VERTEX_POINT('',#346);
#110=VERTEX_POINT('',#350);
#111=VERTEX_POINT('',#356);
#112=VERTEX_POINT('',#359);
#113=VERTEX_POINT('',#363);
#114=VERTEX_POINT('',#366);
#115=VERTEX_POINT('',#369);
#116=VERTEX_POINT('',#371);
#117=EDGE_CURVE('',#102,#102,#87,.T.);
#118=EDGE_CURVE('',#102,#103,#69,.T.);
#119=EDGE_CURVE('',#103,#103,#88,.T.);
#120=EDGE_CURVE('',#104,#104,#89,.T.);
#121=EDGE_CURVE('',#105,#105,#90,.T.);
#122=EDGE_CURVE('',#105,#103,#70,.T.);
#123=EDGE_CURVE('',#106,#106,#91,.T.);
#124=EDGE_CURVE('',#106,#107,#71,.T.);
#125=EDGE_CURVE('',#107,#107,#92,.T.);
#126=EDGE_CURVE('',#108,#108,#93,.T.);
#127=EDGE_CURVE('',#107,#109,#72,.T.);
#128=EDGE_CURVE('',#109,#109,#94,.T.);
#129=EDGE_CURVE('',#108,#110,#73,.T.);
#130=EDGE_CURVE('',#110,#110,#95,.T.);
#131=EDGE_CURVE('',#110,#104,#74,.T.);
#132=EDGE_CURVE('',#111,#111,#96,.T.);
#133=EDGE_CURVE('',#112,#112,#97,.T.);
#134=EDGE_CURVE('',#112,#111,#75,.T.);
#135=EDGE_CURVE('',#113,#113,#98,.T.);
#136=EDGE_CURVE('',#114,#114,#99,.T.);
#137=EDGE_CURVE('',#115,#115,#100,.T.);
#138=EDGE_CURVE('',#116,#116,#101,.T.);
#139=EDGE_CURVE('',#114,#116,#76,.T.);
#140=EDGE_CURVE('',#113,#115,#77,.T.);
#141=ORIENTED_EDGE('',*,*,#117,.T.);
#142=ORIENTED_EDGE('',*,*,#118,.T.);
#143=ORIENTED_EDGE('',*,*,#119,.T.);
#144=ORIENTED_EDGE('',*,*,#118,.F.);
#145=ORIENTED_EDGE('',*,*,#117,.F.);
#146=ORIENTED_EDGE('',*,*,#120,.T.);
#147=ORIENTED_EDGE('',*,*,#121,.T.);
#148=ORIENTED_EDGE('',*,*,#122,.T.);
#149=ORIENTED_EDGE('',*,*,#119,.F.);
#150=ORIENTED_EDGE('',*,*,#122,.F.);
#151=ORIENTED_EDGE('',*,*,#123,.T.);
#152=ORIENTED_EDGE('',*,*,#124,.T.);
#153=ORIENTED_EDGE('',*,*,#125,.T.);
#154=ORIENTED_EDGE('',*,*,#124,.F.);
#155=ORIENTED_EDGE('',*,*,#123,.F.);
#156=ORIENTED_EDGE('',*,*,#126,.F.);
#157=ORIENTED_EDGE('',*,*,#125,.F.);
#158=ORIENTED_EDGE('',*,*,#127,.T.);
#159=ORIENTED_EDGE('',*,*,#128,.T.);
#160=ORIENTED_EDGE('',*,*,#127,.F.);
#161=ORIENTED_EDGE('',*,*,#126,.T.);
#162=ORIENTED_EDGE('',*,*,#129,.T.);
#163=ORIENTED_EDGE('',*,*,#130,.T.);
#164=ORIENTED_EDGE('',*,*,#129,.F.);
#165=ORIENTED_EDGE('',*,*,#130,.F.);
#166=ORIENTED_EDGE('',*,*,#131,.T.);
#167=ORIENTED_EDGE('',*,*,#120,.F.);
#168=ORIENTED_EDGE('',*,*,#131,.F.);
#169=ORIENTED_EDGE('',*,*,#128,.F.);
#170=ORIENTED_EDGE('',*,*,#132,.T.);
#171=ORIENTED_EDGE('',*,*,#133,.T.);
#172=ORIENTED_EDGE('',*,*,#134,.T.);
#173=ORIENTED_EDGE('',*,*,#132,.F.);
#174=ORIENTED_EDGE('',*,*,#134,.F.);
#175=ORIENTED_EDGE('',*,*,#135,.F.);
#176=ORIENTED_EDGE('',*,*,#133,.F.);
#177=ORIENTED_EDGE('',*,*,#121,.F.);
#178=ORIENTED_EDGE('',*,*,#136,.F.);
#179=ORIENTED_EDGE('',*,*,#137,.F.);
#180=ORIENTED_EDGE('',*,*,#138,.T.);
#181=ORIENTED_EDGE('',*,*,#136,.T.);
#182=ORIENTED_EDGE('',*,*,#139,.T.);
#183=ORIENTED_EDGE('',*,*,#138,.F.);
#184=ORIENTED_EDGE('',*,*,#139,.F.);
#185=ORIENTED_EDGE('',*,*,#135,.T.);
#186=ORIENTED_EDGE('',*,*,#140,.T.);
#187=ORIENTED_EDGE('',*,*,#137,.T.);
#188=ORIENTED_EDGE('',*,*,#140,.F.);
#189=CONICAL_SURFACE('',#221,4.9,0.785398163397448);
#190=CONICAL_SURFACE('',#228,4.9,0.785398163397459);
#191=CONICAL_SURFACE('',#235,4.1,0.785398163397459);
#192=ADVANCED_FACE('',(#33),#189,.T.);
#193=ADVANCED_FACE('',(#34,#21),#27,.F.);
#194=ADVANCED_FACE('',(#35),#15,.T.);
#195=ADVANCED_FACE('',(#36),#190,.T.);
#196=ADVANCED_FACE('',(#37,#22),#28,.T.);
#197=ADVANCED_FACE('',(#38),#16,.T.);
#198=ADVANCED_FACE('',(#39),#191,.F.);
#199=ADVANCED_FACE('',(#40),#17,.F.);
#200=ADVANCED_FACE('',(#41,#23),#29,.F.);
#201=ADVANCED_FACE('',(#42),#18,.T.);
#202=ADVANCED_FACE('',(#43,#24),#30,.F.);
#203=ADVANCED_FACE('',(#44,#25),#31,.F.);
#204=ADVANCED_FACE('',(#45,#26),#32,.F.);
#205=ADVANCED_FACE('',(#46),#19,.T.);
#206=ADVANCED_FACE('',(#47),#20,.T.);
#207=CLOSED_SHELL('',(#192,#193,#194,#195,#196,#197,#198,#199,#200,#201,
#202,#203,#204,#205,#206));
#208=DERIVED_UNIT_ELEMENT(#210,1.);
#209=DERIVED_UNIT_ELEMENT(#382,-3.);
#210=(
MASS_UNIT()
NAMED_UNIT(*)
SI_UNIT(.KILO.,.GRAM.)
);
#211=DERIVED_UNIT((#208,#209));
#212=MEASURE_REPRESENTATION_ITEM('density measure',
POSITIVE_RATIO_MEASURE(7850.),#211);
#213=PROPERTY_DEFINITION_REPRESENTATION(#218,#215);
#214=PROPERTY_DEFINITION_REPRESENTATION(#219,#216);
#215=REPRESENTATION('material name',(#217),#379);
#216=REPRESENTATION('density',(#212),#379);
#217=DESCRIPTIVE_REPRESENTATION_ITEM('Acier','Acier');
#218=PROPERTY_DEFINITION('material property','material name',#389);
#219=PROPERTY_DEFINITION('material property','density of part',#389);
#220=AXIS2_PLACEMENT_3D('placement',#322,#251,#252);
#221=AXIS2_PLACEMENT_3D('',#323,#253,#254);
#222=AXIS2_PLACEMENT_3D('',#325,#255,#256);
#223=AXIS2_PLACEMENT_3D('',#328,#258,#259);
#224=AXIS2_PLACEMENT_3D('',#329,#260,#261);
#225=AXIS2_PLACEMENT_3D('',#331,#262,#263);
#226=AXIS2_PLACEMENT_3D('',#332,#264,#265);
#227=AXIS2_PLACEMENT_3D('',#334,#266,#267);
#228=AXIS2_PLACEMENT_3D('',#336,#269,#270);
#229=AXIS2_PLACEMENT_3D('',#338,#271,#272);
#230=AXIS2_PLACEMENT_3D('',#341,#274,#275);
#231=AXIS2_PLACEMENT_3D('',#342,#276,#277);
#232=AXIS2_PLACEMENT_3D('',#344,#278,#279);
#233=AXIS2_PLACEMENT_3D('',#345,#280,#281);
#234=AXIS2_PLACEMENT_3D('',#348,#283,#284);
#235=AXIS2_PLACEMENT_3D('',#349,#285,#286);
#236=AXIS2_PLACEMENT_3D('',#352,#288,#289);
#237=AXIS2_PLACEMENT_3D('',#353,#290,#291);
#238=AXIS2_PLACEMENT_3D('',#355,#293,#294);
#239=AXIS2_PLACEMENT_3D('',#357,#295,#296);
#240=AXIS2_PLACEMENT_3D('',#358,#297,#298);
#241=AXIS2_PLACEMENT_3D('',#360,#299,#300);
#242=AXIS2_PLACEMENT_3D('',#362,#302,#303);
#243=AXIS2_PLACEMENT_3D('',#364,#304,#305);
#244=AXIS2_PLACEMENT_3D('',#365,#306,#307);
#245=AXIS2_PLACEMENT_3D('',#367,#308,#309);
#246=AXIS2_PLACEMENT_3D('',#368,#310,#311);
#247=AXIS2_PLACEMENT_3D('',#370,#312,#313);
#248=AXIS2_PLACEMENT_3D('',#372,#314,#315);
#249=AXIS2_PLACEMENT_3D('',#373,#316,#317);
#250=AXIS2_PLACEMENT_3D('',#375,#319,#320);
#251=DIRECTION('axis',(0.,0.,1.));
#252=DIRECTION('refdir',(1.,0.,0.));
#253=DIRECTION('center_axis',(0.,0.,1.));
#254=DIRECTION('ref_axis',(1.,0.,0.));
#255=DIRECTION('center_axis',(0.,0.,1.));
#256=DIRECTION('ref_axis',(1.,0.,0.));
#257=DIRECTION('',(-0.707106781186548,8.65956056235494E-17,0.707106781186548));
#258=DIRECTION('center_axis',(0.,0.,-1.));
#259=DIRECTION('ref_axis',(1.,0.,0.));
#260=DIRECTION('center_axis',(0.,0.,1.));
#261=DIRECTION('ref_axis',(1.,0.,0.));
#262=DIRECTION('center_axis',(0.,0.,1.));
#263=DIRECTION('ref_axis',(1.,0.,0.));
#264=DIRECTION('center_axis',(0.,0.,1.));
#265=DIRECTION('ref_axis',(1.,0.,0.));
#266=DIRECTION('center_axis',(0.,0.,-1.));
#267=DIRECTION('ref_axis',(1.,0.,0.));
#268=DIRECTION('',(0.,0.,-1.));
#269=DIRECTION('center_axis',(0.,0.,-1.));
#270=DIRECTION('ref_axis',(1.,0.,0.));
#271=DIRECTION('center_axis',(0.,0.,-1.));
#272=DIRECTION('ref_axis',(1.,0.,0.));
#273=DIRECTION('',(-0.707106781186555,-8.65956056235503E-17,-0.70710678118654));
#274=DIRECTION('center_axis',(0.,0.,1.));
#275=DIRECTION('ref_axis',(1.,0.,0.));
#276=DIRECTION('center_axis',(0.,0.,1.));
#277=DIRECTION('ref_axis',(1.,0.,0.));
#278=DIRECTION('center_axis',(0.,0.,1.));
#279=DIRECTION('ref_axis',(1.,0.,0.));
#280=DIRECTION('center_axis',(0.,0.,1.));
#281=DIRECTION('ref_axis',(1.,0.,0.));
#282=DIRECTION('',(0.,0.,-1.));
#283=DIRECTION('center_axis',(0.,0.,1.));
#284=DIRECTION('ref_axis',(1.,0.,0.));
#285=DIRECTION('center_axis',(0.,0.,1.));
#286=DIRECTION('ref_axis',(1.,0.,0.));
#287=DIRECTION('',(0.707106781186555,8.65956056235503E-17,-0.70710678118654));
#288=DIRECTION('center_axis',(0.,0.,-1.));
#289=DIRECTION('ref_axis',(1.,0.,0.));
#290=DIRECTION('center_axis',(0.,0.,1.));
#291=DIRECTION('ref_axis',(1.,0.,0.));
#292=DIRECTION('',(0.,0.,-1.));
#293=DIRECTION('center_axis',(0.,0.,1.));
#294=DIRECTION('ref_axis',(1.,0.,0.));
#295=DIRECTION('center_axis',(0.,0.,1.));
#296=DIRECTION('ref_axis',(1.,0.,0.));
#297=DIRECTION('center_axis',(0.,0.,1.));
#298=DIRECTION('ref_axis',(1.,0.,0.));
#299=DIRECTION('center_axis',(0.,0.,1.));
#300=DIRECTION('ref_axis',(1.,0.,0.));
#301=DIRECTION('',(0.,0.,1.));
#302=DIRECTION('center_axis',(0.,0.,-1.));
#303=DIRECTION('ref_axis',(-1.,0.,0.));
#304=DIRECTION('center_axis',(0.,0.,-1.));
#305=DIRECTION('ref_axis',(1.,0.,0.));
#306=DIRECTION('center_axis',(0.,0.,-1.));
#307=DIRECTION('ref_axis',(-1.,0.,0.));
#308=DIRECTION('center_axis',(0.,0.,1.));
#309=DIRECTION('ref_axis',(1.,0.,0.));
#310=DIRECTION('center_axis',(0.,0.,1.));
#311=DIRECTION('ref_axis',(1.,0.,0.));
#312=DIRECTION('center_axis',(0.,0.,1.));
#313=DIRECTION('ref_axis',(1.,0.,0.));
#314=DIRECTION('center_axis',(0.,0.,1.));
#315=DIRECTION('ref_axis',(1.,0.,0.));
#316=DIRECTION('center_axis',(0.,0.,1.));
#317=DIRECTION('ref_axis',(1.,0.,0.));
#318=DIRECTION('',(0.,0.,1.));
#319=DIRECTION('center_axis',(0.,0.,1.));
#320=DIRECTION('ref_axis',(1.,0.,0.));
#321=DIRECTION('',(0.,0.,-1.));
#322=CARTESIAN_POINT('',(0.,0.,0.));
#323=CARTESIAN_POINT('Origin',(0.,0.,-2.9));
#324=CARTESIAN_POINT('',(-4.8,-5.87830463590729E-16,-3.));
#325=CARTESIAN_POINT('Origin',(0.,0.,-3.));
#326=CARTESIAN_POINT('',(-5.,6.12323399573677E-16,-2.8));
#327=CARTESIAN_POINT('',(-4.9,6.00076931582203E-16,-2.9));
#328=CARTESIAN_POINT('Origin',(0.,0.,-2.8));
#329=CARTESIAN_POINT('Origin',(0.,0.,-3.));
#330=CARTESIAN_POINT('',(-4.,-4.89858719658941E-16,-3.));
#331=CARTESIAN_POINT('Origin',(0.,0.,-3.));
#332=CARTESIAN_POINT('Origin',(0.,0.,0.));
#333=CARTESIAN_POINT('',(-5.,-6.12323399573677E-16,24.5));
#334=CARTESIAN_POINT('Origin',(0.,0.,24.5));
#335=CARTESIAN_POINT('',(-5.,-6.12323399573677E-16,0.));
#336=CARTESIAN_POINT('Origin',(0.,0.,44.9));
#337=CARTESIAN_POINT('',(-4.8,5.87830463590729E-16,45.));
#338=CARTESIAN_POINT('Origin',(0.,0.,45.));
#339=CARTESIAN_POINT('',(-5.,-6.12323399573677E-16,44.8));
#340=CARTESIAN_POINT('',(-4.9,-6.00076931582203E-16,44.9));
#341=CARTESIAN_POINT('Origin',(0.,0.,44.8));
#342=CARTESIAN_POINT('Origin',(0.,0.,45.));
#343=CARTESIAN_POINT('',(-4.2,-5.14351655641888E-16,45.));
#344=CARTESIAN_POINT('Origin',(0.,0.,45.));
#345=CARTESIAN_POINT('Origin',(0.,0.,0.));
#346=CARTESIAN_POINT('',(-5.,-6.12323399573677E-16,37.5));
#347=CARTESIAN_POINT('',(-5.,-6.12323399573677E-16,0.));
#348=CARTESIAN_POINT('Origin',(0.,0.,37.5));
#349=CARTESIAN_POINT('Origin',(0.,0.,44.9));
#350=CARTESIAN_POINT('',(-4.,4.89858719658941E-16,44.8));
#351=CARTESIAN_POINT('',(-4.1,-5.02105187650415E-16,44.9));
#352=CARTESIAN_POINT('Origin',(0.,0.,44.8));
#353=CARTESIAN_POINT('Origin',(0.,0.,0.));
#354=CARTESIAN_POINT('',(-4.,-4.89858719658941E-16,0.));
#355=CARTESIAN_POINT('Origin',(4.8,0.,37.5));
#356=CARTESIAN_POINT('',(-4.8,-5.87830463590729E-16,37.5));
#357=CARTESIAN_POINT('Origin',(0.,0.,37.5));
#358=CARTESIAN_POINT('Origin',(0.,0.,37.));
#359=CARTESIAN_POINT('',(-4.8,-5.87830463590729E-16,36.5));
#360=CARTESIAN_POINT('Origin',(0.,0.,36.5));
#361=CARTESIAN_POINT('',(-4.8,-5.87830463590729E-16,37.));
#362=CARTESIAN_POINT('Origin',(5.,0.,36.5));
#363=CARTESIAN_POINT('',(-5.,-6.12323399573677E-16,36.5));
#364=CARTESIAN_POINT('Origin',(0.,0.,36.5));
#365=CARTESIAN_POINT('Origin',(5.,0.,24.5));
#366=CARTESIAN_POINT('',(-4.8,-5.87830463590729E-16,24.5));
#367=CARTESIAN_POINT('Origin',(0.,0.,24.5));
#368=CARTESIAN_POINT('Origin',(4.8,0.,25.5));
#369=CARTESIAN_POINT('',(-5.,-6.12323399573677E-16,25.5));
#370=CARTESIAN_POINT('Origin',(0.,0.,25.5));
#371=CARTESIAN_POINT('',(-4.8,-5.87830463590729E-16,25.5));
#372=CARTESIAN_POINT('Origin',(0.,0.,25.5));
#373=CARTESIAN_POINT('Origin',(0.,0.,25.));
#374=CARTESIAN_POINT('',(-4.8,-5.87830463590729E-16,25.));
#375=CARTESIAN_POINT('Origin',(0.,0.,0.));
#376=CARTESIAN_POINT('',(-5.,-6.12323399573677E-16,0.));
#377=UNCERTAINTY_MEASURE_WITH_UNIT(LENGTH_MEASURE(0.01),#381,
'DISTANCE_ACCURACY_VALUE',
'Maximum model space distance between geometric entities at asserted c
onnectivities');
#378=UNCERTAINTY_MEASURE_WITH_UNIT(LENGTH_MEASURE(0.01),#381,
'DISTANCE_ACCURACY_VALUE',
'Maximum model space distance between geometric entities at asserted c
onnectivities');
#379=(
GEOMETRIC_REPRESENTATION_CONTEXT(3)
GLOBAL_UNCERTAINTY_ASSIGNED_CONTEXT((#377))
GLOBAL_UNIT_ASSIGNED_CONTEXT((#381,#383,#384))
REPRESENTATION_CONTEXT('','3D')
);
#380=(
GEOMETRIC_REPRESENTATION_CONTEXT(3)
GLOBAL_UNCERTAINTY_ASSIGNED_CONTEXT((#378))
GLOBAL_UNIT_ASSIGNED_CONTEXT((#381,#383,#384))
REPRESENTATION_CONTEXT('','3D')
);
#381=(
LENGTH_UNIT()
NAMED_UNIT(*)
SI_UNIT(.MILLI.,.METRE.)
);
#382=(
LENGTH_UNIT()
NAMED_UNIT(*)
SI_UNIT($,.METRE.)
);
#383=(
NAMED_UNIT(*)
PLANE_ANGLE_UNIT()
SI_UNIT($,.RADIAN.)
);
#384=(
NAMED_UNIT(*)
SI_UNIT($,.STERADIAN.)
SOLID_ANGLE_UNIT()
);
#385=SHAPE_DEFINITION_REPRESENTATION(#386,#387);
#386=PRODUCT_DEFINITION_SHAPE('',$,#389);
#387=SHAPE_REPRESENTATION('',(#220),#379);
#388=PRODUCT_DEFINITION_CONTEXT('part definition',#393,'design');
#389=PRODUCT_DEFINITION('Tube 8/10 L30 - threaded',
'Tube 8/10 L30 - threaded v26',#390,#388);
#390=PRODUCT_DEFINITION_FORMATION('',$,#395);
#391=PRODUCT_RELATED_PRODUCT_CATEGORY('Tube 8/10 L30 - threaded v26',
'Tube 8/10 L30 - threaded v26',(#395));
#392=APPLICATION_PROTOCOL_DEFINITION('international standard',
'automotive_design',2009,#393);
#393=APPLICATION_CONTEXT(
'Core Data for Automotive Mechanical Design Process');
#394=PRODUCT_CONTEXT('part definition',#393,'mechanical');
#395=PRODUCT('Tube 8/10 L30 - threaded','Tube 8/10 L30 - threaded v26',
$,(#394));
#396=PRESENTATION_STYLE_ASSIGNMENT((#397));
#397=SURFACE_STYLE_USAGE(.BOTH.,#398);
#398=SURFACE_SIDE_STYLE('',(#399));
#399=SURFACE_STYLE_FILL_AREA(#400);
#400=FILL_AREA_STYLE('Aluminium - Microbill\X\E9',(#401));
#401=FILL_AREA_STYLE_COLOUR('Aluminium - Microbill\X\E9',#402);
#402=COLOUR_RGB('Aluminium - Microbill\X\E9',0.96078431372549,0.96078431372549,
0.964705882352941);
ENDSEC;
END-ISO-10303-21;
