  0
SECTION
  2
HEADER
  9
$ACADVER
  1
AC1015
  9
$ACADMAINTVER
 70
     6
  9
$DWGCODEPAGE
  3
ANSI_1252
  9
$INSBASE
 10
0.0
 20
0.0
 30
0.0
  9
$EXTMIN
 10
-167.1872526449
 20
-167.1475658494
 30
0.0
  9
$EXTMAX
 10
167.1872526449
 20
167.1475658494
 30
0.0
  9
$LIMMIN
 10
0.0
 20
0.0
  9
$LIMMAX
 10
420.0
 20
297.0
  9
$ORTHOMODE
 70
     0
  9
$REGENMODE
 70
     1
  9
$FILLMODE
 70
     1
  9
$QTEXTMODE
 70
     0
  9
$MIRRTEXT
 70
     1
  9
$LTSCALE
 40
1.0
  9
$ATTMODE
 70
     1
  9
$TEXTSIZE
 40
3.5
  9
$TRACEWID
 40
1.0
  9
$TEXTSTYLE
  7
Standard
  9
$CLAYER
  8
0
  9
$CELTYPE
  6
ByLayer
  9
$CECOLOR
 62
   256
  9
$CELTSCALE
 40
1.0
  9
$DISPSILH
 70
     0
  9
$DIMSCALE
 40
1.0
  9
$DIMASZ
 40
3.302
  9
$DIMEXO
 40
1.0
  9
$DIMDLI
 40
3.75
  9
$DIMRND
 40
0.0
  9
$DIMDLE
 40
0.0
  9
$DIMEXE
 40
1.0
  9
$DIMTP
 40
0.0
  9
$DIMTM
 40
0.0
  9
$DIMTXT
 40
3.5
  9
$DIMCEN
 40
2.5
  9
$DIMTSZ
 40
0.0
  9
$DIMTOL
 70
     0
  9
$DIMLIM
 70
     0
  9
$DIMTIH
 70
     1
  9
$DIMTOH
 70
     1
  9
$DIMSE1
 70
     0
  9
$DIMSE2
 70
     0
  9
$DIMTAD
 70
     1
  9
$DIMZIN
 70
     0
  9
$DIMBLK
  1

  9
$DIMASO
 70
     1
  9
$DIMSHO
 70
     1
  9
$DIMPOST
  1

  9
$DIMAPOST
  1

  9
$DIMALT
 70
     0
  9
$DIMALTD
 70
     3
  9
$DIMALTF
 40
0.0393700787
  9
$DIMLFAC
 40
1.0
  9
$DIMTOFL
 70
     1
  9
$DIMTVP
 40
0.0
  9
$DIMTIX
 70
     0
  9
$DIMSOXD
 70
     0
  9
$DIMSAH
 70
     0
  9
$DIMBLK1
  1

  9
$DIMBLK2
  1

  9
$DIMSTYLE
  2
ISO-25
  9
$DIMCLRD
 70
     0
  9
$DIMCLRE
 70
     0
  9
$DIMCLRT
 70
     0
  9
$DIMTFAC
 40
1.0
  9
$DIMGAP
 40
1.524
  9
$DIMJUST
 70
     0
  9
$DIMSD1
 70
     0
  9
$DIMSD2
 70
     0
  9
$DIMTOLJ
 70
     0
  9
$DIMTZIN
 70
     0
  9
$DIMALTZ
 70
     0
  9
$DIMALTTZ
 70
     0
  9
$DIMUPT
 70
     0
  9
$DIMDEC
 70
     2
  9
$DIMTDEC
 70
     2
  9
$DIMALTU
 70
     2
  9
$DIMALTTD
 70
     3
  9
$DIMTXSTY
  7
Standard
  9
$DIMAUNIT
 70
     0
  9
$DIMADEC
 70
     2
  9
$DIMALTRND
 40
0.0
  9
$DIMAZIN
 70
     0
  9
$DIMDSEP
 70
    44
  9
$DIMATFIT
 70
     3
  9
$DIMFRAC
 70
     0
  9
$DIMLDRBLK
  1

  9
$DIMLUNIT
 70
     2
  9
$DIMLWD
 70
    -2
  9
$DIMLWE
 70
    -2
  9
$DIMTMOVE
 70
     0
  9
$LUNITS
 70
     2
  9
$LUPREC
 70
     2
  9
$SKETCHINC
 40
1.0
  9
$FILLETRAD
 40
10.0
  9
$AUNITS
 70
     0
  9
$AUPREC
 70
     2
  9
$MENU
  1
.
  9
$ELEVATION
 40
0.0
  9
$PELEVATION
 40
0.0
  9
$THICKNESS
 40
0.0
  9
$LIMCHECK
 70
     0
  9
$CHAMFERA
 40
0.0
  9
$CHAMFERB
 40
0.0
  9
$CHAMFERC
 40
0.0
  9
$CHAMFERD
 40
0.0
  9
$SKPOLY
 70
     0
  9
$TDCREATE
 40
2459352.816531748
  9
$TDUCREATE
 40
2459352.733198415
  9
$TDUPDATE
 40
2459352.816558056
  9
$TDUUPDATE
 40
2459352.733224722
  9
$TDINDWG
 40
0.0000000116
  9
$TDUSRTIMER
 40
0.0000000116
  9
$USRTIMER
 70
     1
  9
$ANGBASE
 50
0.0
  9
$ANGDIR
 70
     0
  9
$PDMODE
 70
     0
  9
$PDSIZE
 40
-1.0
  9
$PLINEWID
 40
0.0
  9
$SPLFRAME
 70
     0
  9
$SPLINETYPE
 70
     6
  9
$SPLINESEGS
 70
     8
  9
$HANDSEED
  5
3CB
  9
$SURFTAB1
 70
     6
  9
$SURFTAB2
 70
     6
  9
$SURFTYPE
 70
     6
  9
$SURFU
 70
     6
  9
$SURFV
 70
     6
  9
$UCSBASE
  2

  9
$UCSNAME
  2

  9
$UCSORG
 10
0.0
 20
0.0
 30
0.0
  9
$UCSXDIR
 10
1.0
 20
0.0
 30
0.0
  9
$UCSYDIR
 10
0.0
 20
1.0
 30
0.0
  9
$UCSORTHOREF
  2

  9
$UCSORTHOVIEW
 70
     0
  9
$UCSORGTOP
 10
0.0
 20
0.0
 30
0.0
  9
$UCSORGBOTTOM
 10
0.0
 20
0.0
 30
0.0
  9
$UCSORGLEFT
 10
0.0
 20
0.0
 30
0.0
  9
$UCSORGRIGHT
 10
0.0
 20
0.0
 30
0.0
  9
$UCSORGFRONT
 10
0.0
 20
0.0
 30
0.0
  9
$UCSORGBACK
 10
0.0
 20
0.0
 30
0.0
  9
$PUCSBASE
  2

  9
$PUCSNAME
  2

  9
$PUCSORG
 10
0.0
 20
0.0
 30
0.0
  9
$PUCSXDIR
 10
1.0
 20
0.0
 30
0.0
  9
$PUCSYDIR
 10
0.0
 20
1.0
 30
0.0
  9
$PUCSORTHOREF
  2

  9
$PUCSORTHOVIEW
 70
     0
  9
$PUCSORGTOP
 10
0.0
 20
0.0
 30
0.0
  9
$PUCSORGBOTTOM
 10
0.0
 20
0.0
 30
0.0
  9
$PUCSORGLEFT
 10
0.0
 20
0.0
 30
0.0
  9
$PUCSORGRIGHT
 10
0.0
 20
0.0
 30
0.0
  9
$PUCSORGFRONT
 10
0.0
 20
0.0
 30
0.0
  9
$PUCSORGBACK
 10
0.0
 20
0.0
 30
0.0
  9
$USERI1
 70
     0
  9
$USERI2
 70
     0
  9
$USERI3
 70
     0
  9
$USERI4
 70
     0
  9
$USERI5
 70
     0
  9
$USERR1
 40
0.0
  9
$USERR2
 40
0.0
  9
$USERR3
 40
0.0
  9
$USERR4
 40
0.0
  9
$USERR5
 40
0.0
  9
$WORLDVIEW
 70
     1
  9
$SHADEDGE
 70
     3
  9
$SHADEDIF
 70
    70
  9
$TILEMODE
 70
     1
  9
$MAXACTVP
 70
    64
  9
$PINSBASE
 10
0.0
 20
0.0
 30
0.0
  9
$PLIMCHECK
 70
     0
  9
$PEXTMIN
 10
1.0000000000E+20
 20
1.0000000000E+20
 30
1.0000000000E+20
  9
$PEXTMAX
 10
-1.0000000000E+20
 20
-1.0000000000E+20
 30
-1.0000000000E+20
  9
$PLIMMIN
 10
0.0
 20
0.0
  9
$PLIMMAX
 10
420.0
 20
297.0
  9
$UNITMODE
 70
     0
  9
$VISRETAIN
 70
     1
  9
$PLINEGEN
 70
     0
  9
$PSLTSCALE
 70
     1
  9
$TREEDEPTH
 70
  3020
  9
$CMLSTYLE
  2
Standard
  9
$CMLJUST
 70
     0
  9
$CMLSCALE
 40
20.0
  9
$PROXYGRAPHICS
 70
     1
  9
$MEASUREMENT
 70
     1
  9
$CELWEIGHT
370
    -1
  9
$ENDCAPS
280
     0
  9
$JOINSTYLE
280
     0
  9
$LWDISPLAY
290
     1
  9
$INSUNITS
 70
     4
  9
$HYPERLINKBASE
  1

  9
$STYLESHEET
  1

  9
$XEDIT
290
     1
  9
$CEPSNTYPE
380
     0
  9
$PSTYLEMODE
290
     1
  9
$FINGERPRINTGUID
  2
{2B0F5144-243A-491B-8B55-40F3415C0605}
  9
$VERSIONGUID
  2
{FAEB1C32-E019-11D5-929B-00C0DF256EC4}
  9
$EXTNAMES
290
     1
  9
$PSVPSCALE
 40
0.0
  9
$OLESTARTUP
290
     0
  0
ENDSEC
  0
SECTION
  2
CLASSES
  0
CLASS
  1
ACDBDICTIONARYWDFLT
  2
AcDbDictionaryWithDefault
  3
ObjectDBX Classes
 90
        0
280
     0
281
     0
  0
CLASS
  1
VISUALSTYLE
  2
AcDbVisualStyle
  3
ObjectDBX Classes
 90
     4095
280
     0
281
     0
  0
CLASS
  1
MATERIAL
  2
AcDbMaterial
  3
ObjectDBX Classes
 90
     1153
280
     0
281
     0
  0
CLASS
  1
SCALE
  2
AcDbScale
  3
ObjectDBX Classes
 90
     1153
280
     0
281
     0
  0
CLASS
  1
TABLESTYLE
  2
AcDbTableStyle
  3
ObjectDBX Classes
 90
     4095
280
     0
281
     0
  0
CLASS
  1
MLEADERSTYLE
  2
AcDbMLeaderStyle
  3
ACDB_MLEADERSTYLE_CLASS
 90
     4095
280
     0
281
     0
  0
CLASS
  1
SUN
  2
AcDbSun
  3
SCENEOE
 90
     1153
280
     0
281
     0
  0
CLASS
  1
ACDBPLACEHOLDER
  2
AcDbPlaceHolder
  3
ObjectDBX Classes
 90
        0
280
     0
281
     0
  0
CLASS
  1
LAYOUT
  2
AcDbLayout
  3
ObjectDBX Classes
 90
        0
280
     0
281
     0
  0
ENDSEC
  0
SECTION
  2
TABLES
  0
TABLE
  2
VPORT
  5
8
330
0
100
AcDbSymbolTable
 70
     1
  0
VPORT
  5
29
330
8
100
AcDbSymbolTableRecord
100
AcDbViewportTableRecord
  2
*Active
 70
     0
 10
0.0
 20
0.0
 11
1.0
 21
1.0
 12
0.0
 22
0.0
 13
0.0
 23
0.0
 14
10.0
 24
10.0
 15
10.0
 25
10.0
 16
0.0
 26
0.0
 36
1.0
 17
0.0
 27
0.0
 37
0.0
 40
340.9810343327
 41
1.0002374357
 42
50.0
 43
0.0
 44
0.0
 50
0.0
 51
0.0
 71
     0
 72
   100
 73
     1
 74
     3
 75
     0
 76
     0
 77
     0
 78
     0
281
     0
 65
     1
110
0.0
120
0.0
130
0.0
111
1.0
121
0.0
131
0.0
112
0.0
122
1.0
132
0.0
 79
     0
146
0.0
  0
ENDTAB
  0
TABLE
  2
LTYPE
  5
5
330
0
100
AcDbSymbolTable
 70
     6
  0
LTYPE
  5
14
330
5
100
AcDbSymbolTableRecord
100
AcDbLinetypeTableRecord
  2
ByBlock
 70
     0
  3

 72
    65
 73
     0
 40
0.0
  0
LTYPE
  5
15
330
5
100
AcDbSymbolTableRecord
100
AcDbLinetypeTableRecord
  2
ByLayer
 70
     0
  3

 72
    65
 73
     0
 40
0.0
  0
LTYPE
  5
16
330
5
100
AcDbSymbolTableRecord
100
AcDbLinetypeTableRecord
  2
Continuous
 70
     0
  3
Solid line
 72
    65
 73
     0
 40
0.0
  0
LTYPE
  5
6E
330
5
100
AcDbSymbolTableRecord
100
AcDbLinetypeTableRecord
  2
HIDDEN
 70
     0
  3
Hidden __ __ __ __ __ __ __ __ __ __ __ __ __ __
 72
    65
 73
     2
 40
1.905
 49
1.27
 74
     0
 49
-0.635
 74
     0
  0
LTYPE
  5
6F
330
5
100
AcDbSymbolTableRecord
100
AcDbLinetypeTableRecord
  2
PHANTOM
 70
     0
  3
Phantom ______  __  __  ______  __  __  ______
 72
    65
 73
     6
 40
12.7
 49
6.35
 74
     0
 49
-1.27
 74
     0
 49
1.27
 74
     0
 49
-1.27
 74
     0
 49
1.27
 74
     0
 49
-1.27
 74
     0
  0
LTYPE
  5
70
330
5
100
AcDbSymbolTableRecord
100
AcDbLinetypeTableRecord
  2
CENTER
 70
     0
  3
Center ____ _ ____ _ ____ _ ____ _ ____ _ ____
 72
    65
 73
     4
 40
10.16
 49
6.35
 74
     0
 49
-1.27
 74
     0
 49
1.27
 74
     0
 49
-1.27
 74
     0
  0
LTYPE
  5
71
330
5
100
AcDbSymbolTableRecord
100
AcDbLinetypeTableRecord
  2
CENTERX2
 70
     0
  3
Center (2x) ________  __  ________  __  _____
 72
    65
 73
     4
 40
20.32
 49
12.7
 74
     0
 49
-2.54
 74
     0
 49
2.54
 74
     0
 49
-2.54
 74
     0
  0
LTYPE
  5
72
330
5
100
AcDbSymbolTableRecord
100
AcDbLinetypeTableRecord
  2
DOT2
 70
     0
  3
Dot (.5x) ........................................
 72
    65
 73
     2
 40
0.635
 49
0.0
 74
     0
 49
-0.635
 74
     0
  0
ENDTAB
  0
TABLE
  2
LAYER
  5
2
330
0
100
AcDbSymbolTable
 70
     1
  0
LAYER
  5
10
330
2
100
AcDbSymbolTableRecord
100
AcDbLayerTableRecord
  2
0
 70
     0
 62
     7
  6
Continuous
370
    -3
390
F
  0
ENDTAB
  0
TABLE
  2
STYLE
  5
3
330
0
100
AcDbSymbolTable
 70
     1
  0
STYLE
  5
11
330
3
100
AcDbSymbolTableRecord
100
AcDbTextStyleTableRecord
  2
Standard
 70
     0
 40
0.0
 41
1.0
 50
0.0
 71
     0
 42
3.5
  3
txt
  4

  0
ENDTAB
  0
TABLE
  2
VIEW
  5
6
330
0
100
AcDbSymbolTable
 70
     0
  0
ENDTAB
  0
TABLE
  2
UCS
  5
7
330
0
100
AcDbSymbolTable
 70
     0
  0
ENDTAB
  0
TABLE
  2
APPID
  5
9
330
0
100
AcDbSymbolTable
 70
     1
  0
APPID
  5
12
330
9
100
AcDbSymbolTableRecord
100
AcDbRegAppTableRecord
  2
ACAD
 70
     0
  0
ENDTAB
  0
TABLE
  2
DIMSTYLE
  5
A
330
0
100
AcDbSymbolTable
 70
     1
100
AcDbDimStyleTable
  0
DIMSTYLE
105
27
330
A
100
AcDbSymbolTableRecord
100
AcDbDimStyleTableRecord
  2
ISO-25
 70
     0
 41
2.5
 42
0.625
 43
3.75
 44
1.25
 73
     0
 74
     0
 77
     1
 78
     8
140
2.5
141
2.5
143
0.0393700787
147
0.625
171
     3
172
     1
178
     0
271
     2
272
     2
274
     3
278
    44
283
     0
284
     8
340
11
  0
ENDTAB
  0
TABLE
  2
BLOCK_RECORD
  5
1
330
0
100
AcDbSymbolTable
 70
     1
  0
BLOCK_RECORD
  5
1F
330
1
100
AcDbSymbolTableRecord
100
AcDbBlockTableRecord
  2
*Model_Space
340
22
  0
BLOCK_RECORD
  5
1B
330
1
100
AcDbSymbolTableRecord
100
AcDbBlockTableRecord
  2
*Paper_Space
340
1E
  0
BLOCK_RECORD
  5
23
330
1
100
AcDbSymbolTableRecord
100
AcDbBlockTableRecord
  2
*Paper_Space0
340
26
  0
ENDTAB
  0
ENDSEC
  0
SECTION
  2
BLOCKS
  0
BLOCK
  5
20
330
1F
100
AcDbEntity
  8
0
100
AcDbBlockBegin
  2
*Model_Space
 70
     0
 10
0.0
 20
0.0
 30
0.0
  3
*Model_Space
  1

  0
ENDBLK
  5
21
330
1F
100
AcDbEntity
  8
0
100
AcDbBlockEnd
  0
BLOCK
  5
1C
330
1B
100
AcDbEntity
 67
     1
  8
0
100
AcDbBlockBegin
  2
*Paper_Space
 70
     0
 10
0.0
 20
0.0
 30
0.0
  3
*Paper_Space
  1

  0
ENDBLK
  5
1D
330
1B
100
AcDbEntity
 67
     1
  8
0
100
AcDbBlockEnd
  0
BLOCK
  5
24
330
23
100
AcDbEntity
  8
0
100
AcDbBlockBegin
  2
*Paper_Space0
 70
     0
 10
0.0
 20
0.0
 30
0.0
  3
*Paper_Space0
  1

  0
ENDBLK
  5
25
330
23
100
AcDbEntity
  8
0
100
AcDbBlockEnd
  0
ENDSEC
  0
SECTION
  2
ENTITIES
  0
ARC
  5
73
330
1F
100
AcDbEntity
  8
0
  6
Continuous
 62
     7
370
    25
100
AcDbCircle
 10
0.0
 20
0.0
 30
0.0
 40
150.0
100
AcDbArc
 50
293.3822990791
 51
318.6177009209
  0
ARC
  5
74
330
1F
100
AcDbEntity
  8
0
  6
Continuous
 62
     7
370
    25
100
AcDbCircle
 10
55.5610077637
 20
-128.5028187095
 30
0.0
 40
9.999999999999993
100
AcDbArc
 50
180.0
 51
293.3822990791
  0
LINE
  5
75
330
1F
100
AcDbEntity
  8
0
  6
Continuous
 62
     7
370
    25
100
AcDbLine
 10
45.5610077637
 20
-76.4731665691
 30
0.0
 11
45.5610077637
 21
-128.5028187095
 31
0.0
  0
ARC
  5
76
330
1F
100
AcDbEntity
  8
0
  6
Continuous
 62
     7
370
    25
100
AcDbCircle
 10
55.5610077637
 20
-76.4731665691
 30
0.0
 40
10.00000000000001
100
AcDbArc
 50
72.0
 51
180.0
  0
LINE
  5
77
330
1F
100
AcDbEntity
  8
0
  6
Continuous
 62
     7
370
    25
100
AcDbLine
 10
108.1343174161
 20
-83.0406481289
 30
0.0
 11
58.6511777074
 21
-66.9626014062
 31
0.0
  0
ARC
  5
78
330
1F
100
AcDbEntity
  8
0
  6
Continuous
 62
     7
370
    25
100
AcDbCircle
 10
105.0441474724
 20
-92.5512132919
 30
0.0
 40
10.00000000000001
100
AcDbArc
 50
318.6177009209
 51
72.0
  0
ARC
  5
79
330
1F
100
AcDbEntity
  8
0
  6
Continuous
 62
     7
370
    25
100
AcDbCircle
 10
-125.7971597696
 20
-61.4416356708
 30
0.0
 40
10.0
100
AcDbArc
 50
206.0317300543
 51
288.0
  0
ARC
  5
7A
330
1F
100
AcDbEntity
  8
0
  6
Continuous
 62
     7
370
    25
100
AcDbCircle
 10
0.0
 20
0.0
 30
0.0
 40
150.0
100
AcDbArc
 50
189.9682699457
 51
206.0317300543
  0
ARC
  5
7B
330
1F
100
AcDbEntity
  8
0
  6
Continuous
 62
     7
370
    25
100
AcDbCircle
 10
-137.8865274217
 20
-24.2343878729
 30
0.0
 40
9.999999999999973
100
AcDbArc
 50
108.0
 51
189.9682699457
  0
LINE
  5
7C
330
1F
100
AcDbEntity
  8
0
  6
Continuous
 62
     7
370
    25
100
AcDbLine
 10
-81.8906772664
 20
4.4743889922
 30
0.0
 11
-140.9766973655
 21
-14.72382271
 31
0.0
  0
ARC
  5
7D
330
1F
100
AcDbEntity
  8
0
  6
Continuous
 62
     7
370
    25
100
AcDbCircle
 10
-78.8005073227
 20
-5.0361761707
 30
0.0
 40
10.00000000000002
100
AcDbArc
 50
18.0
 51
108.0
  0
LINE
  5
7E
330
1F
100
AcDbEntity
  8
0
  6
Continuous
 62
     7
370
    25
100
AcDbLine
 10
-57.2005745075
 20
-39.1532540249
 30
0.0
 11
-69.2899421597
 21
-1.946006227
 31
0.0
  0
ARC
  5
7F
330
1F
100
AcDbEntity
  8
0
  6
Continuous
 62
     7
370
    25
100
AcDbCircle
 10
-66.7111396705
 20
-42.2434239686
 30
0.0
 40
9.999999999999998
100
AcDbArc
 50
288.0
 51
18.0
  0
LINE
  5
80
330
1F
100
AcDbEntity
  8
0
  6
Continuous
 62
     7
370
    25
100
AcDbLine
 10
-122.7069898258
 20
-70.9522008338
 30
0.0
 11
-63.6209697267
 21
-51.7539891316
 31
0.0
  0
ARC
  5
81
330
1F
100
AcDbEntity
  8
0
  6
Continuous
 62
     7
370
    25
100
AcDbCircle
 10
0.0
 20
0.0
 30
0.0
 40
150.0
100
AcDbArc
 50
221.3822990791
 51
246.6177009209
  0
ARC
  5
82
330
1F
100
AcDbEntity
  8
0
  6
Continuous
 62
     7
370
    25
100
AcDbCircle
 10
-105.0441474724
 20
-92.5512132919
 30
0.0
 40
10.00000000000003
100
AcDbArc
 50
108.0
 51
221.3822990791
  0
LINE
  5
83
330
1F
100
AcDbEntity
  8
0
  6
Continuous
 62
     7
370
    25
100
AcDbLine
 10
-58.6511777074
 20
-66.9626014062
 30
0.0
 11
-108.1343174161
 21
-83.0406481289
 31
0.0
  0
ARC
  5
84
330
1F
100
AcDbEntity
  8
0
  6
Continuous
 62
     7
370
    25
100
AcDbCircle
 10
-55.5610077637
 20
-76.4731665691
 30
0.0
 40
10.00000000000001
100
AcDbArc
 50
0.0
 51
108.0
  0
LINE
  5
85
330
1F
100
AcDbEntity
  8
0
  6
Continuous
 62
     7
370
    25
100
AcDbLine
 10
-45.5610077637
 20
-128.5028187095
 30
0.0
 11
-45.5610077637
 21
-76.4731665691
 31
0.0
  0
ARC
  5
86
330
1F
100
AcDbEntity
  8
0
  6
Continuous
 62
     7
370
    25
100
AcDbCircle
 10
-55.5610077637
 20
-128.5028187095
 30
0.0
 40
9.999999999999996
100
AcDbArc
 50
246.6177009209
 51
0.0
  0
ARC
  5
87
330
1F
100
AcDbEntity
  8
0
  6
Continuous
 62
     7
370
    25
100
AcDbCircle
 10
-97.3079281895
 20
100.6536989458
 30
0.0
 40
9.999999999999984
100
AcDbArc
 50
134.0317300543
 51
216.0
  0
ARC
  5
88
330
1F
100
AcDbEntity
  8
0
  6
Continuous
 62
     7
370
    25
100
AcDbCircle
 10
0.0
 20
0.0
 30
0.0
 40
149.9999999999999
100
AcDbArc
 50
117.9682699457
 51
134.0317300543
  0
ARC
  5
89
330
1F
100
AcDbEntity
  8
0
  6
Continuous
 62
     7
370
    25
100
AcDbCircle
 10
-65.6575527736
 20
123.6490427127
 30
0.0
 40
9.99999999999996
100
AcDbArc
 50
36.0
 51
117.9682699457
  0
LINE
  5
8A
330
1F
100
AcDbEntity
  8
0
  6
Continuous
 62
     7
370
    25
100
AcDbLine
 10
-21.0502141487
 20
79.2653244761
 30
0.0
 11
-57.5673828299
 21
129.5268952357
 31
0.0
  0
ARC
  5
8B
330
1F
100
AcDbEntity
  8
0
  6
Continuous
 62
     7
370
    25
100
AcDbCircle
 10
-29.1403840924
 20
73.3874719532
 30
0.0
 40
10.0
100
AcDbArc
 50
306.0
 51
36.0
  0
LINE
  5
8C
330
1F
100
AcDbEntity
  8
0
  6
Continuous
 62
     7
370
    25
100
AcDbLine
 10
-54.9129069854
 20
42.3019582425
 30
0.0
 11
-23.2625315695
 21
65.2973020094
 31
0.0
  0
ARC
  5
8D
330
1F
100
AcDbEntity
  8
0
  6
Continuous
 62
     7
370
    25
100
AcDbCircle
 10
-60.7907595083
 20
50.3921281862
 30
0.0
 40
10.0
100
AcDbArc
 50
216.0
 51
306.0
  0
LINE
  5
8E
330
1F
100
AcDbEntity
  8
0
  6
Continuous
 62
     7
370
    25
100
AcDbLine
 10
-105.3980981332
 20
94.7758464229
 30
0.0
 11
-68.8809294521
 21
44.5142756633
 31
0.0
  0
ARC
  5
8F
330
1F
100
AcDbEntity
  8
0
  6
Continuous
 62
     7
370
    25
100
AcDbCircle
 10
30.58226221
 20
136.6189051271
 30
0.0
 40
10.00000000000002
100
AcDbArc
 50
324.0
 51
77.3822990791
  0
LINE
  5
90
330
1F
100
AcDbEntity
  8
0
  6
Continuous
 62
     7
370
    25
100
AcDbLine
 10
8.0901699437
 20
88.6481798112
 30
0.0
 11
38.6724321538
 21
130.7410526041
 31
0.0
  0
ARC
  5
91
330
1F
100
AcDbEntity
  8
0
  6
Continuous
 62
     7
370
    25
100
AcDbCircle
 10
0.0
 20
94.5260323341
 30
0.0
 40
9.999999999999986
100
AcDbArc
 50
216.0
 51
324.0
  0
LINE
  5
92
330
1F
100
AcDbEntity
  8
0
  6
Continuous
 62
     7
370
    25
100
AcDbLine
 10
-38.6724321538
 20
130.7410526041
 30
0.0
 11
-8.0901699437
 21
88.6481798112
 31
0.0
  0
ARC
  5
93
330
1F
100
AcDbEntity
  8
0
  6
Continuous
 62
     7
370
    25
100
AcDbCircle
 10
-30.58226221
 20
136.6189051271
 30
0.0
 40
10.00000000000002
100
AcDbArc
 50
102.6177009209
 51
216.0
  0
ARC
  5
94
330
1F
100
AcDbEntity
  8
0
  6
Continuous
 62
     7
370
    25
100
AcDbCircle
 10
0.0
 20
0.0
 30
0.0
 40
150.0
100
AcDbArc
 50
77.3822990791
 51
102.6177009209
  0
ARC
  5
95
330
1F
100
AcDbEntity
  8
0
  6
Continuous
 62
     7
370
    25
100
AcDbCircle
 10
137.8865274217
 20
-24.2343878729
 30
0.0
 40
9.999999999999964
100
AcDbArc
 50
350.0317300543
 51
72.0
  0
ARC
  5
96
330
1F
100
AcDbEntity
  8
0
  6
Continuous
 62
     7
370
    25
100
AcDbCircle
 10
0.0
 20
0.0
 30
0.0
 40
149.9999999999999
100
AcDbArc
 50
333.9682699457
 51
350.0317300543
  0
ARC
  5
97
330
1F
100
AcDbEntity
  8
0
  6
Continuous
 62
     7
370
    25
100
AcDbCircle
 10
125.7971597696
 20
-61.4416356708
 30
0.0
 40
9.999999999999973
100
AcDbArc
 50
252.0
 51
333.9682699457
  0
LINE
  5
98
330
1F
100
AcDbEntity
  8
0
  6
Continuous
 62
     7
370
    25
100
AcDbLine
 10
63.6209697267
 20
-51.7539891316
 30
0.0
 11
122.7069898258
 21
-70.9522008338
 31
0.0
  0
ARC
  5
99
330
1F
100
AcDbEntity
  8
0
  6
Continuous
 62
     7
370
    25
100
AcDbCircle
 10
66.7111396705
 20
-42.2434239686
 30
0.0
 40
10.00000000000001
100
AcDbArc
 50
162.0
 51
252.0
  0
LINE
  5
9A
330
1F
100
AcDbEntity
  8
0
  6
Continuous
 62
     7
370
    25
100
AcDbLine
 10
69.2899421597
 20
-1.946006227
 30
0.0
 11
57.2005745075
 21
-39.1532540249
 31
0.0
  0
ARC
  5
9B
330
1F
100
AcDbEntity
  8
0
  6
Continuous
 62
     7
370
    25
100
AcDbCircle
 10
78.8005073227
 20
-5.0361761707
 30
0.0
 40
9.999999999999993
100
AcDbArc
 50
72.0
 51
162.0
  0
LINE
  5
9C
330
1F
100
AcDbEntity
  8
0
  6
Continuous
 62
     7
370
    25
100
AcDbLine
 10
140.9766973655
 20
-14.72382271
 30
0.0
 11
81.8906772664
 21
4.4743889922
 31
0.0
  0
ARC
  5
9D
330
1F
100
AcDbEntity
  8
0
  6
Continuous
 62
     7
370
    25
100
AcDbCircle
 10
0.0
 20
0.0
 30
0.0
 40
150.0
100
AcDbArc
 50
5.3822990791
 51
30.6177009209
  0
ARC
  5
9E
330
1F
100
AcDbEntity
  8
0
  6
Continuous
 62
     7
370
    25
100
AcDbCircle
 10
139.3827387195
 20
13.1321036793
 30
0.0
 40
10.00000000000001
100
AcDbArc
 50
252.0
 51
5.3822990791
  0
LINE
  5
9F
330
1F
100
AcDbEntity
  8
0
  6
Continuous
 62
     7
370
    25
100
AcDbLine
 10
86.8094290671
 20
19.6995852391
 30
0.0
 11
136.2925687758
 21
3.6215385163
 31
0.0
  0
ARC
  5
A0
330
1F
100
AcDbEntity
  8
0
  6
Continuous
 62
     7
370
    25
100
AcDbCircle
 10
89.8995990109
 20
29.2101504021
 30
0.0
 40
10.0
100
AcDbArc
 50
144.0
 51
252.0
  0
LINE
  5
A1
330
1F
100
AcDbEntity
  8
0
  6
Continuous
 62
     7
370
    25
100
AcDbLine
 10
112.3916912771
 20
77.180875718
 30
0.0
 11
81.8094290671
 21
35.088002925
 31
0.0
  0
ARC
  5
A2
330
1F
100
AcDbEntity
  8
0
  6
Continuous
 62
     7
370
    25
100
AcDbCircle
 10
120.4818612209
 20
71.303023195
 30
0.0
 40
9.999999999999993
100
AcDbArc
 50
30.6177009209
 51
144.0
  0
ARC
  5
A3
330
1F
100
AcDbEntity
  8
0
  6
Continuous
 62
     7
370
    25
100
AcDbCircle
 10
19.5610077637
 20
-138.6267181148
 30
0.0
 40
10.00000000000004
100
AcDbArc
 50
278.0317300543
 51
0.0
  0
ARC
  5
A4
330
1F
100
AcDbEntity
  8
0
  6
Continuous
 62
     7
370
    25
100
AcDbCircle
 10
0.0
 20
0.0
 30
0.0
 40
150.0
100
AcDbArc
 50
261.9682699457
 51
278.0317300543
  0
ARC
  5
A5
330
1F
100
AcDbEntity
  8
0
  6
Continuous
 62
     7
370
    25
100
AcDbCircle
 10
-19.5610077637
 20
-138.6267181148
 30
0.0
 40
9.999999999999964
100
AcDbArc
 50
180.0
 51
261.9682699457
  0
LINE
  5
A6
330
1F
100
AcDbEntity
  8
0
  6
Continuous
 62
     7
370
    25
100
AcDbLine
 10
-29.5610077637
 20
-76.5
 30
0.0
 11
-29.5610077637
 21
-138.6267181148
 31
0.0
  0
ARC
  5
A7
330
1F
100
AcDbEntity
  8
0
  6
Continuous
 62
     7
370
    25
100
AcDbCircle
 10
-19.5610077637
 20
-76.5
 30
0.0
 40
9.999999999999986
100
AcDbArc
 50
90.0
 51
180.0
  0
LINE
  5
A8
330
1F
100
AcDbEntity
  8
0
  6
Continuous
 62
     7
370
    25
100
AcDbLine
 10
19.5610077637
 20
-66.5
 30
0.0
 11
-19.5610077637
 21
-66.5
 31
0.0
  0
ARC
  5
A9
330
1F
100
AcDbEntity
  8
0
  6
Continuous
 62
     7
370
    25
100
AcDbCircle
 10
19.5610077637
 20
-76.5
 30
0.0
 40
10.0
100
AcDbArc
 50
0.0
 51
90.0
  0
LINE
  5
AA
330
1F
100
AcDbEntity
  8
0
  6
Continuous
 62
     7
370
    25
100
AcDbLine
 10
29.5610077637
 20
-138.6267181148
 30
0.0
 11
29.5610077637
 21
-76.5
 31
0.0
  0
ARC
  5
AB
330
1F
100
AcDbEntity
  8
0
  6
Continuous
 62
     7
370
    25
100
AcDbCircle
 10
0.0
 20
0.0
 30
0.0
 40
150.0
100
AcDbArc
 50
149.3822990791
 51
174.6177009209
  0
ARC
  5
AC
330
1F
100
AcDbEntity
  8
0
  6
Continuous
 62
     7
370
    25
100
AcDbCircle
 10
-120.4818612209
 20
71.303023195
 30
0.0
 40
10.00000000000001
100
AcDbArc
 50
36.0
 51
149.3822990791
  0
LINE
  5
AD
330
1F
100
AcDbEntity
  8
0
  6
Continuous
 62
     7
370
    25
100
AcDbLine
 10
-81.8094290671
 20
35.088002925
 30
0.0
 11
-112.3916912771
 21
77.180875718
 31
0.0
  0
ARC
  5
AE
330
1F
100
AcDbEntity
  8
0
  6
Continuous
 62
     7
370
    25
100
AcDbCircle
 10
-89.8995990109
 20
29.2101504021
 30
0.0
 40
9.999999999999995
100
AcDbArc
 50
288.0
 51
36.0
  0
LINE
  5
AF
330
1F
100
AcDbEntity
  8
0
  6
Continuous
 62
     7
370
    25
100
AcDbLine
 10
-136.2925687758
 20
3.6215385163
 30
0.0
 11
-86.8094290671
 21
19.6995852391
 31
0.0
  0
ARC
  5
B0
330
1F
100
AcDbEntity
  8
0
  6
Continuous
 62
     7
370
    25
100
AcDbCircle
 10
-139.3827387195
 20
13.1321036793
 30
0.0
 40
9.999999999999952
100
AcDbArc
 50
174.6177009209
 51
288.0
  0
ARC
  5
B1
330
1F
100
AcDbEntity
  8
0
  6
Continuous
 62
     7
370
    25
100
AcDbCircle
 10
65.6575527736
 20
123.6490427127
 30
0.0
 40
10.00000000000003
100
AcDbArc
 50
62.0317300543
 51
144.0
  0
ARC
  5
B2
330
1F
100
AcDbEntity
  8
0
  6
Continuous
 62
     7
370
    25
100
AcDbCircle
 10
0.0
 20
0.0
 30
0.0
 40
150.0
100
AcDbArc
 50
45.9682699457
 51
62.0317300543
  0
ARC
  5
B3
330
1F
100
AcDbEntity
  8
0
  6
Continuous
 62
     7
370
    25
100
AcDbCircle
 10
97.3079281895
 20
100.6536989458
 30
0.0
 40
9.999999999999968
100
AcDbArc
 50
324.0
 51
45.9682699457
  0
LINE
  5
B4
330
1F
100
AcDbEntity
  8
0
  6
Continuous
 62
     7
370
    25
100
AcDbLine
 10
68.8809294521
 20
44.5142756633
 30
0.0
 11
105.3980981332
 21
94.7758464229
 31
0.0
  0
ARC
  5
B5
330
1F
100
AcDbEntity
  8
0
  6
Continuous
 62
     7
370
    25
100
AcDbCircle
 10
60.7907595083
 20
50.3921281862
 30
0.0
 40
9.999999999999993
100
AcDbArc
 50
234.0
 51
324.0
  0
LINE
  5
B6
330
1F
100
AcDbEntity
  8
0
  6
Continuous
 62
     7
370
    25
100
AcDbLine
 10
23.2625315695
 20
65.2973020094
 30
0.0
 11
54.9129069854
 21
42.3019582425
 31
0.0
  0
ARC
  5
B7
330
1F
100
AcDbEntity
  8
0
  6
Continuous
 62
     7
370
    25
100
AcDbCircle
 10
29.1403840924
 20
73.3874719532
 30
0.0
 40
10.0
100
AcDbArc
 50
144.0
 51
234.0
  0
LINE
  5
B8
330
1F
100
AcDbEntity
  8
0
  6
Continuous
 62
     7
370
    25
100
AcDbLine
 10
57.5673828299
 20
129.5268952357
 30
0.0
 11
21.0502141487
 21
79.2653244761
 31
0.0
  0
CIRCLE
  5
B9
330
1F
100
AcDbEntity
  8
0
  6
Continuous
 62
     7
370
    25
100
AcDbCircle
 10
-57.5389192359
 20
18.6955281597
 30
0.0
 40
4.500000000000007
  0
CIRCLE
  5
BA
330
1F
100
AcDbEntity
  8
0
  6
Continuous
 62
     7
370
    25
100
AcDbCircle
 10
-35.5610077637
 20
-48.9455281597
 30
0.0
 40
4.499999999999996
  0
CIRCLE
  5
BB
330
1F
100
AcDbEntity
  8
0
  6
Continuous
 62
     7
370
    25
100
AcDbCircle
 10
35.5610077637
 20
-48.9455281597
 30
0.0
 40
4.500000000000007
  0
CIRCLE
  5
BC
330
1F
100
AcDbEntity
  8
0
  6
Continuous
 62
     7
370
    25
100
AcDbCircle
 10
57.5389192359
 20
18.6955281597
 30
0.0
 40
4.499999999999993
  0
CIRCLE
  5
BD
330
1F
100
AcDbEntity
  8
0
  6
Continuous
 62
     7
370
    25
100
AcDbCircle
 10
0.0
 20
60.5
 30
0.0
 40
4.499999999999996
  0
CIRCLE
  5
BE
330
1F
100
AcDbEntity
  8
0
  6
Continuous
 62
     7
370
    25
100
AcDbCircle
 10
0.0
 20
0.0
 30
0.0
 40
52.5
  0
ARC
  5
BF
330
1F
100
AcDbEntity
  8
0
  6
Continuous
 62
     7
370
    25
100
AcDbCircle
 10
166.0112974294
 20
7.6453951798
 30
0.0
 40
1.000000000000006
100
AcDbArc
 50
286.3846153846
 51
2.6368059747
  0
ARC
  5
C0
330
1F
100
AcDbEntity
  8
0
  6
Continuous
 62
     7
370
    25
100
AcDbCircle
 10
0.0
 20
0.0
 30
0.0
 40
167.1872526448735
100
AcDbArc
 50
2.6368059747
 51
2.9016555638
  0
ARC
  5
C1
330
1F
100
AcDbEntity
  8
0
  6
Continuous
 62
     7
370
    25
100
AcDbCircle
 10
165.9741831178
 20
8.4126975486
 30
0.0
 40
1.000000000000001
100
AcDbArc
 50
2.9016555638
 51
79.1538461538
  0
LINE
  5
C2
330
1F
100
AcDbEntity
  8
0
  6
Continuous
 62
     7
370
    25
100
AcDbLine
 10
164.660205635
 20
9.6826382392
 30
0.0
 11
166.1623556398
 21
9.3948335382
 31
0.0
  0
ARC
  5
C3
330
1F
100
AcDbEntity
  8
0
  6
Continuous
 62
     7
370
    25
100
AcDbCircle
 10
165.1024110617
 20
11.9906578147
 30
0.0
 40
2.350000000000005
100
AcDbArc
 50
109.1538461538
 51
259.1538461538
  0
LINE
  5
C4
330
1F
100
AcDbEntity
  8
0
  6
Continuous
 62
     7
370
    25
100
AcDbLine
 10
165.7761648222
 20
14.7123929328
 30
0.0
 11
164.3313624072
 21
14.2105641128
 31
0.0
  0
ARC
  5
C5
330
1F
100
AcDbEntity
  8
0
  6
Continuous
 62
     7
370
    25
100
AcDbCircle
 10
165.4480590118
 20
15.6570339107
 30
0.0
 40
1.000000000000014
100
AcDbArc
 50
289.1538461538
 51
5.4060367439
  0
ARC
  5
C6
330
1F
100
AcDbEntity
  8
0
  6
Continuous
 62
     7
370
    25
100
AcDbCircle
 10
0.0
 20
0.0
 30
0.0
 40
167.1872526448735
100
AcDbArc
 50
5.4060367439
 51
5.670886333
  0
ARC
  5
C7
330
1F
100
AcDbEntity
  8
0
  6
Continuous
 62
     7
370
    25
100
AcDbCircle
 10
165.3739170707
 20
16.4216471266
 30
0.0
 40
1.000000000000032
100
AcDbArc
 50
5.670886333
 51
81.9230769231
  0
LINE
  5
C8
330
1F
100
AcDbEntity
  8
0
  6
Continuous
 62
     7
370
    25
100
AcDbLine
 10
164.000118889
 20
17.6266221217
 30
0.0
 11
165.5144195411
 21
17.4117274545
 31
0.0
  0
ARC
  5
C9
330
1F
100
AcDbEntity
  8
0
  6
Continuous
 62
     7
370
    25
100
AcDbCircle
 10
164.3302996944
 20
19.9533108924
 30
0.0
 40
2.349999999999994
100
AcDbArc
 50
111.9230769231
 51
261.9230769231
  0
LINE
  5
CA
330
1F
100
AcDbEntity
  8
0
  6
Continuous
 62
     7
370
    25
100
AcDbLine
 10
164.8717704416
 20
22.7044189624
 30
0.0
 11
163.4529002743
 21
22.1333728772
 31
0.0
  0
ARC
  5
CB
330
1F
100
AcDbEntity
  8
0
  6
Continuous
 62
     7
370
    25
100
AcDbCircle
 10
164.4984089863
 20
23.6321049134
 30
0.0
 40
1.000000000000005
100
AcDbArc
 50
291.9230769231
 51
8.1752675131
  0
ARC
  5
CC
330
1F
100
AcDbEntity
  8
0
  6
Continuous
 62
     7
370
    25
100
AcDbCircle
 10
0.0
 20
0.0
 30
0.0
 40
167.1872526448735
100
AcDbArc
 50
8.1752675131
 51
8.4401171023
  0
ARC
  5
CD
330
1F
100
AcDbEntity
  8
0
  6
Continuous
 62
     7
370
    25
100
AcDbCircle
 10
164.3874125776
 20
24.3922431868
 30
0.0
 40
1.000000000000007
100
AcDbArc
 50
8.4401171023
 51
84.6923076923
  0
LINE
  5
CE
330
1F
100
AcDbEntity
  8
0
  6
Continuous
 62
     7
370
    25
100
AcDbLine
 10
162.9570022663
 20
25.5294382115
 30
0.0
 11
164.4799168464
 21
25.3879554747
 31
0.0
  0
ARC
  5
CF
330
1F
100
AcDbEntity
  8
0
  6
Continuous
 62
     7
370
    25
100
AcDbCircle
 10
163.1743872978
 20
27.869362088
 30
0.0
 40
2.349999999999991
100
AcDbArc
 50
114.6923076923
 51
264.6923076923
  0
LINE
  5
D0
330
1F
100
AcDbEntity
  8
0
  6
Continuous
 62
     7
370
    25
100
AcDbLine
 10
163.5823104017
 20
30.6434177695
 30
0.0
 11
162.1926863192
 21
30.0044881238
 31
0.0
  0
ARC
  5
D1
330
1F
100
AcDbEntity
  8
0
  6
Continuous
 62
     7
370
    25
100
AcDbCircle
 10
163.1645653045
 20
31.5519820401
 30
0.0
 40
1.000000000000013
100
AcDbArc
 50
294.6923076923
 51
10.9444982823
  0
ARC
  5
D2
330
1F
100
AcDbEntity
  8
0
  6
Continuous
 62
     7
370
    25
100
AcDbCircle
 10
0.0
 20
0.0
 30
0.0
 40
167.1872526448735
100
AcDbArc
 50
10.9444982823
 51
11.2093478715
  0
ARC
  5
D3
330
1F
100
AcDbEntity
  8
0
  6
Continuous
 62
     7
370
    25
100
AcDbCircle
 10
163.0169736656
 20
32.3058700327
 30
0.0
 40
0.9999999999999952
100
AcDbArc
 50
11.2093478715
 51
87.4615384615
  0
LINE
  5
D4
330
1F
100
AcDbEntity
  8
0
  6
Continuous
 62
     7
370
    25
100
AcDbLine
 10
161.5332920142
 20
33.3726291154
 30
0.0
 11
163.0612636846
 21
33.3048887484
 31
0.0
  0
ARC
  5
D5
330
1F
100
AcDbEntity
  8
0
  6
Continuous
 62
     7
370
    25
100
AcDbCircle
 10
161.637373559
 20
35.7203230971
 30
0.0
 40
2.350000000000005
100
AcDbArc
 50
117.4615384615
 51
267.4615384615
  0
LINE
  5
D6
330
1F
100
AcDbEntity
  8
0
  6
Continuous
 62
     7
370
    25
100
AcDbLine
 10
161.9107962963
 20
38.5108474546
 30
0.0
 11
160.55366383
 21
37.805526498
 31
0.0
  0
ARC
  5
D7
330
1F
100
AcDbEntity
  8
0
  6
Continuous
 62
     7
370
    25
100
AcDbCircle
 10
161.4496432201
 20
39.3981680507
 30
0.0
 40
1.000000000000033
100
AcDbArc
 50
297.4615384615
 51
13.7137290516
  0
ARC
  5
D8
330
1F
100
AcDbEntity
  8
0
  6
Continuous
 62
     7
370
    25
100
AcDbCircle
 10
0.0
 20
0.0
 30
0.0
 40
167.1872526448736
100
AcDbArc
 50
13.7137290516
 51
13.9785786407
  0
ARC
  5
D9
330
1F
100
AcDbEntity
  8
0
  6
Continuous
 62
     7
370
    25
100
AcDbCircle
 10
161.265801058
 20
40.1440450224
 30
0.0
 40
1.000000000000013
100
AcDbArc
 50
13.9785786407
 51
90.2307692308
  0
LINE
  5
DA
330
1F
100
AcDbEntity
  8
0
  6
Continuous
 62
     7
370
    25
100
AcDbLine
 10
159.7323132739
 20
41.1378766976
 30
0.0
 11
161.261773386
 21
41.1440369113
 31
0.0
  0
ARC
  5
DB
330
1F
100
AcDbEntity
  8
0
  6
Continuous
 62
     7
370
    25
100
AcDbCircle
 10
159.7228482447
 20
43.4878576365
 30
0.0
 40
2.350000000000007
100
AcDbArc
 50
120.2307692308
 51
270.2307692308
  0
LINE
  5
DC
330
1F
100
AcDbEntity
  8
0
  6
Continuous
 62
     7
370
    25
100
AcDbLine
 10
159.8611320239
 20
46.288333271
 30
0.0
 11
158.5396608195
 21
45.5182683134
 31
0.0
  0
ARC
  5
DD
330
1F
100
AcDbEntity
  8
0
  6
Continuous
 62
     7
370
    25
100
AcDbCircle
 10
159.3576480132
 20
47.1523378144
 30
0.0
 40
1.000000000000034
100
AcDbArc
 50
300.2307692308
 51
16.4829598208
  0
ARC
  5
DE
330
1F
100
AcDbEntity
  8
0
  6
Continuous
 62
     7
370
    25
100
AcDbCircle
 10
0.0
 20
0.0
 30
0.0
 40
167.1872526448736
100
AcDbArc
 50
16.4829598208
 51
16.74780941
  0
ARC
  5
DF
330
1F
100
AcDbEntity
  8
0
  6
Continuous
 62
     7
370
    25
100
AcDbCircle
 10
159.1379846999
 20
47.8884617347
 30
0.0
 40
1.000000000000065
100
AcDbArc
 50
16.74780941
 51
93.0
  0
LINE
  5
E0
330
1F
100
AcDbEntity
  8
0
  6
Continuous
 62
     7
370
    25
100
AcDbLine
 10
157.5582723147
 20
48.8070448627
 30
0.0
 11
159.0856487436
 21
48.8870912695
 31
0.0
  0
ARC
  5
E1
330
1F
100
AcDbEntity
  8
0
  6
Continuous
 62
     7
370
    25
100
AcDbCircle
 10
157.4352828175
 20
51.1538242694
 30
0.0
 40
2.349999999999991
100
AcDbArc
 50
123.0
 51
273.0
  0
LINE
  5
E2
330
1F
100
AcDbEntity
  8
0
  6
Continuous
 62
     7
370
    25
100
AcDbLine
 10
157.4381046704
 20
53.9577105403
 30
0.0
 11
156.1553810852
 21
53.1247001041
 31
0.0
  0
ARC
  5
E3
330
1F
100
AcDbEntity
  8
0
  6
Continuous
 62
     7
370
    25
100
AcDbCircle
 10
156.8934656354
 20
54.7963811082
 30
0.0
 40
1.000000000000049
100
AcDbArc
 50
303.0
 51
19.25219059
  0
ARC
  5
E4
330
1F
100
AcDbEntity
  8
0
  6
Continuous
 62
     7
370
    25
100
AcDbCircle
 10
0.0
 20
0.0
 30
0.0
 40
167.1872526448736
100
AcDbArc
 50
19.25219059
 51
19.5170401792
  0
ARC
  5
E5
330
1F
100
AcDbEntity
  8
0
  6
Continuous
 62
     7
370
    25
100
AcDbCircle
 10
156.6384942047
 20
55.5210327258
 30
0.0
 40
1.000000000000001
100
AcDbArc
 50
19.5170401792
 51
95.7692307692
  0
LINE
  5
E6
330
1F
100
AcDbEntity
  8
0
  6
Continuous
 62
     7
370
    25
100
AcDbLine
 10
155.0162467099
 20
56.3622219131
 30
0.0
 11
156.5379721972
 21
56.5159675609
 31
0.0
  0
ARC
  5
E7
330
1F
100
AcDbEntity
  8
0
  6
Continuous
 62
     7
370
    25
100
AcDbCircle
 10
154.7800199925
 20
58.7003187755
 30
0.0
 40
2.35
100
AcDbArc
 50
125.7692307692
 51
275.7692307692
  0
LINE
  5
E8
330
1F
100
AcDbEntity
  8
0
  6
Continuous
 62
     7
370
    25
100
AcDbLine
 10
154.6473733286
 20
61.5010670764
 30
0.0
 11
153.4063932229
 21
60.6070566961
 31
0.0
  0
ARC
  5
E9
330
1F
100
AcDbEntity
  8
0
  6
Continuous
 62
     7
370
    25
100
AcDbCircle
 10
154.062851299
 20
62.312444915
 30
0.0
 40
1.000000000000007
100
AcDbArc
 50
305.7692307692
 51
22.0214213593
  0
ARC
  5
EA
330
1F
100
AcDbEntity
  8
0
  6
Continuous
 62
     7
370
    25
100
AcDbCircle
 10
0.0
 20
0.0
 30
0.0
 40
167.1872526448736
100
AcDbArc
 50
22.0214213593
 51
22.2862709484
  0
ARC
  5
EB
330
1F
100
AcDbEntity
  8
0
  6
Continuous
 62
     7
370
    25
100
AcDbCircle
 10
153.7731672484
 20
63.0239317724
 30
0.0
 40
1.000000000000001
100
AcDbArc
 50
22.2862709484
 51
98.5384615385
  0
LINE
  5
EC
330
1F
100
AcDbEntity
  8
0
  6
Continuous
 62
     7
370
    25
100
AcDbLine
 10
152.1121734783
 20
63.7857623826
 30
0.0
 11
153.6246939636
 21
64.0128481913
 31
0.0
  0
ARC
  5
ED
330
1F
100
AcDbEntity
  8
0
  6
Continuous
 62
     7
370
    25
100
AcDbCircle
 10
151.763261259
 20
66.1097159671
 30
0.0
 40
2.349999999999991
100
AcDbArc
 50
128.5384615385
 51
278.5384615385
  0
LINE
  5
EE
330
1F
100
AcDbEntity
  8
0
  6
Continuous
 62
     7
370
    25
100
AcDbLine
 10
151.4954558807
 20
68.9007850208
 30
0.0
 11
150.2991176211
 21
67.9478626989
 31
0.0
  0
ARC
  5
EF
330
1F
100
AcDbEntity
  8
0
  6
Continuous
 62
     7
370
    25
100
AcDbCircle
 10
150.8724160347
 20
69.6829751194
 30
0.0
 40
1.00000000000003
100
AcDbArc
 50
308.5384615385
 51
24.7906521285
  0
ARC
  5
F0
330
1F
100
AcDbEntity
  8
0
  6
Continuous
 62
     7
370
    25
100
AcDbCircle
 10
0.0
 20
0.0
 30
0.0
 40
167.1872526448736
100
AcDbArc
 50
24.7906521285
 51
25.0555017177
  0
ARC
  5
F1
330
1F
100
AcDbEntity
  8
0
  6
Continuous
 62
     7
370
    25
100
AcDbCircle
 10
150.5486959349
 20
70.379635506
 30
0.0
 40
1.000000000000009
100
AcDbArc
 50
25.0555017177
 51
101.3076923077
  0
LINE
  5
F2
330
1F
100
AcDbEntity
  8
0
  6
Continuous
 62
     7
370
    25
100
AcDbLine
 10
148.8528352173
 20
71.0603282485
 30
0.0
 11
150.3526181389
 21
71.3602238488
 31
0.0
  0
ARC
  5
F3
330
1F
100
AcDbEntity
  8
0
  6
Continuous
 62
     7
370
    25
100
AcDbCircle
 10
148.3920523968
 20
73.3647108539
 30
0.0
 40
2.350000000000024
100
AcDbArc
 50
131.3076923077
 51
281.3076923077
  0
LINE
  5
F4
330
1F
100
AcDbEntity
  8
0
  6
Continuous
 62
     7
370
    25
100
AcDbLine
 10
147.9897137759
 20
76.1395819892
 30
0.0
 11
146.8408114659
 21
75.12997332
 31
0.0
  0
ARC
  5
F5
330
1F
100
AcDbEntity
  8
0
  6
Continuous
 62
     7
370
    25
100
AcDbCircle
 10
147.3296112521
 20
76.8907575066
 30
0.0
 40
0.9999999999999847
100
AcDbArc
 50
311.3076923077
 51
27.5598828977
  0
ARC
  5
F6
330
1F
100
AcDbEntity
  8
0
  6
Continuous
 62
     7
370
    25
100
AcDbCircle
 10
0.0
 20
0.0
 30
0.0
 40
167.1872526448736
100
AcDbArc
 50
27.5598828977
 51
27.8247324869
  0
ARC
  5
F7
330
1F
100
AcDbEntity
  8
0
  6
Continuous
 62
     7
370
    25
100
AcDbCircle
 10
146.9726111663
 20
77.5709643399
 30
0.0
 40
0.9999999999999953
100
AcDbArc
 50
27.8247324869
 51
104.0769230769
  0
LINE
  5
F8
330
1F
100
AcDbEntity
  8
0
  6
Continuous
 62
     7
370
    25
100
AcDbLine
 10
145.2458442625
 20
78.1689294252
 30
0.0
 11
146.7293868079
 21
78.5409343969
 31
0.0
  0
ARC
  5
F9
330
1F
100
AcDbEntity
  8
0
  6
Continuous
 62
     7
370
    25
100
AcDbCircle
 10
144.6742670204
 20
80.4483590592
 30
0.0
 40
2.350000000000003
100
AcDbArc
 50
134.0769230769
 51
284.0769230769
  0
LINE
  5
FA
330
1F
100
AcDbEntity
  8
0
  6
Continuous
 62
     7
370
    25
100
AcDbLine
 10
144.1383348375
 20
83.2005514358
 30
0.0
 11
143.0395517916
 21
82.1366144073
 31
0.0
  0
ARC
  5
FB
330
1F
100
AcDbEntity
  8
0
  6
Continuous
 62
     7
370
    25
100
AcDbCircle
 10
143.4427113359
 20
83.9189579669
 30
0.0
 40
0.99999999999999
100
AcDbArc
 50
314.0769230769
 51
30.329113667
  0
ARC
  5
FC
330
1F
100
AcDbEntity
  8
0
  6
Continuous
 62
     7
370
    25
100
AcDbCircle
 10
0.0
 20
0.0
 30
0.0
 40
167.1872526448736
100
AcDbArc
 50
30.329113667
 51
30.5939632561
  0
ARC
  5
FD
330
1F
100
AcDbEntity
  8
0
  6
Continuous
 62
     7
370
    25
100
AcDbCircle
 10
143.0532650542
 20
84.5811225923
 30
0.0
 40
1.000000000000006
100
AcDbArc
 50
30.5939632561
 51
106.8461538462
  0
LINE
  5
FE
330
1F
100
AcDbEntity
  8
0
  6
Continuous
 62
     7
370
    25
100
AcDbLine
 10
141.2996249085
 20
85.0949634452
 30
0.0
 11
142.7634621953
 21
85.5382089536
 31
0.0
  0
ARC
  5
FF
330
1F
100
AcDbEntity
  8
0
  6
Continuous
 62
     7
370
    25
100
AcDbCircle
 10
140.6185881899
 20
87.3441163942
 30
0.0
 40
2.350000000000011
100
AcDbArc
 50
136.8461538462
 51
286.8461538462
  0
LINE
  5
100
330
1F
100
AcDbEntity
  8
0
  6
Continuous
 62
     7
370
    25
100
AcDbLine
 10
139.9503141394
 20
90.0672021395
 30
0.0
 11
138.9042166163
 21
88.9514216258
 31
0.0
  0
ARC
  5
101
330
1F
100
AcDbEntity
  8
0
  6
Continuous
 62
     7
370
    25
100
AcDbCircle
 10
139.2207943209
 20
90.7511618125
 30
0.0
 40
1.000000000000011
100
AcDbArc
 50
316.8461538462
 51
33.0983444362
  0
ARC
  5
102
330
1F
100
AcDbEntity
  8
0
  6
Continuous
 62
     7
370
    25
100
AcDbCircle
 10
0.0
 20
0.0
 30
0.0
 40
167.1872526448735
100
AcDbArc
 50
33.0983444362
 51
33.3631940253
  0
ARC
  5
103
330
1F
100
AcDbEntity
  8
0
  6
Continuous
 62
     7
370
    25
100
AcDbCircle
 10
138.7998114133
 20
91.3937377138
 30
0.0
 40
0.9999999999999978
100
AcDbArc
 50
33.3631940253
 51
109.6153846154
  0
LINE
  5
104
330
1F
100
AcDbEntity
  8
0
  6
Continuous
 62
     7
370
    25
100
AcDbLine
 10
137.0233937333
 20
91.8222542352
 30
0.0
 11
138.4641069017
 21
92.3357050598
 31
0.0
  0
ARC
  5
105
330
1F
100
AcDbEntity
  8
0
  6
Continuous
 62
     7
370
    25
100
AcDbCircle
 10
136.2344881311
 20
94.0358774983
 30
0.0
 40
2.35
100
AcDbArc
 50
139.6153846154
 51
289.6153846154
  0
LINE
  5
106
330
1F
100
AcDbEntity
  8
0
  6
Continuous
 62
     7
370
    25
100
AcDbLine
 10
135.435432998
 20
96.7234967193
 30
0.0
 11
134.4444642069
 21
95.5584786774
 31
0.0
  0
ARC
  5
107
330
1F
100
AcDbEntity
  8
0
  6
Continuous
 62
     7
370
    25
100
AcDbCircle
 10
134.6737206898
 20
97.3714121147
 30
0.0
 40
1.000000000000045
100
AcDbArc
 50
319.6153846154
 51
35.8675752054
  0
ARC
  5
108
330
1F
100
AcDbEntity
  8
0
  6
Continuous
 62
     7
370
    25
100
AcDbCircle
 10
0.0
 20
0.0
 30
0.0
 40
167.1872526448735
100
AcDbArc
 50
35.8675752054
 51
36.1324247946
  0
ARC
  5
109
330
1F
100
AcDbEntity
  8
0
  6
Continuous
 62
     7
370
    25
100
AcDbCircle
 10
134.2221843814
 20
97.9928985261
 30
0.0
 40
0.9999999999999998
100
AcDbArc
 50
36.1324247946
 51
112.3846153846
  0
LINE
  5
10A
330
1F
100
AcDbEntity
  8
0
  6
Continuous
 62
     7
370
    25
100
AcDbLine
 10
132.427138073
 20
98.3350898958
 30
0.0
 11
133.8413622707
 21
98.9175468484
 31
0.0
  0
ARC
  5
10B
330
1F
100
AcDbEntity
  8
0
  6
Continuous
 62
     7
370
    25
100
AcDbCircle
 10
131.5322061128
 20
100.5080134533
 30
0.0
 40
2.350000000000024
100
AcDbArc
 50
142.3846153846
 51
292.3846153846
  0
LINE
  5
10C
330
1F
100
AcDbEntity
  8
0
  6
Continuous
 62
     7
370
    25
100
AcDbLine
 10
130.6042361274
 20
103.1538890908
 30
0.0
 11
129.6707105218
 21
101.9423544744
 31
0.0
  0
ARC
  5
10D
330
1F
100
AcDbEntity
  8
0
  6
Continuous
 62
     7
370
    25
100
AcDbCircle
 10
129.812110344
 20
103.7642469721
 30
0.0
 40
0.9999999999999774
100
AcDbArc
 50
322.3846153846
 51
38.6368059747
  0
ARC
  5
10E
330
1F
100
AcDbEntity
  8
0
  6
Continuous
 62
     7
370
    25
100
AcDbCircle
 10
0.0
 20
0.0
 30
0.0
 40
167.1872526448735
100
AcDbArc
 50
38.6368059747
 51
38.9016555638
  0
ARC
  5
10F
330
1F
100
AcDbEntity
  8
0
  6
Continuous
 62
     7
370
    25
100
AcDbCircle
 10
129.3310752187
 20
104.3631923833
 30
0.0
 40
0.999999999999997
100
AcDbArc
 50
38.9016555638
 51
115.1538461538
  0
LINE
  5
110
330
1F
100
AcDbEntity
  8
0
  6
Continuous
 62
     7
370
    25
100
AcDbLine
 10
127.5215926957
 20
104.6182593976
 30
0.0
 11
128.9060249365
 21
105.268362123
 31
0.0
  0
ARC
  5
111
330
1F
100
AcDbEntity
  8
0
  6
Continuous
 62
     7
370
    25
100
AcDbCircle
 10
126.5227245324
 20
106.7454082858
 30
0.0
 40
2.349999999999989
100
AcDbArc
 50
145.1538461538
 51
295.1538461538
  0
LINE
  5
112
330
1F
100
AcDbEntity
  8
0
  6
Continuous
 62
     7
370
    25
100
AcDbLine
 10
125.4680070117
 20
109.3433607746
 30
0.0
 11
124.594104884
 21
108.088139179
 31
0.0
  0
ARC
  5
113
330
1F
100
AcDbEntity
  8
0
  6
Continuous
 62
     7
370
    25
100
AcDbCircle
 10
124.6473177996
 20
109.9147356228
 30
0.0
 40
1.000000000000023
100
AcDbArc
 50
325.1538461538
 51
41.4060367439
  0
ARC
  5
114
330
1F
100
AcDbEntity
  8
0
  6
Continuous
 62
     7
370
    25
100
AcDbCircle
 10
0.0
 20
0.0
 30
0.0
 40
167.1872526448735
100
AcDbArc
 50
41.4060367439
 51
41.670886333
  0
ARC
  5
115
330
1F
100
AcDbEntity
  8
0
  6
Continuous
 62
     7
370
    25
100
AcDbCircle
 10
124.1379073372
 20
110.489741169
 30
0.0
 40
1.000000000000008
100
AcDbArc
 50
41.670886333
 51
117.9230769231
  0
LINE
  5
116
330
1F
100
AcDbEntity
  8
0
  6
Continuous
 62
     7
370
    25
100
AcDbLine
 10
122.3182147298
 20
110.657088107
 30
0.0
 11
123.6696216081
 21
111.3733182601
 31
0.0
  0
ARC
  5
117
330
1F
100
AcDbEntity
  8
0
  6
Continuous
 62
     7
370
    25
100
AcDbCircle
 10
121.2177432665
 20
112.7334942712
 30
0.0
 40
2.35
100
AcDbArc
 50
147.9230769231
 51
297.9230769231
  0
LINE
  5
118
330
1F
100
AcDbEntity
  8
0
  6
Continuous
 62
     7
370
    25
100
AcDbLine
 10
120.038741552
 20
115.2774559729
 30
0.0
 11
119.2265039411
 21
113.9814790262
 31
0.0
  0
ARC
  5
119
330
1F
100
AcDbEntity
  8
0
  6
Continuous
 62
     7
370
    25
100
AcDbCircle
 10
119.1914056688
 20
115.8085133155
 30
0.0
 40
0.9999999999999969
100
AcDbArc
 50
327.9230769231
 51
44.1752675131
  0
ARC
  5
11A
330
1F
100
AcDbEntity
  8
0
  6
Continuous
 62
     7
370
    25
100
AcDbCircle
 10
0.0
 20
0.0
 30
0.0
 40
167.1872526448735
100
AcDbArc
 50
44.1752675131
 51
44.4401171023
  0
ARC
  5
11B
330
1F
100
AcDbEntity
  8
0
  6
Continuous
 62
     7
370
    25
100
AcDbCircle
 10
118.6548096211
 20
116.3582360447
 30
0.0
 40
0.9999999999999789
100
AcDbArc
 50
44.4401171023
 51
120.6923076923
  0
LINE
  5
11C
330
1F
100
AcDbEntity
  8
0
  6
Continuous
 62
     7
370
    25
100
AcDbLine
 10
116.8291569058
 20
116.4374720598
 30
0.0
 11
118.1443821482
 21
117.218156852
 31
0.0
  0
ARC
  5
11D
330
1F
100
AcDbEntity
  8
0
  6
Continuous
 62
     7
370
    25
100
AcDbCircle
 10
115.6296523445
 20
118.4582859571
 30
0.0
 40
2.350000000000028
100
AcDbArc
 50
150.6923076923
 51
300.6923076923
  0
LINE
  5
11E
330
1F
100
AcDbEntity
  8
0
  6
Continuous
 62
     7
370
    25
100
AcDbLine
 10
114.3291200494
 20
120.9423153314
 30
0.0
 11
113.5804439738
 21
119.6086098478
 31
0.0
  0
ARC
  5
11F
330
1F
100
AcDbEntity
  8
0
  6
Continuous
 62
     7
370
    25
100
AcDbCircle
 10
113.4571164874
 20
121.4318148593
 30
0.0
 40
0.9999999999999883
100
AcDbArc
 50
330.6923076923
 51
46.9444982823
  0
ARC
  5
120
330
1F
100
AcDbEntity
  8
0
  6
Continuous
 62
     7
370
    25
100
AcDbCircle
 10
0.0
 20
0.0
 30
0.0
 40
167.1872526448735
100
AcDbArc
 50
46.9444982823
 51
47.2093478715
  0
ARC
  5
121
330
1F
100
AcDbEntity
  8
0
  6
Continuous
 62
     7
370
    25
100
AcDbCircle
 10
112.8945880993
 20
121.9549708685
 30
0.0
 40
0.9999999999999951
100
AcDbArc
 50
47.2093478715
 51
123.4615384615
  0
LINE
  5
122
330
1F
100
AcDbEntity
  8
0
  6
Continuous
 62
     7
370
    25
100
AcDbLine
 10
111.0672391726
 20
121.9459109015
 30
0.0
 11
112.3432110096
 21
122.7892270072
 31
0.0
  0
ARC
  5
123
330
1F
100
AcDbEntity
  8
0
  6
Continuous
 62
     7
370
    25
100
AcDbCircle
 10
109.7715030117
 20
123.9064128274
 30
0.0
 40
2.350000000000001
100
AcDbArc
 50
153.4615384615
 51
303.4615384615
  0
LINE
  5
124
330
1F
100
AcDbEntity
  8
0
  6
Continuous
 62
     7
370
    25
100
AcDbLine
 10
108.3524775894
 20
126.3247083084
 30
0.0
 11
107.6691116169
 21
124.956389219
 31
0.0
  0
ARC
  5
125
330
1F
100
AcDbEntity
  8
0
  6
Continuous
 62
     7
370
    25
100
AcDbCircle
 10
107.4578429533
 20
126.7715067729
 30
0.0
 40
1.000000000000024
100
AcDbArc
 50
333.4615384615
 51
49.7137290516
  0
ARC
  5
126
330
1F
100
AcDbEntity
  8
0
  6
Continuous
 62
     7
370
    25
100
AcDbCircle
 10
0.0
 20
0.0
 30
0.0
 40
167.1872526448735
100
AcDbArc
 50
49.7137290516
 51
49.9785786407
  0
ARC
  5
127
330
1F
100
AcDbEntity
  8
0
  6
Continuous
 62
     7
370
    25
100
AcDbCircle
 10
106.8706960359
 20
127.2668742071
 30
0.0
 40
0.9999999999999898
100
AcDbArc
 50
49.9785786407
 51
126.2307692308
  0
LINE
  5
128
330
1F
100
AcDbEntity
  8
0
  6
Continuous
 62
     7
370
    25
100
AcDbLine
 10
105.0459187559
 20
127.1695394178
 30
0.0
 11
106.2796570961
 21
128.0735172332
 31
0.0
  0
ARC
  5
129
330
1F
100
AcDbEntity
  8
0
  6
Continuous
 62
     7
370
    25
100
AcDbCircle
 10
103.6569772474
 20
129.0651505293
 30
0.0
 40
2.350000000000011
100
AcDbArc
 50
156.2307692308
 51
306.2307692308
  0
LINE
  5
12A
330
1F
100
AcDbEntity
  8
0
  6
Continuous
 62
     7
370
    25
100
AcDbLine
 10
102.1227728974
 20
131.412064076
 30
0.0
 11
101.5063130609
 21
130.0123271532
 31
0.0
  0
ARC
  5
12B
330
1F
100
AcDbEntity
  8
0
  6
Continuous
 62
     7
370
    25
100
AcDbCircle
 10
101.2075966479
 20
131.8151179585
 30
0.0
 40
1.000000000000017
100
AcDbArc
 50
336.2307692308
 51
52.4829598208
  0
ARC
  5
12C
330
1F
100
AcDbEntity
  8
0
  6
Continuous
 62
     7
370
    25
100
AcDbCircle
 10
0.0
 20
0.0
 30
0.0
 40
167.1872526448735
100
AcDbArc
 50
52.4829598208
 51
52.74780941
  0
ARC
  5
12D
330
1F
100
AcDbEntity
  8
0
  6
Continuous
 62
     7
370
    25
100
AcDbCircle
 10
100.5972025101
 20
132.281539864
 30
0.0
 40
1.000000000000001
100
AcDbArc
 50
52.74780941
 51
129.0
  0
LINE
  5
12E
330
1F
100
AcDbEntity
  8
0
  6
Continuous
 62
     7
370
    25
100
AcDbLine
 10
98.7792587286
 20
132.0961575824
 30
0.0
 11
99.9678821191
 21
133.0586858255
 31
0.0
  0
ARC
  5
12F
330
1F
100
AcDbEntity
  8
0
  6
Continuous
 62
     7
370
    25
100
AcDbCircle
 10
97.3003558097
 20
133.9224505918
 30
0.0
 40
2.350000000000007
100
AcDbArc
 50
159.0
 51
309.0
  0
LINE
  5
130
330
1F
100
AcDbEntity
  8
0
  6
Continuous
 62
     7
370
    25
100
AcDbLine
 10
95.6545557375
 20
136.1925008788
 30
0.0
 11
95.1064418074
 21
134.7646152733
 31
0.0
  0
ARC
  5
131
330
1F
100
AcDbEntity
  8
0
  6
Continuous
 62
     7
370
    25
100
AcDbCircle
 10
94.720975311
 20
136.5508688284
 30
0.0
 40
1.000000000000017
100
AcDbArc
 50
339.0
 51
55.25219059
  0
ARC
  5
132
330
1F
100
AcDbEntity
  8
0
  6
Continuous
 62
     7
370
    25
100
AcDbCircle
 10
0.0
 20
0.0
 30
0.0
 40
167.1872526448736
100
AcDbArc
 50
55.25219059
 51
55.5170401792
  0
ARC
  5
133
330
1F
100
AcDbEntity
  8
0
  6
Continuous
 62
     7
370
    25
100
AcDbCircle
 10
94.0887595566
 20
136.9872558552
 30
0.0
 40
1.000000000000011
100
AcDbArc
 50
55.5170401792
 51
131.7692307692
  0
LINE
  5
134
330
1F
100
AcDbEntity
  8
0
  6
Continuous
 62
     7
370
    25
100
AcDbLine
 10
92.2818951656
 20
136.7142590502
 30
0.0
 11
93.4226275212
 21
137.7330896916
 31
0.0
  0
ARC
  5
135
330
1F
100
AcDbEntity
  8
0
  6
Continuous
 62
     7
370
    25
100
AcDbCircle
 10
90.7164848825
 20
138.4669685657
 30
0.0
 40
2.349999999999982
100
AcDbArc
 50
161.7692307692
 51
311.7692307692
  0
LINE
  5
136
330
1F
100
AcDbEntity
  8
0
  6
Continuous
 62
     7
370
    25
100
AcDbLine
 10
88.9629329305
 20
140.6548537853
 30
0.0
 11
88.4844450523
 21
139.20215439
 31
0.0
  0
ARC
  5
137
330
1F
100
AcDbEntity
  8
0
  6
Continuous
 62
     7
370
    25
100
AcDbCircle
 10
88.0131287474
 20
140.9676988169
 30
0.0
 40
1.000000000000039
100
AcDbArc
 50
341.7692307692
 51
58.0214213593
  0
ARC
  5
138
330
1F
100
AcDbEntity
  8
0
  6
Continuous
 62
     7
370
    25
100
AcDbCircle
 10
0.0
 20
0.0
 30
0.0
 40
167.1872526448735
100
AcDbArc
 50
58.0214213593
 51
58.2862709484
  0
ARC
  5
139
330
1F
100
AcDbEntity
  8
0
  6
Continuous
 62
     7
370
    25
100
AcDbCircle
 10
87.3605679455
 20
141.3730317631
 30
0.0
 40
0.9999999999999816
100
AcDbArc
 50
58.2862709484
 51
134.5384615385
  0
LINE
  5
13A
330
1F
100
AcDbEntity
  8
0
  6
Continuous
 62
     7
370
    25
100
AcDbLine
 10
85.5690029606
 20
141.0130580314
 30
0.0
 11
86.6591800481
 21
142.0858115449
 31
0.0
  0
ARC
  5
13B
330
1F
100
AcDbEntity
  8
0
  6
Continuous
 62
     7
370
    25
100
AcDbCircle
 10
83.9207414016
 20
142.6880905185
 30
0.0
 40
2.349999999999994
100
AcDbArc
 50
164.5384615385
 51
314.5384615385
  0
LINE
  5
13C
330
1F
100
AcDbEntity
  8
0
  6
Continuous
 62
     7
370
    25
100
AcDbLine
 10
82.0635330714
 20
144.7887007636
 30
0.0
 11
81.6557887758
 21
143.3145804251
 31
0.0
  0
ARC
  5
13D
330
1F
100
AcDbEntity
  8
0
  6
Continuous
 62
     7
370
    25
100
AcDbCircle
 10
81.0997234435
 20
145.0552922132
 30
0.0
 40
1.00000000000002
100
AcDbArc
 50
344.5384615385
 51
60.7906521285
  0
ARC
  5
13E
330
1F
100
AcDbEntity
  8
0
  6
Continuous
 62
     7
370
    25
100
AcDbCircle
 10
0.0
 20
0.0
 30
0.0
 40
167.1872526448736
100
AcDbArc
 50
60.7906521285
 51
61.0555017177
  0
ARC
  5
13F
330
1F
100
AcDbEntity
  8
0
  6
Continuous
 62
     7
370
    25
100
AcDbCircle
 10
80.4283416801
 20
145.4286244047
 30
0.0
 40
0.9999999999999736
100
AcDbArc
 50
61.0555017177
 51
137.3076923077
  0
LINE
  5
140
330
1F
100
AcDbEntity
  8
0
  6
Continuous
 62
     7
370
    25
100
AcDbLine
 10
78.6562603842
 20
144.9825144815
 30
0.0
 11
79.6933360445
 21
146.1066854017
 31
0.0
  0
ARC
  5
141
330
1F
100
AcDbEntity
  8
0
  6
Continuous
 62
     7
370
    25
100
AcDbCircle
 10
76.9289971405
 20
146.5759578245
 30
0.0
 40
2.350000000000005
100
AcDbArc
 50
167.3076923077
 51
317.3076923077
  0
LINE
  5
142
330
1F
100
AcDbEntity
  8
0
  6
Continuous
 62
     7
370
    25
100
AcDbLine
 10
74.9724700285
 20
148.5843870223
 30
0.0
 11
74.636421621
 21
147.0922886171
 31
0.0
  0
ARC
  5
143
330
1F
100
AcDbEntity
  8
0
  6
Continuous
 62
     7
370
    25
100
AcDbCircle
 10
73.9969059776
 20
148.8041022532
 30
0.0
 40
1.000000000000031
100
AcDbArc
 50
347.3076923077
 51
63.5598828977
  0
ARC
  5
144
330
1F
100
AcDbEntity
  8
0
  6
Continuous
 62
     7
370
    25
100
AcDbCircle
 10
0.0
 20
0.0
 30
0.0
 40
167.1872526448736
100
AcDbArc
 50
63.5598828977
 51
63.8247324869
  0
ARC
  5
145
330
1F
100
AcDbEntity
  8
0
  6
Continuous
 62
     7
370
    25
100
AcDbCircle
 10
73.3082712961
 20
149.1445617555
 30
0.0
 40
1.000000000000022
100
AcDbArc
 50
63.8247324869
 51
140.0769230769
  0
LINE
  5
146
330
1F
100
AcDbEntity
  8
0
  6
Continuous
 62
     7
370
    25
100
AcDbLine
 10
71.5598124671
 20
148.6133575514
 30
0.0
 11
72.541364562
 21
149.7863203248
 31
0.0
  0
ARC
  5
147
330
1F
100
AcDbEntity
  8
0
  6
Continuous
 62
     7
370
    25
100
AcDbCircle
 10
69.7575816422
 20
150.1214901893
 30
0.0
 40
2.349999999999996
100
AcDbArc
 50
170.0769230769
 51
320.0769230769
  0
LINE
  5
148
330
1F
100
AcDbEntity
  8
0
  6
Continuous
 62
     7
370
    25
100
AcDbLine
 10
67.7063053079
 20
152.0330475605
 30
0.0
 11
67.4427376453
 21
150.5264559535
 31
0.0
  0
ARC
  5
149
330
1F
100
AcDbEntity
  8
0
  6
Continuous
 62
     7
370
    25
100
AcDbCircle
 10
66.7212653092
 20
152.2053734176
 30
0.0
 40
1.000000000000007
100
AcDbArc
 50
350.0769230769
 51
66.329113667
  0
ARC
  5
14A
330
1F
100
AcDbEntity
  8
0
  6
Continuous
 62
     7
370
    25
100
AcDbCircle
 10
0.0
 20
0.0
 30
0.0
 40
167.1872526448736
100
AcDbArc
 50
66.329113667
 51
66.5939632561
  0
ARC
  5
14B
330
1F
100
AcDbEntity
  8
0
  6
Continuous
 62
     7
370
    25
100
AcDbCircle
 10
66.0169860476
 20
152.5121650716
 30
0.0
 40
1.000000000000001
100
AcDbArc
 50
66.5939632561
 51
142.8461538462
  0
LINE
  5
14C
330
1F
100
AcDbEntity
  8
0
  6
Continuous
 62
     7
370
    25
100
AcDbLine
 10
64.2962332923
 20
151.8971072385
 30
0.0
 11
65.2199693614
 21
153.1161223564
 31
0.0
  0
ARC
  5
14D
330
1F
100
AcDbEntity
  8
0
  6
Continuous
 62
     7
370
    25
100
AcDbCircle
 10
62.4232440796
 20
153.3164068578
 30
0.0
 40
2.350000000000001
100
AcDbArc
 50
172.8461538462
 51
322.8461538462
  0
LINE
  5
14E
330
1F
100
AcDbEntity
  8
0
  6
Continuous
 62
     7
370
    25
100
AcDbLine
 10
60.2820093741
 20
155.1266278715
 30
0.0
 11
60.0915380308
 21
153.6090617773
 31
0.0
  0
ARC
  5
14F
330
1F
100
AcDbEntity
  8
0
  6
Continuous
 62
     7
370
    25
100
AcDbCircle
 10
59.2897940341
 20
155.2511618798
 30
0.0
 40
1.000000000000015
100
AcDbArc
 50
352.8461538462
 51
69.0983444362
  0
ARC
  5
150
330
1F
100
AcDbEntity
  8
0
  6
Continuous
 62
     7
370
    25
100
AcDbCircle
 10
0.0
 20
0.0
 30
0.0
 40
167.1872526448735
100
AcDbArc
 50
69.0983444362
 51
69.3631940253
  0
ARC
  5
151
330
1F
100
AcDbEntity
  8
0
  6
Continuous
 62
     7
370
    25
100
AcDbCircle
 10
58.5715150693
 20
155.5235691596
 30
0.0
 40
1.000000000000008
100
AcDbArc
 50
69.3631940253
 51
145.6153846154
  0
LINE
  5
152
330
1F
100
AcDbEntity
  8
0
  6
Continuous
 62
     7
370
    25
100
AcDbLine
 10
56.8824872854
 20
154.8260941936
 30
0.0
 11
57.7462499003
 21
156.0883145896
 31
0.0
  0
ARC
  5
153
330
1F
100
AcDbEntity
  8
0
  6
Continuous
 62
     7
370
    25
100
AcDbCircle
 10
54.9431141382
 20
156.1532459541
 30
0.0
 40
2.349999999999999
100
AcDbArc
 50
175.6153846154
 51
325.6153846154
  0
LINE
  5
154
330
1F
100
AcDbEntity
  8
0
  6
Continuous
 62
     7
370
    25
100
AcDbLine
 10
52.7169220142
 20
157.8579027554
 30
0.0
 11
52.5999918449
 21
156.3329065198
 31
0.0
  0
ARC
  5
155
330
1F
100
AcDbEntity
  8
0
  6
Continuous
 62
     7
370
    25
100
AcDbCircle
 10
51.7198486979
 20
157.9343540599
 30
0.0
 40
1.000000000000007
100
AcDbArc
 50
355.6153846154
 51
71.8675752054
  0
ARC
  5
156
330
1F
100
AcDbEntity
  8
0
  6
Continuous
 62
     7
370
    25
100
AcDbCircle
 10
0.0
 20
0.0
 30
0.0
 40
167.1872526448735
100
AcDbArc
 50
71.8675752054
 51
72.1324247946
  0
ARC
  5
157
330
1F
100
AcDbEntity
  8
0
  6
Continuous
 62
     7
370
    25
100
AcDbCircle
 10
50.9892476037
 20
158.1717407455
 30
0.0
 40
0.9999999999999942
100
AcDbArc
 50
72.1324247946
 51
148.3846153846
  0
LINE
  5
158
330
1F
100
AcDbEntity
  8
0
  6
Continuous
 62
     7
370
    25
100
AcDbLine
 10
49.3358895939
 20
157.3934776317
 30
0.0
 11
50.1376613968
 21
158.6959553316
 31
0.0
  0
ARC
  5
159
330
1F
100
AcDbEntity
  8
0
  6
Continuous
 62
     7
370
    25
100
AcDbCircle
 10
47.3346620078
 20
158.6253819091
 30
0.0
 40
2.35
100
AcDbArc
 50
178.3846153846
 51
328.3846153846
  0
LINE
  5
15A
330
1F
100
AcDbEntity
  8
0
  6
Continuous
 62
     7
370
    25
100
AcDbLine
 10
45.0287118402
 20
160.2204931929
 30
0.0
 11
44.9855959408
 21
158.6916285154
 31
0.0
  0
ARC
  5
15B
330
1F
100
AcDbEntity
  8
0
  6
Continuous
 62
     7
370
    25
100
AcDbCircle
 10
44.0291092585
 20
160.2486832381
 30
0.0
 40
1.000000000000013
100
AcDbArc
 50
358.3846153846
 51
74.6368059747
  0
ARC
  5
15C
330
1F
100
AcDbEntity
  8
0
  6
Continuous
 62
     7
370
    25
100
AcDbCircle
 10
0.0
 20
0.0
 30
0.0
 40
167.1872526448736
100
AcDbArc
 50
74.6368059747
 51
74.9016555638
  0
ARC
  5
15D
330
1F
100
AcDbEntity
  8
0
  6
Continuous
 62
     7
370
    25
100
AcDbCircle
 10
43.2878923876
 20
160.450494902
 30
0.0
 40
1.000000000000001
100
AcDbArc
 50
74.9016555638
 51
151.1538461538
  0
LINE
  5
15E
330
1F
100
AcDbEntity
  8
0
  6
Continuous
 62
     7
370
    25
100
AcDbLine
 10
41.6740656461
 20
159.5932613099
 30
0.0
 11
42.4119740621
 21
160.9329543168
 31
0.0
  0
ARC
  5
15F
330
1F
100
AcDbEntity
  8
0
  6
Continuous
 62
     7
370
    25
100
AcDbCircle
 10
39.615657581
 20
160.7270409347
 30
0.0
 40
2.350000000000001
100
AcDbArc
 50
181.1538461538
 51
331.1538461538
  0
LINE
  5
160
330
1F
100
AcDbEntity
  8
0
  6
Continuous
 62
     7
370
    25
100
AcDbLine
 10
37.2353350234
 20
162.2088812447
 30
0.0
 11
37.2661340929
 21
160.6797188596
 31
0.0
  0
ARC
  5
161
330
1F
100
AcDbEntity
  8
0
  6
Continuous
 62
     7
370
    25
100
AcDbCircle
 10
36.2355377944
 20
162.1887441915
 30
0.0
 40
1.000000000000024
100
AcDbArc
 50
1.1538461538
 51
77.4060367439
  0
ARC
  5
162
330
1F
100
AcDbEntity
  8
0
  6
Continuous
 62
     7
370
    25
100
AcDbCircle
 10
0.0
 20
0.0
 30
0.0
 40
167.1872526448735
100
AcDbArc
 50
77.4060367439
 51
77.670886333
  0
ARC
  5
163
330
1F
100
AcDbEntity
  8
0
  6
Continuous
 62
     7
370
    25
100
AcDbCircle
 10
35.4854362932
 20
162.3545094931
 30
0.0
 40
0.9999999999999909
100
AcDbArc
 50
77.670886333
 51
153.9230769231
  0
LINE
  5
164
330
1F
100
AcDbEntity
  8
0
  6
Continuous
 62
     7
370
    25
100
AcDbLine
 10
33.9149099871
 20
161.4203075316
 30
0.0
 11
34.5872315967
 21
162.7940869302
 31
0.0
  0
ARC
  5
165
330
1F
100
AcDbEntity
  8
0
  6
Continuous
 62
     7
370
    25
100
AcDbCircle
 10
31.8041289504
 20
162.4533145089
 30
0.0
 40
2.350000000000007
100
AcDbArc
 50
183.9230769231
 51
333.9230769231
  0
LINE
  5
166
330
1F
100
AcDbEntity
  8
0
  6
Continuous
 62
     7
370
    25
100
AcDbLine
 10
29.3549933563
 20
163.8184229384
 30
0.0
 11
29.4596354622
 21
162.2925342752
 31
0.0
  0
ARC
  5
167
330
1F
100
AcDbEntity
  8
0
  6
Continuous
 62
     7
370
    25
100
AcDbCircle
 10
28.3573365527
 20
163.7500058177
 30
0.0
 40
1.000000000000014
100
AcDbArc
 50
3.9230769231
 51
80.1752675131
  0
ARC
  5
168
330
1F
100
AcDbEntity
  8
0
  6
Continuous
 62
     7
370
    25
100
AcDbCircle
 10
0.0
 20
0.0
 30
0.0
 40
167.1872526448735
100
AcDbArc
 50
80.1752675131
 51
80.4401171023
  0
ARC
  5
169
330
1F
100
AcDbEntity
  8
0
  6
Continuous
 62
     7
370
    25
100
AcDbCircle
 10
27.600102318
 20
163.8793376045
 30
0.0
 40
1.000000000000012
100
AcDbArc
 50
80.4401171023
 51
156.6923076923
  0
LINE
  5
16A
330
1F
100
AcDbEntity
  8
0
  6
Continuous
 62
     7
370
    25
100
AcDbLine
 10
26.0765444843
 20
162.8703491455
 30
0.0
 11
26.6817090493
 21
164.2750064105
 31
0.0
  0
ARC
  5
16B
330
1F
100
AcDbEntity
  8
0
  6
Continuous
 62
     7
370
    25
100
AcDbCircle
 10
23.918320303
 20
163.8001708396
 30
0.0
 40
2.349999999999997
100
AcDbArc
 50
186.6923076923
 51
336.6923076923
  0
LINE
  5
16C
330
1F
100
AcDbEntity
  8
0
  6
Continuous
 62
     7
370
    25
100
AcDbLine
 10
21.406091742
 20
165.0453591147
 30
0.0
 11
21.5843324877
 21
163.5263079571
 31
0.0
  0
ARC
  5
16D
330
1F
100
AcDbEntity
  8
0
  6
Continuous
 62
     7
370
    25
100
AcDbCircle
 10
20.4129054376
 20
164.9288217179
 30
0.0
 40
1.00000000000001
100
AcDbArc
 50
6.6923076923
 51
82.9444982823
  0
ARC
  5
16E
330
1F
100
AcDbEntity
  8
0
  6
Continuous
 62
     7
370
    25
100
AcDbCircle
 10
0.0
 20
0.0
 30
0.0
 40
167.1872526448735
100
AcDbArc
 50
82.9444982823
 51
83.2093478715
  0
ARC
  5
16F
330
1F
100
AcDbEntity
  8
0
  6
Continuous
 62
     7
370
    25
100
AcDbCircle
 10
19.650307025
 20
165.0214179295
 30
0.0
 40
1.000000000000017
100
AcDbArc
 50
83.2093478715
 51
159.4615384615
  0
LINE
  5
170
330
1F
100
AcDbEntity
  8
0
  6
Continuous
 62
     7
370
    25
100
AcDbLine
 10
18.1772760037
 20
163.9399995123
 30
0.0
 11
18.7138701342
 21
165.3722540016
 31
0.0
  0
ARC
  5
171
330
1F
100
AcDbEntity
  8
0
  6
Continuous
 62
     7
370
    25
100
AcDbCircle
 10
15.9766493102
 20
164.7644642817
 30
0.0
 40
2.349999999999994
100
AcDbArc
 50
189.4615384615
 51
339.4615384615
  0
LINE
  5
172
330
1F
100
AcDbEntity
  8
0
  6
Continuous
 62
     7
370
    25
100
AcDbLine
 10
13.4071952086
 20
165.8868242074
 30
0.0
 11
13.6586183047
 21
164.3781583697
 31
0.0
  0
ARC
  5
173
330
1F
100
AcDbEntity
  8
0
  6
Continuous
 62
     7
370
    25
100
AcDbCircle
 10
12.420799036
 20
165.7224387129
 30
0.0
 40
1.000000000000006
100
AcDbArc
 50
9.4615384615
 51
85.7137290516
  0
ARC
  5
174
330
1F
100
AcDbEntity
  8
0
  6
Continuous
 62
     7
370
    25
100
AcDbCircle
 10
0.0
 20
0.0
 30
0.0
 40
167.1872526448736
100
AcDbArc
 50
85.7137290516
 51
85.9785786407
  0
ARC
  5
175
330
1F
100
AcDbEntity
  8
0
  6
Continuous
 62
     7
370
    25
100
AcDbCircle
 10
11.6546175295
 20
165.7780830867
 30
0.0
 40
0.9999999999999835
100
AcDbArc
 50
85.9785786407
 51
162.2307692308
  0
LINE
  5
176
330
1F
100
AcDbEntity
  8
0
  6
Continuous
 62
     7
370
    25
100
AcDbLine
 10
10.2355536526
 20
164.6267604141
 30
0.0
 11
10.7023241082
 21
166.0832670309
 31
0.0
  0
ARC
  5
177
330
1F
100
AcDbEntity
  8
0
  6
Continuous
 62
     7
370
    25
100
AcDbCircle
 10
7.9976641126
 20
165.343942683
 30
0.0
 40
2.350000000000037
100
AcDbArc
 50
192.2307692308
 51
342.2307692308
  0
LINE
  5
178
330
1F
100
AcDbEntity
  8
0
  6
Continuous
 62
     7
370
    25
100
AcDbLine
 10
5.3769855496
 20
166.3408529357
 30
0.0
 11
5.7010037857
 21
164.846095977
 31
0.0
  0
ARC
  5
179
330
1F
100
AcDbEntity
  8
0
  6
Continuous
 62
     7
370
    25
100
AcDbCircle
 10
4.3996832828
 20
166.1290032735
 30
0.0
 40
1.00000000000005
100
AcDbArc
 50
12.2307692308
 51
88.4829598208
  0
ARC
  5
17A
330
1F
100
AcDbEntity
  8
0
  6
Continuous
 62
     7
370
    25
100
AcDbCircle
 10
0.0
 20
0.0
 30
0.0
 40
167.1872526448735
100
AcDbArc
 50
88.4829598208
 51
88.74780941
  0
ARC
  5
17B
330
1F
100
AcDbEntity
  8
0
  6
Continuous
 62
     7
370
    25
100
AcDbCircle
 10
3.6317081347
 20
166.1475658494
 30
0.0
 40
0.9999999999999934
100
AcDbArc
 50
88.74780941
 51
165.0
  0
LINE
  5
17C
330
1F
100
AcDbEntity
  8
0
  6
Continuous
 62
     7
370
    25
100
AcDbLine
 10
2.2699256918
 20
164.9290278889
 30
0.0
 11
2.6657823084
 21
166.4063848945
 31
0.0
  0
ARC
  5
17D
330
1F
100
AcDbEntity
  8
0
  6
Continuous
 62
     7
370
    25
100
AcDbCircle
 10
0.0
 20
165.5372526449
 30
0.0
 40
2.349999999999994
100
AcDbArc
 50
195.0
 51
345.0
  0
LINE
  5
17E
330
1F
100
AcDbEntity
  8
0
  6
Continuous
 62
     7
370
    25
100
AcDbLine
 10
-2.6657823084
 20
166.4063848945
 30
0.0
 11
-2.2699256918
 21
164.9290278889
 31
0.0
  0
ARC
  5
17F
330
1F
100
AcDbEntity
  8
0
  6
Continuous
 62
     7
370
    25
100
AcDbCircle
 10
-3.6317081347
 20
166.1475658494
 30
0.0
 40
1.000000000000006
100
AcDbArc
 50
15.0
 51
91.25219059
  0
ARC
  5
180
330
1F
100
AcDbEntity
  8
0
  6
Continuous
 62
     7
370
    25
100
AcDbCircle
 10
0.0
 20
0.0
 30
0.0
 40
167.1872526448735
100
AcDbArc
 50
91.25219059
 51
91.5170401792
  0
ARC
  5
181
330
1F
100
AcDbEntity
  8
0
  6
Continuous
 62
     7
370
    25
100
AcDbCircle
 10
-4.3996832828
 20
166.1290032735
 30
0.0
 40
1.000000000000022
100
AcDbArc
 50
91.5170401792
 51
167.7692307692
  0
LINE
  5
182
330
1F
100
AcDbEntity
  8
0
  6
Continuous
 62
     7
370
    25
100
AcDbLine
 10
-5.7010037857
 20
164.846095977
 30
0.0
 11
-5.3769855496
 21
166.3408529357
 31
0.0
  0
ARC
  5
183
330
1F
100
AcDbEntity
  8
0
  6
Continuous
 62
     7
370
    25
100
AcDbCircle
 10
-7.9976641126
 20
165.343942683
 30
0.0
 40
2.349999999999996
100
AcDbArc
 50
197.7692307692
 51
347.7692307692
  0
LINE
  5
184
330
1F
100
AcDbEntity
  8
0
  6
Continuous
 62
     7
370
    25
100
AcDbLine
 10
-10.7023241082
 20
166.0832670309
 30
0.0
 11
-10.2355536526
 21
164.6267604141
 31
0.0
  0
ARC
  5
185
330
1F
100
AcDbEntity
  8
0
  6
Continuous
 62
     7
370
    25
100
AcDbCircle
 10
-11.6546175295
 20
165.7780830867
 30
0.0
 40
0.9999999999999788
100
AcDbArc
 50
17.7692307692
 51
94.0214213593
  0
ARC
  5
186
330
1F
100
AcDbEntity
  8
0
  6
Continuous
 62
     7
370
    25
100
AcDbCircle
 10
0.0
 20
0.0
 30
0.0
 40
167.1872526448735
100
AcDbArc
 50
94.0214213593
 51
94.2862709484
  0
ARC
  5
187
330
1F
100
AcDbEntity
  8
0
  6
Continuous
 62
     7
370
    25
100
AcDbCircle
 10
-12.420799036
 20
165.7224387129
 30
0.0
 40
0.9999999999999974
100
AcDbArc
 50
94.2862709484
 51
170.5384615385
  0
LINE
  5
188
330
1F
100
AcDbEntity
  8
0
  6
Continuous
 62
     7
370
    25
100
AcDbLine
 10
-13.6586183047
 20
164.3781583697
 30
0.0
 11
-13.4071952086
 21
165.8868242074
 31
0.0
  0
ARC
  5
189
330
1F
100
AcDbEntity
  8
0
  6
Continuous
 62
     7
370
    25
100
AcDbCircle
 10
-15.9766493102
 20
164.7644642817
 30
0.0
 40
2.349999999999997
100
AcDbArc
 50
200.5384615385
 51
350.5384615385
  0
LINE
  5
18A
330
1F
100
AcDbEntity
  8
0
  6
Continuous
 62
     7
370
    25
100
AcDbLine
 10
-18.7138701342
 20
165.3722540016
 30
0.0
 11
-18.1772760037
 21
163.9399995123
 31
0.0
  0
ARC
  5
18B
330
1F
100
AcDbEntity
  8
0
  6
Continuous
 62
     7
370
    25
100
AcDbCircle
 10
-19.650307025
 20
165.0214179295
 30
0.0
 40
1.000000000000021
100
AcDbArc
 50
20.5384615385
 51
96.7906521285
  0
ARC
  5
18C
330
1F
100
AcDbEntity
  8
0
  6
Continuous
 62
     7
370
    25
100
AcDbCircle
 10
0.0
 20
0.0
 30
0.0
 40
167.1872526448736
100
AcDbArc
 50
96.7906521285
 51
97.0555017177
  0
ARC
  5
18D
330
1F
100
AcDbEntity
  8
0
  6
Continuous
 62
     7
370
    25
100
AcDbCircle
 10
-20.4129054376
 20
164.9288217179
 30
0.0
 40
1.000000000000037
100
AcDbArc
 50
97.0555017177
 51
173.3076923077
  0
LINE
  5
18E
330
1F
100
AcDbEntity
  8
0
  6
Continuous
 62
     7
370
    25
100
AcDbLine
 10
-21.5843324877
 20
163.5263079571
 30
0.0
 11
-21.406091742
 21
165.0453591147
 31
0.0
  0
ARC
  5
18F
330
1F
100
AcDbEntity
  8
0
  6
Continuous
 62
     7
370
    25
100
AcDbCircle
 10
-23.918320303
 20
163.8001708396
 30
0.0
 40
2.349999999999993
100
AcDbArc
 50
203.3076923077
 51
353.3076923077
  0
LINE
  5
190
330
1F
100
AcDbEntity
  8
0
  6
Continuous
 62
     7
370
    25
100
AcDbLine
 10
-26.6817090493
 20
164.2750064105
 30
0.0
 11
-26.0765444843
 21
162.8703491455
 31
0.0
  0
ARC
  5
191
330
1F
100
AcDbEntity
  8
0
  6
Continuous
 62
     7
370
    25
100
AcDbCircle
 10
-27.600102318
 20
163.8793376045
 30
0.0
 40
1.000000000000019
100
AcDbArc
 50
23.3076923077
 51
99.5598828977
  0
ARC
  5
192
330
1F
100
AcDbEntity
  8
0
  6
Continuous
 62
     7
370
    25
100
AcDbCircle
 10
0.0
 20
0.0
 30
0.0
 40
167.1872526448735
100
AcDbArc
 50
99.5598828977
 51
99.8247324869
  0
ARC
  5
193
330
1F
100
AcDbEntity
  8
0
  6
Continuous
 62
     7
370
    25
100
AcDbCircle
 10
-28.3573365527
 20
163.7500058177
 30
0.0
 40
1.00000000000002
100
AcDbArc
 50
99.8247324869
 51
176.0769230769
  0
LINE
  5
194
330
1F
100
AcDbEntity
  8
0
  6
Continuous
 62
     7
370
    25
100
AcDbLine
 10
-29.4596354622
 20
162.2925342752
 30
0.0
 11
-29.3549933563
 21
163.8184229384
 31
0.0
  0
ARC
  5
195
330
1F
100
AcDbEntity
  8
0
  6
Continuous
 62
     7
370
    25
100
AcDbCircle
 10
-31.8041289504
 20
162.4533145089
 30
0.0
 40
2.350000000000013
100
AcDbArc
 50
206.0769230769
 51
356.0769230769
  0
LINE
  5
196
330
1F
100
AcDbEntity
  8
0
  6
Continuous
 62
     7
370
    25
100
AcDbLine
 10
-34.5872315967
 20
162.7940869302
 30
0.0
 11
-33.9149099871
 21
161.4203075316
 31
0.0
  0
ARC
  5
197
330
1F
100
AcDbEntity
  8
0
  6
Continuous
 62
     7
370
    25
100
AcDbCircle
 10
-35.4854362932
 20
162.3545094931
 30
0.0
 40
1.000000000000029
100
AcDbArc
 50
26.0769230769
 51
102.329113667
  0
ARC
  5
198
330
1F
100
AcDbEntity
  8
0
  6
Continuous
 62
     7
370
    25
100
AcDbCircle
 10
0.0
 20
0.0
 30
0.0
 40
167.1872526448736
100
AcDbArc
 50
102.329113667
 51
102.5939632561
  0
ARC
  5
199
330
1F
100
AcDbEntity
  8
0
  6
Continuous
 62
     7
370
    25
100
AcDbCircle
 10
-36.2355377944
 20
162.1887441915
 30
0.0
 40
1.000000000000023
100
AcDbArc
 50
102.5939632561
 51
178.8461538462
  0
LINE
  5
19A
330
1F
100
AcDbEntity
  8
0
  6
Continuous
 62
     7
370
    25
100
AcDbLine
 10
-37.2661340929
 20
160.6797188596
 30
0.0
 11
-37.2353350234
 21
162.2088812447
 31
0.0
  0
ARC
  5
19B
330
1F
100
AcDbEntity
  8
0
  6
Continuous
 62
     7
370
    25
100
AcDbCircle
 10
-39.615657581
 20
160.7270409347
 30
0.0
 40
2.349999999999996
100
AcDbArc
 50
208.8461538462
 51
358.8461538462
  0
LINE
  5
19C
330
1F
100
AcDbEntity
  8
0
  6
Continuous
 62
     7
370
    25
100
AcDbLine
 10
-42.4119740621
 20
160.9329543168
 30
0.0
 11
-41.6740656461
 21
159.5932613099
 31
0.0
  0
ARC
  5
19D
330
1F
100
AcDbEntity
  8
0
  6
Continuous
 62
     7
370
    25
100
AcDbCircle
 10
-43.2878923876
 20
160.450494902
 30
0.0
 40
1.000000000000031
100
AcDbArc
 50
28.8461538462
 51
105.0983444362
  0
ARC
  5
19E
330
1F
100
AcDbEntity
  8
0
  6
Continuous
 62
     7
370
    25
100
AcDbCircle
 10
0.0
 20
0.0
 30
0.0
 40
167.1872526448735
100
AcDbArc
 50
105.0983444362
 51
105.3631940253
  0
ARC
  5
19F
330
1F
100
AcDbEntity
  8
0
  6
Continuous
 62
     7
370
    25
100
AcDbCircle
 10
-44.0291092585
 20
160.2486832381
 30
0.0
 40
1.000000000000006
100
AcDbArc
 50
105.3631940253
 51
181.6153846154
  0
LINE
  5
1A0
330
1F
100
AcDbEntity
  8
0
  6
Continuous
 62
     7
370
    25
100
AcDbLine
 10
-44.9855959408
 20
158.6916285154
 30
0.0
 11
-45.0287118402
 21
160.2204931929
 31
0.0
  0
ARC
  5
1A1
330
1F
100
AcDbEntity
  8
0
  6
Continuous
 62
     7
370
    25
100
AcDbCircle
 10
-47.3346620078
 20
158.6253819091
 30
0.0
 40
2.349999999999994
100
AcDbArc
 50
211.6153846154
 51
1.6153846154
  0
LINE
  5
1A2
330
1F
100
AcDbEntity
  8
0
  6
Continuous
 62
     7
370
    25
100
AcDbLine
 10
-50.1376613968
 20
158.6959553316
 30
0.0
 11
-49.3358895939
 21
157.3934776317
 31
0.0
  0
ARC
  5
1A3
330
1F
100
AcDbEntity
  8
0
  6
Continuous
 62
     7
370
    25
100
AcDbCircle
 10
-50.9892476037
 20
158.1717407455
 30
0.0
 40
1.000000000000045
100
AcDbArc
 50
31.6153846154
 51
107.8675752054
  0
ARC
  5
1A4
330
1F
100
AcDbEntity
  8
0
  6
Continuous
 62
     7
370
    25
100
AcDbCircle
 10
0.0
 20
0.0
 30
0.0
 40
167.1872526448735
100
AcDbArc
 50
107.8675752054
 51
108.1324247946
  0
ARC
  5
1A5
330
1F
100
AcDbEntity
  8
0
  6
Continuous
 62
     7
370
    25
100
AcDbCircle
 10
-51.7198486979
 20
157.9343540599
 30
0.0
 40
1.000000000000004
100
AcDbArc
 50
108.1324247946
 51
184.3846153846
  0
LINE
  5
1A6
330
1F
100
AcDbEntity
  8
0
  6
Continuous
 62
     7
370
    25
100
AcDbLine
 10
-52.5999918449
 20
156.3329065198
 30
0.0
 11
-52.7169220142
 21
157.8579027554
 31
0.0
  0
ARC
  5
1A7
330
1F
100
AcDbEntity
  8
0
  6
Continuous
 62
     7
370
    25
100
AcDbCircle
 10
-54.9431141382
 20
156.1532459541
 30
0.0
 40
2.350000000000007
100
AcDbArc
 50
214.3846153846
 51
4.3846153846
  0
LINE
  5
1A8
330
1F
100
AcDbEntity
  8
0
  6
Continuous
 62
     7
370
    25
100
AcDbLine
 10
-57.7462499003
 20
156.0883145896
 30
0.0
 11
-56.8824872854
 21
154.8260941936
 31
0.0
  0
ARC
  5
1A9
330
1F
100
AcDbEntity
  8
0
  6
Continuous
 62
     7
370
    25
100
AcDbCircle
 10
-58.5715150693
 20
155.5235691596
 30
0.0
 40
0.9999999999999877
100
AcDbArc
 50
34.3846153846
 51
110.6368059747
  0
ARC
  5
1AA
330
1F
100
AcDbEntity
  8
0
  6
Continuous
 62
     7
370
    25
100
AcDbCircle
 10
0.0
 20
0.0
 30
0.0
 40
167.1872526448735
100
AcDbArc
 50
110.6368059747
 51
110.9016555638
  0
ARC
  5
1AB
330
1F
100
AcDbEntity
  8
0
  6
Continuous
 62
     7
370
    25
100
AcDbCircle
 10
-59.2897940341
 20
155.2511618798
 30
0.0
 40
0.999999999999976
100
AcDbArc
 50
110.9016555638
 51
187.1538461538
  0
LINE
  5
1AC
330
1F
100
AcDbEntity
  8
0
  6
Continuous
 62
     7
370
    25
100
AcDbLine
 10
-60.0915380308
 20
153.6090617773
 30
0.0
 11
-60.2820093741
 21
155.1266278715
 31
0.0
  0
ARC
  5
1AD
330
1F
100
AcDbEntity
  8
0
  6
Continuous
 62
     7
370
    25
100
AcDbCircle
 10
-62.4232440796
 20
153.3164068578
 30
0.0
 40
2.349999999999983
100
AcDbArc
 50
217.1538461538
 51
7.1538461538
  0
LINE
  5
1AE
330
1F
100
AcDbEntity
  8
0
  6
Continuous
 62
     7
370
    25
100
AcDbLine
 10
-65.2199693614
 20
153.1161223564
 30
0.0
 11
-64.2962332923
 21
151.8971072385
 31
0.0
  0
ARC
  5
1AF
330
1F
100
AcDbEntity
  8
0
  6
Continuous
 62
     7
370
    25
100
AcDbCircle
 10
-66.0169860476
 20
152.5121650716
 30
0.0
 40
1.000000000000024
100
AcDbArc
 50
37.1538461538
 51
113.4060367439
  0
ARC
  5
1B0
330
1F
100
AcDbEntity
  8
0
  6
Continuous
 62
     7
370
    25
100
AcDbCircle
 10
0.0
 20
0.0
 30
0.0
 40
167.1872526448735
100
AcDbArc
 50
113.4060367439
 51
113.670886333
  0
ARC
  5
1B1
330
1F
100
AcDbEntity
  8
0
  6
Continuous
 62
     7
370
    25
100
AcDbCircle
 10
-66.7212653092
 20
152.2053734176
 30
0.0
 40
0.9999999999999983
100
AcDbArc
 50
113.670886333
 51
189.9230769231
  0
LINE
  5
1B2
330
1F
100
AcDbEntity
  8
0
  6
Continuous
 62
     7
370
    25
100
AcDbLine
 10
-67.4427376453
 20
150.5264559535
 30
0.0
 11
-67.7063053079
 21
152.0330475605
 31
0.0
  0
ARC
  5
1B3
330
1F
100
AcDbEntity
  8
0
  6
Continuous
 62
     7
370
    25
100
AcDbCircle
 10
-69.7575816422
 20
150.1214901893
 30
0.0
 40
2.350000000000024
100
AcDbArc
 50
219.9230769231
 51
9.9230769231
  0
LINE
  5
1B4
330
1F
100
AcDbEntity
  8
0
  6
Continuous
 62
     7
370
    25
100
AcDbLine
 10
-72.541364562
 20
149.7863203248
 30
0.0
 11
-71.5598124671
 21
148.6133575514
 31
0.0
  0
ARC
  5
1B5
330
1F
100
AcDbEntity
  8
0
  6
Continuous
 62
     7
370
    25
100
AcDbCircle
 10
-73.308271296
 20
149.1445617555
 30
0.0
 40
1.000000000000026
100
AcDbArc
 50
39.9230769231
 51
116.1752675131
  0
ARC
  5
1B6
330
1F
100
AcDbEntity
  8
0
  6
Continuous
 62
     7
370
    25
100
AcDbCircle
 10
0.0
 20
0.0
 30
0.0
 40
167.1872526448735
100
AcDbArc
 50
116.1752675131
 51
116.4401171023
  0
ARC
  5
1B7
330
1F
100
AcDbEntity
  8
0
  6
Continuous
 62
     7
370
    25
100
AcDbCircle
 10
-73.9969059776
 20
148.8041022532
 30
0.0
 40
1.000000000000031
100
AcDbArc
 50
116.4401171023
 51
192.6923076923
  0
LINE
  5
1B8
330
1F
100
AcDbEntity
  8
0
  6
Continuous
 62
     7
370
    25
100
AcDbLine
 10
-74.636421621
 20
147.0922886171
 30
0.0
 11
-74.9724700285
 21
148.5843870223
 31
0.0
  0
ARC
  5
1B9
330
1F
100
AcDbEntity
  8
0
  6
Continuous
 62
     7
370
    25
100
AcDbCircle
 10
-76.9289971405
 20
146.5759578245
 30
0.0
 40
2.350000000000006
100
AcDbArc
 50
222.6923076923
 51
12.6923076923
  0
LINE
  5
1BA
330
1F
100
AcDbEntity
  8
0
  6
Continuous
 62
     7
370
    25
100
AcDbLine
 10
-79.6933360445
 20
146.1066854017
 30
0.0
 11
-78.6562603842
 21
144.9825144816
 31
0.0
  0
ARC
  5
1BB
330
1F
100
AcDbEntity
  8
0
  6
Continuous
 62
     7
370
    25
100
AcDbCircle
 10
-80.4283416801
 20
145.4286244047
 30
0.0
 40
1.000000000000036
100
AcDbArc
 50
42.6923076923
 51
118.9444982823
  0
ARC
  5
1BC
330
1F
100
AcDbEntity
  8
0
  6
Continuous
 62
     7
370
    25
100
AcDbCircle
 10
0.0
 20
0.0
 30
0.0
 40
167.1872526448735
100
AcDbArc
 50
118.9444982823
 51
119.2093478715
  0
ARC
  5
1BD
330
1F
100
AcDbEntity
  8
0
  6
Continuous
 62
     7
370
    25
100
AcDbCircle
 10
-81.0997234435
 20
145.0552922132
 30
0.0
 40
0.9999999999999492
100
AcDbArc
 50
119.2093478715
 51
195.4615384615
  0
LINE
  5
1BE
330
1F
100
AcDbEntity
  8
0
  6
Continuous
 62
     7
370
    25
100
AcDbLine
 10
-81.6557887758
 20
143.3145804251
 30
0.0
 11
-82.0635330714
 21
144.7887007636
 31
0.0
  0
ARC
  5
1BF
330
1F
100
AcDbEntity
  8
0
  6
Continuous
 62
     7
370
    25
100
AcDbCircle
 10
-83.9207414015
 20
142.6880905185
 30
0.0
 40
2.350000000000034
100
AcDbArc
 50
225.4615384615
 51
15.4615384615
  0
LINE
  5
1C0
330
1F
100
AcDbEntity
  8
0
  6
Continuous
 62
     7
370
    25
100
AcDbLine
 10
-86.6591800481
 20
142.0858115449
 30
0.0
 11
-85.5690029606
 21
141.0130580314
 31
0.0
  0
ARC
  5
1C1
330
1F
100
AcDbEntity
  8
0
  6
Continuous
 62
     7
370
    25
100
AcDbCircle
 10
-87.3605679455
 20
141.3730317631
 30
0.0
 40
1.000000000000042
100
AcDbArc
 50
45.4615384615
 51
121.7137290516
  0
ARC
  5
1C2
330
1F
100
AcDbEntity
  8
0
  6
Continuous
 62
     7
370
    25
100
AcDbCircle
 10
0.0
 20
0.0
 30
0.0
 40
167.1872526448735
100
AcDbArc
 50
121.7137290516
 51
121.9785786407
  0
ARC
  5
1C3
330
1F
100
AcDbEntity
  8
0
  6
Continuous
 62
     7
370
    25
100
AcDbCircle
 10
-88.0131287474
 20
140.967698817
 30
0.0
 40
1.000000000000026
100
AcDbArc
 50
121.9785786407
 51
198.2307692308
  0
LINE
  5
1C4
330
1F
100
AcDbEntity
  8
0
  6
Continuous
 62
     7
370
    25
100
AcDbLine
 10
-88.4844450523
 20
139.20215439
 30
0.0
 11
-88.9629329305
 21
140.6548537853
 31
0.0
  0
ARC
  5
1C5
330
1F
100
AcDbEntity
  8
0
  6
Continuous
 62
     7
370
    25
100
AcDbCircle
 10
-90.7164848825
 20
138.4669685657
 30
0.0
 40
2.349999999999978
100
AcDbArc
 50
228.2307692308
 51
18.2307692308
  0
LINE
  5
1C6
330
1F
100
AcDbEntity
  8
0
  6
Continuous
 62
     7
370
    25
100
AcDbLine
 10
-93.4226275212
 20
137.7330896916
 30
0.0
 11
-92.2818951656
 21
136.7142590502
 31
0.0
  0
ARC
  5
1C7
330
1F
100
AcDbEntity
  8
0
  6
Continuous
 62
     7
370
    25
100
AcDbCircle
 10
-94.0887595566
 20
136.9872558552
 30
0.0
 40
1.000000000000009
100
AcDbArc
 50
48.2307692308
 51
124.4829598208
  0
ARC
  5
1C8
330
1F
100
AcDbEntity
  8
0
  6
Continuous
 62
     7
370
    25
100
AcDbCircle
 10
0.0
 20
0.0
 30
0.0
 40
167.1872526448736
100
AcDbArc
 50
124.4829598208
 51
124.74780941
  0
ARC
  5
1C9
330
1F
100
AcDbEntity
  8
0
  6
Continuous
 62
     7
370
    25
100
AcDbCircle
 10
-94.720975311
 20
136.5508688284
 30
0.0
 40
1.00000000000003
100
AcDbArc
 50
124.74780941
 51
201.0
  0
LINE
  5
1CA
330
1F
100
AcDbEntity
  8
0
  6
Continuous
 62
     7
370
    25
100
AcDbLine
 10
-95.1064418074
 20
134.7646152733
 30
0.0
 11
-95.6545557375
 21
136.1925008788
 31
0.0
  0
ARC
  5
1CB
330
1F
100
AcDbEntity
  8
0
  6
Continuous
 62
     7
370
    25
100
AcDbCircle
 10
-97.3003558097
 20
133.9224505918
 30
0.0
 40
2.349999999999989
100
AcDbArc
 50
231.0
 51
21.0
  0
LINE
  5
1CC
330
1F
100
AcDbEntity
  8
0
  6
Continuous
 62
     7
370
    25
100
AcDbLine
 10
-99.9678821191
 20
133.0586858255
 30
0.0
 11
-98.7792587286
 21
132.0961575824
 31
0.0
  0
ARC
  5
1CD
330
1F
100
AcDbEntity
  8
0
  6
Continuous
 62
     7
370
    25
100
AcDbCircle
 10
-100.5972025101
 20
132.281539864
 30
0.0
 40
1.000000000000014
100
AcDbArc
 50
51.0
 51
127.25219059
  0
ARC
  5
1CE
330
1F
100
AcDbEntity
  8
0
  6
Continuous
 62
     7
370
    25
100
AcDbCircle
 10
0.0
 20
0.0
 30
0.0
 40
167.1872526448736
100
AcDbArc
 50
127.25219059
 51
127.5170401792
  0
ARC
  5
1CF
330
1F
100
AcDbEntity
  8
0
  6
Continuous
 62
     7
370
    25
100
AcDbCircle
 10
-101.2075966479
 20
131.8151179585
 30
0.0
 40
1.000000000000031
100
AcDbArc
 50
127.5170401792
 51
203.7692307692
  0
LINE
  5
1D0
330
1F
100
AcDbEntity
  8
0
  6
Continuous
 62
     7
370
    25
100
AcDbLine
 10
-101.5063130609
 20
130.0123271532
 30
0.0
 11
-102.1227728974
 21
131.412064076
 31
0.0
  0
ARC
  5
1D1
330
1F
100
AcDbEntity
  8
0
  6
Continuous
 62
     7
370
    25
100
AcDbCircle
 10
-103.6569772474
 20
129.0651505293
 30
0.0
 40
2.349999999999991
100
AcDbArc
 50
233.7692307692
 51
23.7692307692
  0
LINE
  5
1D2
330
1F
100
AcDbEntity
  8
0
  6
Continuous
 62
     7
370
    25
100
AcDbLine
 10
-106.2796570961
 20
128.0735172332
 30
0.0
 11
-105.0459187559
 21
127.1695394178
 31
0.0
  0
ARC
  5
1D3
330
1F
100
AcDbEntity
  8
0
  6
Continuous
 62
     7
370
    25
100
AcDbCircle
 10
-106.8706960359
 20
127.2668742071
 30
0.0
 40
1.000000000000032
100
AcDbArc
 50
53.7692307692
 51
130.0214213593
  0
ARC
  5
1D4
330
1F
100
AcDbEntity
  8
0
  6
Continuous
 62
     7
370
    25
100
AcDbCircle
 10
0.0
 20
0.0
 30
0.0
 40
167.1872526448735
100
AcDbArc
 50
130.0214213593
 51
130.2862709484
  0
ARC
  5
1D5
330
1F
100
AcDbEntity
  8
0
  6
Continuous
 62
     7
370
    25
100
AcDbCircle
 10
-107.4578429533
 20
126.7715067729
 30
0.0
 40
0.9999999999999728
100
AcDbArc
 50
130.2862709484
 51
206.5384615385
  0
LINE
  5
1D6
330
1F
100
AcDbEntity
  8
0
  6
Continuous
 62
     7
370
    25
100
AcDbLine
 10
-107.6691116169
 20
124.956389219
 30
0.0
 11
-108.3524775894
 21
126.3247083084
 31
0.0
  0
ARC
  5
1D7
330
1F
100
AcDbEntity
  8
0
  6
Continuous
 62
     7
370
    25
100
AcDbCircle
 10
-109.7715030117
 20
123.9064128274
 30
0.0
 40
2.350000000000001
100
AcDbArc
 50
236.5384615385
 51
26.5384615385
  0
LINE
  5
1D8
330
1F
100
AcDbEntity
  8
0
  6
Continuous
 62
     7
370
    25
100
AcDbLine
 10
-112.3432110096
 20
122.7892270072
 30
0.0
 11
-111.0672391726
 21
121.9459109015
 31
0.0
  0
ARC
  5
1D9
330
1F
100
AcDbEntity
  8
0
  6
Continuous
 62
     7
370
    25
100
AcDbCircle
 10
-112.8945880993
 20
121.9549708685
 30
0.0
 40
1.000000000000022
100
AcDbArc
 50
56.5384615385
 51
132.7906521285
  0
ARC
  5
1DA
330
1F
100
AcDbEntity
  8
0
  6
Continuous
 62
     7
370
    25
100
AcDbCircle
 10
0.0
 20
0.0
 30
0.0
 40
167.1872526448735
100
AcDbArc
 50
132.7906521285
 51
133.0555017177
  0
ARC
  5
1DB
330
1F
100
AcDbEntity
  8
0
  6
Continuous
 62
     7
370
    25
100
AcDbCircle
 10
-113.4571164874
 20
121.4318148593
 30
0.0
 40
1.000000000000005
100
AcDbArc
 50
133.0555017177
 51
209.3076923077
  0
LINE
  5
1DC
330
1F
100
AcDbEntity
  8
0
  6
Continuous
 62
     7
370
    25
100
AcDbLine
 10
-113.5804439738
 20
119.6086098478
 30
0.0
 11
-114.3291200494
 21
120.9423153314
 31
0.0
  0
ARC
  5
1DD
330
1F
100
AcDbEntity
  8
0
  6
Continuous
 62
     7
370
    25
100
AcDbCircle
 10
-115.6296523445
 20
118.4582859571
 30
0.0
 40
2.349999999999987
100
AcDbArc
 50
239.3076923077
 51
29.3076923077
  0
LINE
  5
1DE
330
1F
100
AcDbEntity
  8
0
  6
Continuous
 62
     7
370
    25
100
AcDbLine
 10
-118.1443821482
 20
117.218156852
 30
0.0
 11
-116.8291569058
 21
116.4374720598
 31
0.0
  0
ARC
  5
1DF
330
1F
100
AcDbEntity
  8
0
  6
Continuous
 62
     7
370
    25
100
AcDbCircle
 10
-118.6548096211
 20
116.3582360447
 30
0.0
 40
0.9999999999999972
100
AcDbArc
 50
59.3076923077
 51
135.5598828977
  0
ARC
  5
1E0
330
1F
100
AcDbEntity
  8
0
  6
Continuous
 62
     7
370
    25
100
AcDbCircle
 10
0.0
 20
0.0
 30
0.0
 40
167.1872526448735
100
AcDbArc
 50
135.5598828977
 51
135.8247324869
  0
ARC
  5
1E1
330
1F
100
AcDbEntity
  8
0
  6
Continuous
 62
     7
370
    25
100
AcDbCircle
 10
-119.1914056688
 20
115.8085133155
 30
0.0
 40
0.9999999999999765
100
AcDbArc
 50
135.8247324869
 51
212.0769230769
  0
LINE
  5
1E2
330
1F
100
AcDbEntity
  8
0
  6
Continuous
 62
     7
370
    25
100
AcDbLine
 10
-119.2265039411
 20
113.9814790262
 30
0.0
 11
-120.038741552
 21
115.2774559729
 31
0.0
  0
ARC
  5
1E3
330
1F
100
AcDbEntity
  8
0
  6
Continuous
 62
     7
370
    25
100
AcDbCircle
 10
-121.2177432665
 20
112.7334942712
 30
0.0
 40
2.350000000000004
100
AcDbArc
 50
242.0769230769
 51
32.0769230769
  0
LINE
  5
1E4
330
1F
100
AcDbEntity
  8
0
  6
Continuous
 62
     7
370
    25
100
AcDbLine
 10
-123.6696216081
 20
111.3733182601
 30
0.0
 11
-122.3182147298
 21
110.657088107
 31
0.0
  0
ARC
  5
1E5
330
1F
100
AcDbEntity
  8
0
  6
Continuous
 62
     7
370
    25
100
AcDbCircle
 10
-124.1379073372
 20
110.489741169
 30
0.0
 40
1.000000000000009
100
AcDbArc
 50
62.0769230769
 51
138.329113667
  0
ARC
  5
1E6
330
1F
100
AcDbEntity
  8
0
  6
Continuous
 62
     7
370
    25
100
AcDbCircle
 10
0.0
 20
0.0
 30
0.0
 40
167.1872526448735
100
AcDbArc
 50
138.329113667
 51
138.5939632561
  0
ARC
  5
1E7
330
1F
100
AcDbEntity
  8
0
  6
Continuous
 62
     7
370
    25
100
AcDbCircle
 10
-124.6473177995
 20
109.9147356228
 30
0.0
 40
1.000000000000049
100
AcDbArc
 50
138.5939632561
 51
214.8461538462
  0
LINE
  5
1E8
330
1F
100
AcDbEntity
  8
0
  6
Continuous
 62
     7
370
    25
100
AcDbLine
 10
-124.594104884
 20
108.088139179
 30
0.0
 11
-125.4680070117
 21
109.3433607746
 31
0.0
  0
ARC
  5
1E9
330
1F
100
AcDbEntity
  8
0
  6
Continuous
 62
     7
370
    25
100
AcDbCircle
 10
-126.5227245324
 20
106.7454082858
 30
0.0
 40
2.35
100
AcDbArc
 50
244.8461538462
 51
34.8461538462
  0
LINE
  5
1EA
330
1F
100
AcDbEntity
  8
0
  6
Continuous
 62
     7
370
    25
100
AcDbLine
 10
-128.9060249365
 20
105.268362123
 30
0.0
 11
-127.5215926957
 21
104.6182593976
 31
0.0
  0
ARC
  5
1EB
330
1F
100
AcDbEntity
  8
0
  6
Continuous
 62
     7
370
    25
100
AcDbCircle
 10
-129.3310752187
 20
104.3631923833
 30
0.0
 40
1.000000000000001
100
AcDbArc
 50
64.8461538462
 51
141.0983444362
  0
ARC
  5
1EC
330
1F
100
AcDbEntity
  8
0
  6
Continuous
 62
     7
370
    25
100
AcDbCircle
 10
0.0
 20
0.0
 30
0.0
 40
167.1872526448735
100
AcDbArc
 50
141.0983444362
 51
141.3631940253
  0
ARC
  5
1ED
330
1F
100
AcDbEntity
  8
0
  6
Continuous
 62
     7
370
    25
100
AcDbCircle
 10
-129.812110344
 20
103.7642469721
 30
0.0
 40
1.000000000000017
100
AcDbArc
 50
141.3631940253
 51
217.6153846154
  0
LINE
  5
1EE
330
1F
100
AcDbEntity
  8
0
  6
Continuous
 62
     7
370
    25
100
AcDbLine
 10
-129.6707105218
 20
101.9423544744
 30
0.0
 11
-130.6042361274
 21
103.1538890908
 31
0.0
  0
ARC
  5
1EF
330
1F
100
AcDbEntity
  8
0
  6
Continuous
 62
     7
370
    25
100
AcDbCircle
 10
-131.5322061128
 20
100.5080134533
 30
0.0
 40
2.349999999999988
100
AcDbArc
 50
247.6153846154
 51
37.6153846154
  0
LINE
  5
1F0
330
1F
100
AcDbEntity
  8
0
  6
Continuous
 62
     7
370
    25
100
AcDbLine
 10
-133.8413622707
 20
98.9175468484
 30
0.0
 11
-132.427138073
 21
98.3350898958
 31
0.0
  0
ARC
  5
1F1
330
1F
100
AcDbEntity
  8
0
  6
Continuous
 62
     7
370
    25
100
AcDbCircle
 10
-134.2221843814
 20
97.9928985261
 30
0.0
 40
1.000000000000018
100
AcDbArc
 50
67.6153846154
 51
143.8675752054
  0
ARC
  5
1F2
330
1F
100
AcDbEntity
  8
0
  6
Continuous
 62
     7
370
    25
100
AcDbCircle
 10
0.0
 20
0.0
 30
0.0
 40
167.1872526448735
100
AcDbArc
 50
143.8675752054
 51
144.1324247946
  0
ARC
  5
1F3
330
1F
100
AcDbEntity
  8
0
  6
Continuous
 62
     7
370
    25
100
AcDbCircle
 10
-134.6737206898
 20
97.3714121147
 30
0.0
 40
1.000000000000027
100
AcDbArc
 50
144.1324247946
 51
220.3846153846
  0
LINE
  5
1F4
330
1F
100
AcDbEntity
  8
0
  6
Continuous
 62
     7
370
    25
100
AcDbLine
 10
-134.4444642069
 20
95.5584786774
 30
0.0
 11
-135.435432998
 21
96.7234967193
 31
0.0
  0
ARC
  5
1F5
330
1F
100
AcDbEntity
  8
0
  6
Continuous
 62
     7
370
    25
100
AcDbCircle
 10
-136.2344881311
 20
94.0358774983
 30
0.0
 40
2.349999999999998
100
AcDbArc
 50
250.3846153846
 51
40.3846153846
  0
LINE
  5
1F6
330
1F
100
AcDbEntity
  8
0
  6
Continuous
 62
     7
370
    25
100
AcDbLine
 10
-138.4641069017
 20
92.3357050598
 30
0.0
 11
-137.0233937333
 21
91.8222542352
 31
0.0
  0
ARC
  5
1F7
330
1F
100
AcDbEntity
  8
0
  6
Continuous
 62
     7
370
    25
100
AcDbCircle
 10
-138.7998114133
 20
91.3937377138
 30
0.0
 40
1.000000000000007
100
AcDbArc
 50
70.3846153846
 51
146.6368059747
  0
ARC
  5
1F8
330
1F
100
AcDbEntity
  8
0
  6
Continuous
 62
     7
370
    25
100
AcDbCircle
 10
0.0
 20
0.0
 30
0.0
 40
167.1872526448735
100
AcDbArc
 50
146.6368059747
 51
146.9016555638
  0
ARC
  5
1F9
330
1F
100
AcDbEntity
  8
0
  6
Continuous
 62
     7
370
    25
100
AcDbCircle
 10
-139.2207943209
 20
90.7511618125
 30
0.0
 40
1.000000000000043
100
AcDbArc
 50
146.9016555638
 51
223.1538461538
  0
LINE
  5
1FA
330
1F
100
AcDbEntity
  8
0
  6
Continuous
 62
     7
370
    25
100
AcDbLine
 10
-138.9042166163
 20
88.9514216258
 30
0.0
 11
-139.9503141394
 21
90.0672021395
 31
0.0
  0
ARC
  5
1FB
330
1F
100
AcDbEntity
  8
0
  6
Continuous
 62
     7
370
    25
100
AcDbCircle
 10
-140.6185881899
 20
87.3441163942
 30
0.0
 40
2.349999999999998
100
AcDbArc
 50
253.1538461538
 51
43.1538461538
  0
LINE
  5
1FC
330
1F
100
AcDbEntity
  8
0
  6
Continuous
 62
     7
370
    25
100
AcDbLine
 10
-142.7634621953
 20
85.5382089536
 30
0.0
 11
-141.2996249085
 21
85.0949634452
 31
0.0
  0
ARC
  5
1FD
330
1F
100
AcDbEntity
  8
0
  6
Continuous
 62
     7
370
    25
100
AcDbCircle
 10
-143.0532650542
 20
84.5811225923
 30
0.0
 40
1.00000000000002
100
AcDbArc
 50
73.1538461538
 51
149.4060367439
  0
ARC
  5
1FE
330
1F
100
AcDbEntity
  8
0
  6
Continuous
 62
     7
370
    25
100
AcDbCircle
 10
0.0
 20
0.0
 30
0.0
 40
167.1872526448735
100
AcDbArc
 50
149.4060367439
 51
149.670886333
  0
ARC
  5
1FF
330
1F
100
AcDbEntity
  8
0
  6
Continuous
 62
     7
370
    25
100
AcDbCircle
 10
-143.4427113359
 20
83.918957967
 30
0.0
 40
0.9999999999999996
100
AcDbArc
 50
149.670886333
 51
225.9230769231
  0
LINE
  5
200
330
1F
100
AcDbEntity
  8
0
  6
Continuous
 62
     7
370
    25
100
AcDbLine
 10
-143.0395517916
 20
82.1366144073
 30
0.0
 11
-144.1383348375
 21
83.2005514358
 31
0.0
  0
ARC
  5
201
330
1F
100
AcDbEntity
  8
0
  6
Continuous
 62
     7
370
    25
100
AcDbCircle
 10
-144.6742670204
 20
80.4483590592
 30
0.0
 40
2.349999999999997
100
AcDbArc
 50
255.9230769231
 51
45.9230769231
  0
LINE
  5
202
330
1F
100
AcDbEntity
  8
0
  6
Continuous
 62
     7
370
    25
100
AcDbLine
 10
-146.7293868079
 20
78.5409343969
 30
0.0
 11
-145.2458442625
 21
78.1689294252
 31
0.0
  0
ARC
  5
203
330
1F
100
AcDbEntity
  8
0
  6
Continuous
 62
     7
370
    25
100
AcDbCircle
 10
-146.9726111663
 20
77.5709643399
 30
0.0
 40
1.000000000000007
100
AcDbArc
 50
75.9230769231
 51
152.1752675131
  0
ARC
  5
204
330
1F
100
AcDbEntity
  8
0
  6
Continuous
 62
     7
370
    25
100
AcDbCircle
 10
0.0
 20
0.0
 30
0.0
 40
167.1872526448735
100
AcDbArc
 50
152.1752675131
 51
152.4401171023
  0
ARC
  5
205
330
1F
100
AcDbEntity
  8
0
  6
Continuous
 62
     7
370
    25
100
AcDbCircle
 10
-147.3296112521
 20
76.8907575066
 30
0.0
 40
0.9999999999999821
100
AcDbArc
 50
152.4401171023
 51
228.6923076923
  0
LINE
  5
206
330
1F
100
AcDbEntity
  8
0
  6
Continuous
 62
     7
370
    25
100
AcDbLine
 10
-146.8408114659
 20
75.12997332
 30
0.0
 11
-147.9897137759
 21
76.1395819892
 31
0.0
  0
ARC
  5
207
330
1F
100
AcDbEntity
  8
0
  6
Continuous
 62
     7
370
    25
100
AcDbCircle
 10
-148.3920523968
 20
73.3647108539
 30
0.0
 40
2.349999999999993
100
AcDbArc
 50
258.6923076923
 51
48.6923076923
  0
LINE
  5
208
330
1F
100
AcDbEntity
  8
0
  6
Continuous
 62
     7
370
    25
100
AcDbLine
 10
-150.3526181389
 20
71.3602238488
 30
0.0
 11
-148.8528352173
 21
71.0603282485
 31
0.0
  0
ARC
  5
209
330
1F
100
AcDbEntity
  8
0
  6
Continuous
 62
     7
370
    25
100
AcDbCircle
 10
-150.5486959349
 20
70.379635506
 30
0.0
 40
0.9999999999999967
100
AcDbArc
 50
78.6923076923
 51
154.9444982823
  0
ARC
  5
20A
330
1F
100
AcDbEntity
  8
0
  6
Continuous
 62
     7
370
    25
100
AcDbCircle
 10
0.0
 20
0.0
 30
0.0
 40
167.1872526448736
100
AcDbArc
 50
154.9444982823
 51
155.2093478715
  0
ARC
  5
20B
330
1F
100
AcDbEntity
  8
0
  6
Continuous
 62
     7
370
    25
100
AcDbCircle
 10
-150.8724160347
 20
69.6829751194
 30
0.0
 40
0.9999999999999833
100
AcDbArc
 50
155.2093478715
 51
231.4615384615
  0
LINE
  5
20C
330
1F
100
AcDbEntity
  8
0
  6
Continuous
 62
     7
370
    25
100
AcDbLine
 10
-150.2991176211
 20
67.9478626989
 30
0.0
 11
-151.4954558807
 21
68.9007850208
 31
0.0
  0
ARC
  5
20D
330
1F
100
AcDbEntity
  8
0
  6
Continuous
 62
     7
370
    25
100
AcDbCircle
 10
-151.763261259
 20
66.1097159671
 30
0.0
 40
2.350000000000026
100
AcDbArc
 50
261.4615384615
 51
51.4615384615
  0
LINE
  5
20E
330
1F
100
AcDbEntity
  8
0
  6
Continuous
 62
     7
370
    25
100
AcDbLine
 10
-153.6246939636
 20
64.0128481913
 30
0.0
 11
-152.1121734783
 21
63.7857623826
 31
0.0
  0
ARC
  5
20F
330
1F
100
AcDbEntity
  8
0
  6
Continuous
 62
     7
370
    25
100
AcDbCircle
 10
-153.7731672484
 20
63.0239317724
 30
0.0
 40
1.000000000000001
100
AcDbArc
 50
81.4615384615
 51
157.7137290516
  0
ARC
  5
210
330
1F
100
AcDbEntity
  8
0
  6
Continuous
 62
     7
370
    25
100
AcDbCircle
 10
0.0
 20
0.0
 30
0.0
 40
167.1872526448736
100
AcDbArc
 50
157.7137290516
 51
157.9785786407
  0
ARC
  5
211
330
1F
100
AcDbEntity
  8
0
  6
Continuous
 62
     7
370
    25
100
AcDbCircle
 10
-154.062851299
 20
62.312444915
 30
0.0
 40
1.000000000000007
100
AcDbArc
 50
157.9785786407
 51
234.2307692308
  0
LINE
  5
212
330
1F
100
AcDbEntity
  8
0
  6
Continuous
 62
     7
370
    25
100
AcDbLine
 10
-153.4063932229
 20
60.6070566961
 30
0.0
 11
-154.6473733286
 21
61.5010670764
 31
0.0
  0
ARC
  5
213
330
1F
100
AcDbEntity
  8
0
  6
Continuous
 62
     7
370
    25
100
AcDbCircle
 10
-154.7800199925
 20
58.7003187755
 30
0.0
 40
2.350000000000016
100
AcDbArc
 50
264.2307692308
 51
54.2307692308
  0
LINE
  5
214
330
1F
100
AcDbEntity
  8
0
  6
Continuous
 62
     7
370
    25
100
AcDbLine
 10
-156.5379721972
 20
56.5159675609
 30
0.0
 11
-155.0162467099
 21
56.3622219131
 31
0.0
  0
ARC
  5
215
330
1F
100
AcDbEntity
  8
0
  6
Continuous
 62
     7
370
    25
100
AcDbCircle
 10
-156.6384942047
 20
55.5210327258
 30
0.0
 40
1.000000000000004
100
AcDbArc
 50
84.2307692308
 51
160.4829598208
  0
ARC
  5
216
330
1F
100
AcDbEntity
  8
0
  6
Continuous
 62
     7
370
    25
100
AcDbCircle
 10
0.0
 20
0.0
 30
0.0
 40
167.1872526448736
100
AcDbArc
 50
160.4829598208
 51
160.74780941
  0
ARC
  5
217
330
1F
100
AcDbEntity
  8
0
  6
Continuous
 62
     7
370
    25
100
AcDbCircle
 10
-156.8934656354
 20
54.7963811082
 30
0.0
 40
1.000000000000011
100
AcDbArc
 50
160.74780941
 51
237.0
  0
LINE
  5
218
330
1F
100
AcDbEntity
  8
0
  6
Continuous
 62
     7
370
    25
100
AcDbLine
 10
-156.1553810852
 20
53.1247001041
 30
0.0
 11
-157.4381046704
 21
53.9577105403
 31
0.0
  0
ARC
  5
219
330
1F
100
AcDbEntity
  8
0
  6
Continuous
 62
     7
370
    25
100
AcDbCircle
 10
-157.4352828175
 20
51.1538242694
 30
0.0
 40
2.350000000000012
100
AcDbArc
 50
267.0
 51
57.0
  0
LINE
  5
21A
330
1F
100
AcDbEntity
  8
0
  6
Continuous
 62
     7
370
    25
100
AcDbLine
 10
-159.0856487436
 20
48.8870912695
 30
0.0
 11
-157.5582723147
 21
48.8070448627
 31
0.0
  0
ARC
  5
21B
330
1F
100
AcDbEntity
  8
0
  6
Continuous
 62
     7
370
    25
100
AcDbCircle
 10
-159.1379846999
 20
47.8884617347
 30
0.0
 40
1.000000000000023
100
AcDbArc
 50
87.0
 51
163.25219059
  0
ARC
  5
21C
330
1F
100
AcDbEntity
  8
0
  6
Continuous
 62
     7
370
    25
100
AcDbCircle
 10
0.0
 20
0.0
 30
0.0
 40
167.1872526448735
100
AcDbArc
 50
163.25219059
 51
163.5170401792
  0
ARC
  5
21D
330
1F
100
AcDbEntity
  8
0
  6
Continuous
 62
     7
370
    25
100
AcDbCircle
 10
-159.3576480132
 20
47.1523378144
 30
0.0
 40
1.000000000000002
100
AcDbArc
 50
163.5170401792
 51
239.7692307692
  0
LINE
  5
21E
330
1F
100
AcDbEntity
  8
0
  6
Continuous
 62
     7
370
    25
100
AcDbLine
 10
-158.5396608195
 20
45.5182683134
 30
0.0
 11
-159.8611320239
 21
46.288333271
 31
0.0
  0
ARC
  5
21F
330
1F
100
AcDbEntity
  8
0
  6
Continuous
 62
     7
370
    25
100
AcDbCircle
 10
-159.7228482447
 20
43.4878576365
 30
0.0
 40
2.349999999999993
100
AcDbArc
 50
269.7692307692
 51
59.7692307692
  0
LINE
  5
220
330
1F
100
AcDbEntity
  8
0
  6
Continuous
 62
     7
370
    25
100
AcDbLine
 10
-161.261773386
 20
41.1440369113
 30
0.0
 11
-159.7323132739
 21
41.1378766976
 31
0.0
  0
ARC
  5
221
330
1F
100
AcDbEntity
  8
0
  6
Continuous
 62
     7
370
    25
100
AcDbCircle
 10
-161.265801058
 20
40.1440450224
 30
0.0
 40
1.000000000000024
100
AcDbArc
 50
89.7692307692
 51
166.0214213593
  0
ARC
  5
222
330
1F
100
AcDbEntity
  8
0
  6
Continuous
 62
     7
370
    25
100
AcDbCircle
 10
0.0
 20
0.0
 30
0.0
 40
167.1872526448735
100
AcDbArc
 50
166.0214213593
 51
166.2862709484
  0
ARC
  5
223
330
1F
100
AcDbEntity
  8
0
  6
Continuous
 62
     7
370
    25
100
AcDbCircle
 10
-161.4496432201
 20
39.3981680507
 30
0.0
 40
0.9999999999999685
100
AcDbArc
 50
166.2862709484
 51
242.5384615385
  0
LINE
  5
224
330
1F
100
AcDbEntity
  8
0
  6
Continuous
 62
     7
370
    25
100
AcDbLine
 10
-160.55366383
 20
37.805526498
 30
0.0
 11
-161.9107962963
 21
38.5108474546
 31
0.0
  0
ARC
  5
225
330
1F
100
AcDbEntity
  8
0
  6
Continuous
 62
     7
370
    25
100
AcDbCircle
 10
-161.637373559
 20
35.7203230971
 30
0.0
 40
2.349999999999991
100
AcDbArc
 50
272.5384615385
 51
62.5384615385
  0
LINE
  5
226
330
1F
100
AcDbEntity
  8
0
  6
Continuous
 62
     7
370
    25
100
AcDbLine
 10
-163.0612636846
 20
33.3048887484
 30
0.0
 11
-161.5332920142
 21
33.3726291154
 31
0.0
  0
ARC
  5
227
330
1F
100
AcDbEntity
  8
0
  6
Continuous
 62
     7
370
    25
100
AcDbCircle
 10
-163.0169736656
 20
32.3058700327
 30
0.0
 40
1.000000000000009
100
AcDbArc
 50
92.5384615385
 51
168.7906521285
  0
ARC
  5
228
330
1F
100
AcDbEntity
  8
0
  6
Continuous
 62
     7
370
    25
100
AcDbCircle
 10
0.0
 20
0.0
 30
0.0
 40
167.1872526448735
100
AcDbArc
 50
168.7906521285
 51
169.0555017177
  0
ARC
  5
229
330
1F
100
AcDbEntity
  8
0
  6
Continuous
 62
     7
370
    25
100
AcDbCircle
 10
-163.1645653045
 20
31.5519820401
 30
0.0
 40
0.9999999999999908
100
AcDbArc
 50
169.0555017177
 51
245.3076923077
  0
LINE
  5
22A
330
1F
100
AcDbEntity
  8
0
  6
Continuous
 62
     7
370
    25
100
AcDbLine
 10
-162.1926863192
 20
30.0044881238
 30
0.0
 11
-163.5823104017
 21
30.6434177695
 31
0.0
  0
ARC
  5
22B
330
1F
100
AcDbEntity
  8
0
  6
Continuous
 62
     7
370
    25
100
AcDbCircle
 10
-163.1743872978
 20
27.869362088
 30
0.0
 40
2.350000000000003
100
AcDbArc
 50
275.3076923077
 51
65.3076923077
  0
LINE
  5
22C
330
1F
100
AcDbEntity
  8
0
  6
Continuous
 62
     7
370
    25
100
AcDbLine
 10
-164.4799168464
 20
25.3879554747
 30
0.0
 11
-162.9570022663
 21
25.5294382115
 31
0.0
  0
ARC
  5
22D
330
1F
100
AcDbEntity
  8
0
  6
Continuous
 62
     7
370
    25
100
AcDbCircle
 10
-164.3874125776
 20
24.3922431868
 30
0.0
 40
1.000000000000009
100
AcDbArc
 50
95.3076923077
 51
171.5598828977
  0
ARC
  5
22E
330
1F
100
AcDbEntity
  8
0
  6
Continuous
 62
     7
370
    25
100
AcDbCircle
 10
0.0
 20
0.0
 30
0.0
 40
167.1872526448735
100
AcDbArc
 50
171.5598828977
 51
171.8247324869
  0
ARC
  5
22F
330
1F
100
AcDbEntity
  8
0
  6
Continuous
 62
     7
370
    25
100
AcDbCircle
 10
-164.4984089863
 20
23.6321049134
 30
0.0
 40
0.9999999999999816
100
AcDbArc
 50
171.8247324869
 51
248.0769230769
  0
LINE
  5
230
330
1F
100
AcDbEntity
  8
0
  6
Continuous
 62
     7
370
    25
100
AcDbLine
 10
-163.4529002743
 20
22.1333728772
 30
0.0
 11
-164.8717704416
 21
22.7044189624
 31
0.0
  0
ARC
  5
231
330
1F
100
AcDbEntity
  8
0
  6
Continuous
 62
     7
370
    25
100
AcDbCircle
 10
-164.3302996944
 20
19.9533108924
 30
0.0
 40
2.349999999999997
100
AcDbArc
 50
278.0769230769
 51
68.0769230769
  0
LINE
  5
232
330
1F
100
AcDbEntity
  8
0
  6
Continuous
 62
     7
370
    25
100
AcDbLine
 10
-165.5144195411
 20
17.4117274545
 30
0.0
 11
-164.000118889
 21
17.6266221217
 31
0.0
  0
ARC
  5
233
330
1F
100
AcDbEntity
  8
0
  6
Continuous
 62
     7
370
    25
100
AcDbCircle
 10
-165.3739170707
 20
16.4216471266
 30
0.0
 40
1.000000000000034
100
AcDbArc
 50
98.0769230769
 51
174.329113667
  0
ARC
  5
234
330
1F
100
AcDbEntity
  8
0
  6
Continuous
 62
     7
370
    25
100
AcDbCircle
 10
0.0
 20
0.0
 30
0.0
 40
167.1872526448735
100
AcDbArc
 50
174.329113667
 51
174.5939632561
  0
ARC
  5
235
330
1F
100
AcDbEntity
  8
0
  6
Continuous
 62
     7
370
    25
100
AcDbCircle
 10
-165.4480590118
 20
15.6570339107
 30
0.0
 40
1.000000000000019
100
AcDbArc
 50
174.5939632561
 51
250.8461538462
  0
LINE
  5
236
330
1F
100
AcDbEntity
  8
0
  6
Continuous
 62
     7
370
    25
100
AcDbLine
 10
-164.3313624072
 20
14.2105641128
 30
0.0
 11
-165.7761648222
 21
14.7123929328
 31
0.0
  0
ARC
  5
237
330
1F
100
AcDbEntity
  8
0
  6
Continuous
 62
     7
370
    25
100
AcDbCircle
 10
-165.1024110617
 20
11.9906578147
 30
0.0
 40
2.350000000000001
100
AcDbArc
 50
280.8461538462
 51
70.8461538462
  0
LINE
  5
238
330
1F
100
AcDbEntity
  8
0
  6
Continuous
 62
     7
370
    25
100
AcDbLine
 10
-166.1623556398
 20
9.3948335382
 30
0.0
 11
-164.660205635
 21
9.6826382392
 31
0.0
  0
ARC
  5
239
330
1F
100
AcDbEntity
  8
0
  6
Continuous
 62
     7
370
    25
100
AcDbCircle
 10
-165.9741831178
 20
8.4126975486
 30
0.0
 40
1.000000000000012
100
AcDbArc
 50
100.8461538462
 51
177.0983444362
  0
ARC
  5
23A
330
1F
100
AcDbEntity
  8
0
  6
Continuous
 62
     7
370
    25
100
AcDbCircle
 10
0.0
 20
0.0
 30
0.0
 40
167.1872526448735
100
AcDbArc
 50
177.0983444362
 51
177.3631940253
  0
ARC
  5
23B
330
1F
100
AcDbEntity
  8
0
  6
Continuous
 62
     7
370
    25
100
AcDbCircle
 10
-166.0112974294
 20
7.6453951798
 30
0.0
 40
0.9999999999999758
100
AcDbArc
 50
177.3631940253
 51
253.6153846154
  0
LINE
  5
23C
330
1F
100
AcDbEntity
  8
0
  6
Continuous
 62
     7
370
    25
100
AcDbLine
 10
-164.8260210289
 20
6.2545659174
 30
0.0
 11
-166.2933812886
 21
6.6860054277
 31
0.0
  0
ARC
  5
23D
330
1F
100
AcDbEntity
  8
0
  6
Continuous
 62
     7
370
    25
100
AcDbCircle
 10
-165.4889180979
 20
4.0
 30
0.0
 40
2.35
100
AcDbArc
 50
283.6153846154
 51
73.6153846154
  0
LINE
  5
23E
330
1F
100
AcDbEntity
  8
0
  6
Continuous
 62
     7
370
    25
100
AcDbLine
 10
-166.4222118577
 20
1.3559975528
 30
0.0
 11
-164.9357208411
 21
1.7160401065
 31
0.0
  0
ARC
  5
23F
330
1F
100
AcDbEntity
  8
0
  6
Continuous
 62
     7
370
    25
100
AcDbCircle
 10
-166.1868087697
 20
0.3840997258
 30
0.0
 40
1.000000000000024
100
AcDbArc
 50
103.6153846154
 51
179.8675752054
  0
ARC
  5
240
330
1F
100
AcDbEntity
  8
0
  6
Continuous
 62
     7
370
    25
100
AcDbCircle
 10
0.0
 20
0.0
 30
0.0
 40
167.1872526448735
100
AcDbArc
 50
179.8675752054
 51
180.1324247946
  0
ARC
  5
241
330
1F
100
AcDbEntity
  8
0
  6
Continuous
 62
     7
370
    25
100
AcDbCircle
 10
-166.1868087697
 20
-0.3840997258
 30
0.0
 40
0.9999999999999961
100
AcDbArc
 50
180.1324247946
 51
256.3846153846
  0
LINE
  5
242
330
1F
100
AcDbEntity
  8
0
  6
Continuous
 62
     7
370
    25
100
AcDbLine
 10
-164.9357208411
 20
-1.7160401065
 30
0.0
 11
-166.4222118577
 21
-1.3559975528
 31
0.0
  0
ARC
  5
243
330
1F
100
AcDbEntity
  8
0
  6
Continuous
 62
     7
370
    25
100
AcDbCircle
 10
-165.4889180979
 20
-4.0
 30
0.0
 40
2.349999999999981
100
AcDbArc
 50
286.3846153846
 51
76.3846153846
  0
LINE
  5
244
330
1F
100
AcDbEntity
  8
0
  6
Continuous
 62
     7
370
    25
100
AcDbLine
 10
-166.2933812886
 20
-6.6860054277
 30
0.0
 11
-164.8260210289
 21
-6.2545659174
 31
0.0
  0
ARC
  5
245
330
1F
100
AcDbEntity
  8
0
  6
Continuous
 62
     7
370
    25
100
AcDbCircle
 10
-166.0112974294
 20
-7.6453951798
 30
0.0
 40
1.000000000000043
100
AcDbArc
 50
106.3846153846
 51
182.6368059747
  0
ARC
  5
246
330
1F
100
AcDbEntity
  8
0
  6
Continuous
 62
     7
370
    25
100
AcDbCircle
 10
0.0
 20
0.0
 30
0.0
 40
167.1872526448736
100
AcDbArc
 50
182.6368059747
 51
182.9016555638
  0
ARC
  5
247
330
1F
100
AcDbEntity
  8
0
  6
Continuous
 62
     7
370
    25
100
AcDbCircle
 10
-165.9741831178
 20
-8.4126975486
 30
0.0
 40
1.000000000000044
100
AcDbArc
 50
182.9016555638
 51
259.1538461538
  0
LINE
  5
248
330
1F
100
AcDbEntity
  8
0
  6
Continuous
 62
     7
370
    25
100
AcDbLine
 10
-164.660205635
 20
-9.6826382392
 30
0.0
 11
-166.1623556398
 21
-9.3948335382
 31
0.0
  0
ARC
  5
249
330
1F
100
AcDbEntity
  8
0
  6
Continuous
 62
     7
370
    25
100
AcDbCircle
 10
-165.1024110617
 20
-11.9906578147
 30
0.0
 40
2.349999999999996
100
AcDbArc
 50
289.1538461538
 51
79.1538461538
  0
LINE
  5
24A
330
1F
100
AcDbEntity
  8
0
  6
Continuous
 62
     7
370
    25
100
AcDbLine
 10
-165.7761648222
 20
-14.7123929328
 30
0.0
 11
-164.3313624072
 21
-14.2105641128
 31
0.0
  0
ARC
  5
24B
330
1F
100
AcDbEntity
  8
0
  6
Continuous
 62
     7
370
    25
100
AcDbCircle
 10
-165.4480590118
 20
-15.6570339107
 30
0.0
 40
1.000000000000024
100
AcDbArc
 50
109.1538461538
 51
185.4060367439
  0
ARC
  5
24C
330
1F
100
AcDbEntity
  8
0
  6
Continuous
 62
     7
370
    25
100
AcDbCircle
 10
0.0
 20
0.0
 30
0.0
 40
167.1872526448735
100
AcDbArc
 50
185.4060367439
 51
185.670886333
  0
ARC
  5
24D
330
1F
100
AcDbEntity
  8
0
  6
Continuous
 62
     7
370
    25
100
AcDbCircle
 10
-165.3739170707
 20
-16.4216471266
 30
0.0
 40
1.000000000000023
100
AcDbArc
 50
185.670886333
 51
261.9230769231
  0
LINE
  5
24E
330
1F
100
AcDbEntity
  8
0
  6
Continuous
 62
     7
370
    25
100
AcDbLine
 10
-164.000118889
 20
-17.6266221217
 30
0.0
 11
-165.5144195411
 21
-17.4117274545
 31
0.0
  0
ARC
  5
24F
330
1F
100
AcDbEntity
  8
0
  6
Continuous
 62
     7
370
    25
100
AcDbCircle
 10
-164.3302996944
 20
-19.9533108924
 30
0.0
 40
2.350000000000012
100
AcDbArc
 50
291.9230769231
 51
81.9230769231
  0
LINE
  5
250
330
1F
100
AcDbEntity
  8
0
  6
Continuous
 62
     7
370
    25
100
AcDbLine
 10
-164.8717704416
 20
-22.7044189624
 30
0.0
 11
-163.4529002743
 21
-22.1333728772
 31
0.0
  0
ARC
  5
251
330
1F
100
AcDbEntity
  8
0
  6
Continuous
 62
     7
370
    25
100
AcDbCircle
 10
-164.4984089863
 20
-23.6321049134
 30
0.0
 40
0.9999999999999929
100
AcDbArc
 50
111.9230769231
 51
188.1752675131
  0
ARC
  5
252
330
1F
100
AcDbEntity
  8
0
  6
Continuous
 62
     7
370
    25
100
AcDbCircle
 10
0.0
 20
0.0
 30
0.0
 40
167.1872526448736
100
AcDbArc
 50
188.1752675131
 51
188.4401171023
  0
ARC
  5
253
330
1F
100
AcDbEntity
  8
0
  6
Continuous
 62
     7
370
    25
100
AcDbCircle
 10
-164.3874125776
 20
-24.3922431868
 30
0.0
 40
1.000000000000007
100
AcDbArc
 50
188.4401171023
 51
264.6923076923
  0
LINE
  5
254
330
1F
100
AcDbEntity
  8
0
  6
Continuous
 62
     7
370
    25
100
AcDbLine
 10
-162.9570022663
 20
-25.5294382115
 30
0.0
 11
-164.4799168464
 21
-25.3879554747
 31
0.0
  0
ARC
  5
255
330
1F
100
AcDbEntity
  8
0
  6
Continuous
 62
     7
370
    25
100
AcDbCircle
 10
-163.1743872978
 20
-27.869362088
 30
0.0
 40
2.350000000000005
100
AcDbArc
 50
294.6923076923
 51
84.6923076923
  0
LINE
  5
256
330
1F
100
AcDbEntity
  8
0
  6
Continuous
 62
     7
370
    25
100
AcDbLine
 10
-163.5823104017
 20
-30.6434177695
 30
0.0
 11
-162.1926863192
 21
-30.0044881238
 31
0.0
  0
ARC
  5
257
330
1F
100
AcDbEntity
  8
0
  6
Continuous
 62
     7
370
    25
100
AcDbCircle
 10
-163.1645653045
 20
-31.5519820401
 30
0.0
 40
0.9999999999999895
100
AcDbArc
 50
114.6923076923
 51
190.9444982823
  0
ARC
  5
258
330
1F
100
AcDbEntity
  8
0
  6
Continuous
 62
     7
370
    25
100
AcDbCircle
 10
0.0
 20
0.0
 30
0.0
 40
167.1872526448736
100
AcDbArc
 50
190.9444982823
 51
191.2093478715
  0
ARC
  5
259
330
1F
100
AcDbEntity
  8
0
  6
Continuous
 62
     7
370
    25
100
AcDbCircle
 10
-163.0169736656
 20
-32.3058700327
 30
0.0
 40
1.000000000000001
100
AcDbArc
 50
191.2093478715
 51
267.4615384615
  0
LINE
  5
25A
330
1F
100
AcDbEntity
  8
0
  6
Continuous
 62
     7
370
    25
100
AcDbLine
 10
-161.5332920142
 20
-33.3726291154
 30
0.0
 11
-163.0612636846
 21
-33.3048887484
 31
0.0
  0
ARC
  5
25B
330
1F
100
AcDbEntity
  8
0
  6
Continuous
 62
     7
370
    25
100
AcDbCircle
 10
-161.637373559
 20
-35.7203230971
 30
0.0
 40
2.35
100
AcDbArc
 50
297.4615384615
 51
87.4615384615
  0
LINE
  5
25C
330
1F
100
AcDbEntity
  8
0
  6
Continuous
 62
     7
370
    25
100
AcDbLine
 10
-161.9107962963
 20
-38.5108474546
 30
0.0
 11
-160.55366383
 21
-37.805526498
 31
0.0
  0
ARC
  5
25D
330
1F
100
AcDbEntity
  8
0
  6
Continuous
 62
     7
370
    25
100
AcDbCircle
 10
-161.4496432201
 20
-39.3981680507
 30
0.0
 40
0.9999999999999869
100
AcDbArc
 50
117.4615384615
 51
193.7137290516
  0
ARC
  5
25E
330
1F
100
AcDbEntity
  8
0
  6
Continuous
 62
     7
370
    25
100
AcDbCircle
 10
0.0
 20
0.0
 30
0.0
 40
167.1872526448735
100
AcDbArc
 50
193.7137290516
 51
193.9785786407
  0
ARC
  5
25F
330
1F
100
AcDbEntity
  8
0
  6
Continuous
 62
     7
370
    25
100
AcDbCircle
 10
-161.265801058
 20
-40.1440450224
 30
0.0
 40
0.9999999999999959
100
AcDbArc
 50
193.9785786407
 51
270.2307692308
  0
LINE
  5
260
330
1F
100
AcDbEntity
  8
0
  6
Continuous
 62
     7
370
    25
100
AcDbLine
 10
-159.7323132739
 20
-41.1378766976
 30
0.0
 11
-161.261773386
 21
-41.1440369113
 31
0.0
  0
ARC
  5
261
330
1F
100
AcDbEntity
  8
0
  6
Continuous
 62
     7
370
    25
100
AcDbCircle
 10
-159.7228482447
 20
-43.4878576365
 30
0.0
 40
2.349999999999974
100
AcDbArc
 50
300.2307692308
 51
90.2307692308
  0
LINE
  5
262
330
1F
100
AcDbEntity
  8
0
  6
Continuous
 62
     7
370
    25
100
AcDbLine
 10
-159.8611320239
 20
-46.288333271
 30
0.0
 11
-158.5396608195
 21
-45.5182683134
 31
0.0
  0
ARC
  5
263
330
1F
100
AcDbEntity
  8
0
  6
Continuous
 62
     7
370
    25
100
AcDbCircle
 10
-159.3576480132
 20
-47.1523378144
 30
0.0
 40
1.000000000000049
100
AcDbArc
 50
120.2307692308
 51
196.4829598208
  0
ARC
  5
264
330
1F
100
AcDbEntity
  8
0
  6
Continuous
 62
     7
370
    25
100
AcDbCircle
 10
0.0
 20
0.0
 30
0.0
 40
167.1872526448736
100
AcDbArc
 50
196.4829598208
 51
196.74780941
  0
ARC
  5
265
330
1F
100
AcDbEntity
  8
0
  6
Continuous
 62
     7
370
    25
100
AcDbCircle
 10
-159.1379846999
 20
-47.8884617347
 30
0.0
 40
1.000000000000038
100
AcDbArc
 50
196.74780941
 51
273.0
  0
LINE
  5
266
330
1F
100
AcDbEntity
  8
0
  6
Continuous
 62
     7
370
    25
100
AcDbLine
 10
-157.5582723147
 20
-48.8070448627
 30
0.0
 11
-159.0856487436
 21
-48.8870912695
 31
0.0
  0
ARC
  5
267
330
1F
100
AcDbEntity
  8
0
  6
Continuous
 62
     7
370
    25
100
AcDbCircle
 10
-157.4352828175
 20
-51.1538242694
 30
0.0
 40
2.349999999999988
100
AcDbArc
 50
303.0
 51
93.0
  0
LINE
  5
268
330
1F
100
AcDbEntity
  8
0
  6
Continuous
 62
     7
370
    25
100
AcDbLine
 10
-157.4381046704
 20
-53.9577105403
 30
0.0
 11
-156.1553810852
 21
-53.1247001041
 31
0.0
  0
ARC
  5
269
330
1F
100
AcDbEntity
  8
0
  6
Continuous
 62
     7
370
    25
100
AcDbCircle
 10
-156.8934656354
 20
-54.7963811082
 30
0.0
 40
1.000000000000044
100
AcDbArc
 50
123.0
 51
199.25219059
  0
ARC
  5
26A
330
1F
100
AcDbEntity
  8
0
  6
Continuous
 62
     7
370
    25
100
AcDbCircle
 10
0.0
 20
0.0
 30
0.0
 40
167.1872526448736
100
AcDbArc
 50
199.25219059
 51
199.5170401792
  0
ARC
  5
26B
330
1F
100
AcDbEntity
  8
0
  6
Continuous
 62
     7
370
    25
100
AcDbCircle
 10
-156.6384942047
 20
-55.5210327258
 30
0.0
 40
1.000000000000012
100
AcDbArc
 50
199.5170401792
 51
275.7692307692
  0
LINE
  5
26C
330
1F
100
AcDbEntity
  8
0
  6
Continuous
 62
     7
370
    25
100
AcDbLine
 10
-155.0162467099
 20
-56.3622219131
 30
0.0
 11
-156.5379721972
 21
-56.5159675609
 31
0.0
  0
ARC
  5
26D
330
1F
100
AcDbEntity
  8
0
  6
Continuous
 62
     7
370
    25
100
AcDbCircle
 10
-154.7800199925
 20
-58.7003187755
 30
0.0
 40
2.350000000000016
100
AcDbArc
 50
305.7692307692
 51
95.7692307692
  0
LINE
  5
26E
330
1F
100
AcDbEntity
  8
0
  6
Continuous
 62
     7
370
    25
100
AcDbLine
 10
-154.6473733286
 20
-61.5010670765
 30
0.0
 11
-153.4063932229
 21
-60.6070566961
 31
0.0
  0
ARC
  5
26F
330
1F
100
AcDbEntity
  8
0
  6
Continuous
 62
     7
370
    25
100
AcDbCircle
 10
-154.062851299
 20
-62.312444915
 30
0.0
 40
1.00000000000003
100
AcDbArc
 50
125.7692307692
 51
202.0214213593
  0
ARC
  5
270
330
1F
100
AcDbEntity
  8
0
  6
Continuous
 62
     7
370
    25
100
AcDbCircle
 10
0.0
 20
0.0
 30
0.0
 40
167.1872526448735
100
AcDbArc
 50
202.0214213593
 51
202.2862709484
  0
ARC
  5
271
330
1F
100
AcDbEntity
  8
0
  6
Continuous
 62
     7
370
    25
100
AcDbCircle
 10
-153.7731672484
 20
-63.0239317724
 30
0.0
 40
0.9999999999999963
100
AcDbArc
 50
202.2862709484
 51
278.5384615385
  0
LINE
  5
272
330
1F
100
AcDbEntity
  8
0
  6
Continuous
 62
     7
370
    25
100
AcDbLine
 10
-152.1121734783
 20
-63.7857623826
 30
0.0
 11
-153.6246939636
 21
-64.0128481913
 31
0.0
  0
ARC
  5
273
330
1F
100
AcDbEntity
  8
0
  6
Continuous
 62
     7
370
    25
100
AcDbCircle
 10
-151.763261259
 20
-66.1097159671
 30
0.0
 40
2.350000000000004
100
AcDbArc
 50
308.5384615385
 51
98.5384615385
  0
LINE
  5
274
330
1F
100
AcDbEntity
  8
0
  6
Continuous
 62
     7
370
    25
100
AcDbLine
 10
-151.4954558807
 20
-68.9007850208
 30
0.0
 11
-150.2991176211
 21
-67.9478626989
 31
0.0
  0
ARC
  5
275
330
1F
100
AcDbEntity
  8
0
  6
Continuous
 62
     7
370
    25
100
AcDbCircle
 10
-150.8724160347
 20
-69.6829751194
 30
0.0
 40
1.000000000000048
100
AcDbArc
 50
128.5384615385
 51
204.7906521285
  0
ARC
  5
276
330
1F
100
AcDbEntity
  8
0
  6
Continuous
 62
     7
370
    25
100
AcDbCircle
 10
0.0
 20
0.0
 30
0.0
 40
167.1872526448736
100
AcDbArc
 50
204.7906521285
 51
205.0555017177
  0
ARC
  5
277
330
1F
100
AcDbEntity
  8
0
  6
Continuous
 62
     7
370
    25
100
AcDbCircle
 10
-150.5486959349
 20
-70.379635506
 30
0.0
 40
1.000000000000008
100
AcDbArc
 50
205.0555017177
 51
281.3076923077
  0
LINE
  5
278
330
1F
100
AcDbEntity
  8
0
  6
Continuous
 62
     7
370
    25
100
AcDbLine
 10
-148.8528352173
 20
-71.0603282485
 30
0.0
 11
-150.3526181389
 21
-71.3602238488
 31
0.0
  0
ARC
  5
279
330
1F
100
AcDbEntity
  8
0
  6
Continuous
 62
     7
370
    25
100
AcDbCircle
 10
-148.3920523968
 20
-73.3647108539
 30
0.0
 40
2.350000000000018
100
AcDbArc
 50
311.3076923077
 51
101.3076923077
  0
LINE
  5
27A
330
1F
100
AcDbEntity
  8
0
  6
Continuous
 62
     7
370
    25
100
AcDbLine
 10
-147.9897137759
 20
-76.1395819892
 30
0.0
 11
-146.8408114659
 21
-75.12997332
 31
0.0
  0
ARC
  5
27B
330
1F
100
AcDbEntity
  8
0
  6
Continuous
 62
     7
370
    25
100
AcDbCircle
 10
-147.3296112521
 20
-76.8907575066
 30
0.0
 40
0.9999999999999928
100
AcDbArc
 50
131.3076923077
 51
207.5598828977
  0
ARC
  5
27C
330
1F
100
AcDbEntity
  8
0
  6
Continuous
 62
     7
370
    25
100
AcDbCircle
 10
0.0
 20
0.0
 30
0.0
 40
167.1872526448735
100
AcDbArc
 50
207.5598828977
 51
207.8247324869
  0
ARC
  5
27D
330
1F
100
AcDbEntity
  8
0
  6
Continuous
 62
     7
370
    25
100
AcDbCircle
 10
-146.9726111662
 20
-77.5709643399
 30
0.0
 40
1.000000000000007
100
AcDbArc
 50
207.8247324869
 51
284.0769230769
  0
LINE
  5
27E
330
1F
100
AcDbEntity
  8
0
  6
Continuous
 62
     7
370
    25
100
AcDbLine
 10
-145.2458442625
 20
-78.1689294252
 30
0.0
 11
-146.7293868079
 21
-78.5409343969
 31
0.0
  0
ARC
  5
27F
330
1F
100
AcDbEntity
  8
0
  6
Continuous
 62
     7
370
    25
100
AcDbCircle
 10
-144.6742670204
 20
-80.4483590592
 30
0.0
 40
2.350000000000012
100
AcDbArc
 50
314.0769230769
 51
104.0769230769
  0
LINE
  5
280
330
1F
100
AcDbEntity
  8
0
  6
Continuous
 62
     7
370
    25
100
AcDbLine
 10
-144.1383348375
 20
-83.2005514358
 30
0.0
 11
-143.0395517916
 21
-82.1366144073
 31
0.0
  0
ARC
  5
281
330
1F
100
AcDbEntity
  8
0
  6
Continuous
 62
     7
370
    25
100
AcDbCircle
 10
-143.4427113359
 20
-83.918957967
 30
0.0
 40
1.00000000000001
100
AcDbArc
 50
134.0769230769
 51
210.329113667
  0
ARC
  5
282
330
1F
100
AcDbEntity
  8
0
  6
Continuous
 62
     7
370
    25
100
AcDbCircle
 10
0.0
 20
0.0
 30
0.0
 40
167.1872526448735
100
AcDbArc
 50
210.329113667
 51
210.5939632561
  0
ARC
  5
283
330
1F
100
AcDbEntity
  8
0
  6
Continuous
 62
     7
370
    25
100
AcDbCircle
 10
-143.0532650542
 20
-84.5811225923
 30
0.0
 40
1.000000000000002
100
AcDbArc
 50
210.5939632561
 51
286.8461538462
  0
LINE
  5
284
330
1F
100
AcDbEntity
  8
0
  6
Continuous
 62
     7
370
    25
100
AcDbLine
 10
-141.2996249085
 20
-85.0949634452
 30
0.0
 11
-142.7634621953
 21
-85.5382089536
 31
0.0
  0
ARC
  5
285
330
1F
100
AcDbEntity
  8
0
  6
Continuous
 62
     7
370
    25
100
AcDbCircle
 10
-140.6185881899
 20
-87.3441163942
 30
0.0
 40
2.350000000000001
100
AcDbArc
 50
316.8461538462
 51
106.8461538462
  0
LINE
  5
286
330
1F
100
AcDbEntity
  8
0
  6
Continuous
 62
     7
370
    25
100
AcDbLine
 10
-139.9503141394
 20
-90.0672021395
 30
0.0
 11
-138.9042166163
 21
-88.9514216258
 31
0.0
  0
ARC
  5
287
330
1F
100
AcDbEntity
  8
0
  6
Continuous
 62
     7
370
    25
100
AcDbCircle
 10
-139.2207943209
 20
-90.7511618125
 30
0.0
 40
1.000000000000022
100
AcDbArc
 50
136.8461538462
 51
213.0983444362
  0
ARC
  5
288
330
1F
100
AcDbEntity
  8
0
  6
Continuous
 62
     7
370
    25
100
AcDbCircle
 10
0.0
 20
0.0
 30
0.0
 40
167.1872526448736
100
AcDbArc
 50
213.0983444362
 51
213.3631940253
  0
ARC
  5
289
330
1F
100
AcDbEntity
  8
0
  6
Continuous
 62
     7
370
    25
100
AcDbCircle
 10
-138.7998114133
 20
-91.3937377138
 30
0.0
 40
1.000000000000017
100
AcDbArc
 50
213.3631940253
 51
289.6153846154
  0
LINE
  5
28A
330
1F
100
AcDbEntity
  8
0
  6
Continuous
 62
     7
370
    25
100
AcDbLine
 10
-137.0233937333
 20
-91.8222542352
 30
0.0
 11
-138.4641069017
 21
-92.3357050598
 31
0.0
  0
ARC
  5
28B
330
1F
100
AcDbEntity
  8
0
  6
Continuous
 62
     7
370
    25
100
AcDbCircle
 10
-136.2344881311
 20
-94.0358774983
 30
0.0
 40
2.350000000000009
100
AcDbArc
 50
319.6153846154
 51
109.6153846154
  0
LINE
  5
28C
330
1F
100
AcDbEntity
  8
0
  6
Continuous
 62
     7
370
    25
100
AcDbLine
 10
-135.435432998
 20
-96.7234967193
 30
0.0
 11
-134.4444642069
 21
-95.5584786774
 31
0.0
  0
ARC
  5
28D
330
1F
100
AcDbEntity
  8
0
  6
Continuous
 62
     7
370
    25
100
AcDbCircle
 10
-134.6737206898
 20
-97.3714121147
 30
0.0
 40
1.00000000000002
100
AcDbArc
 50
139.6153846154
 51
215.8675752054
  0
ARC
  5
28E
330
1F
100
AcDbEntity
  8
0
  6
Continuous
 62
     7
370
    25
100
AcDbCircle
 10
0.0
 20
0.0
 30
0.0
 40
167.1872526448736
100
AcDbArc
 50
215.8675752054
 51
216.1324247946
  0
ARC
  5
28F
330
1F
100
AcDbEntity
  8
0
  6
Continuous
 62
     7
370
    25
100
AcDbCircle
 10
-134.2221843814
 20
-97.9928985261
 30
0.0
 40
1.00000000000003
100
AcDbArc
 50
216.1324247946
 51
292.3846153846
  0
LINE
  5
290
330
1F
100
AcDbEntity
  8
0
  6
Continuous
 62
     7
370
    25
100
AcDbLine
 10
-132.427138073
 20
-98.3350898958
 30
0.0
 11
-133.8413622707
 21
-98.9175468484
 31
0.0
  0
ARC
  5
291
330
1F
100
AcDbEntity
  8
0
  6
Continuous
 62
     7
370
    25
100
AcDbCircle
 10
-131.5322061128
 20
-100.5080134533
 30
0.0
 40
2.349999999999998
100
AcDbArc
 50
322.3846153846
 51
112.3846153846
  0
LINE
  5
292
330
1F
100
AcDbEntity
  8
0
  6
Continuous
 62
     7
370
    25
100
AcDbLine
 10
-130.6042361274
 20
-103.1538890908
 30
0.0
 11
-129.6707105218
 21
-101.9423544744
 31
0.0
  0
ARC
  5
293
330
1F
100
AcDbEntity
  8
0
  6
Continuous
 62
     7
370
    25
100
AcDbCircle
 10
-129.812110344
 20
-103.7642469721
 30
0.0
 40
1.000000000000022
100
AcDbArc
 50
142.3846153846
 51
218.6368059747
  0
ARC
  5
294
330
1F
100
AcDbEntity
  8
0
  6
Continuous
 62
     7
370
    25
100
AcDbCircle
 10
0.0
 20
0.0
 30
0.0
 40
167.1872526448736
100
AcDbArc
 50
218.6368059747
 51
218.9016555638
  0
ARC
  5
295
330
1F
100
AcDbEntity
  8
0
  6
Continuous
 62
     7
370
    25
100
AcDbCircle
 10
-129.3310752187
 20
-104.3631923833
 30
0.0
 40
0.9999999999999939
100
AcDbArc
 50
218.9016555638
 51
295.1538461539
  0
LINE
  5
296
330
1F
100
AcDbEntity
  8
0
  6
Continuous
 62
     7
370
    25
100
AcDbLine
 10
-127.5215926956
 20
-104.6182593976
 30
0.0
 11
-128.9060249365
 21
-105.268362123
 31
0.0
  0
ARC
  5
297
330
1F
100
AcDbEntity
  8
0
  6
Continuous
 62
     7
370
    25
100
AcDbCircle
 10
-126.5227245324
 20
-106.7454082858
 30
0.0
 40
2.350000000000003
100
AcDbArc
 50
325.1538461538
 51
115.1538461538
  0
LINE
  5
298
330
1F
100
AcDbEntity
  8
0
  6
Continuous
 62
     7
370
    25
100
AcDbLine
 10
-125.4680070117
 20
-109.3433607746
 30
0.0
 11
-124.594104884
 21
-108.088139179
 31
0.0
  0
ARC
  5
299
330
1F
100
AcDbEntity
  8
0
  6
Continuous
 62
     7
370
    25
100
AcDbCircle
 10
-124.6473177995
 20
-109.9147356228
 30
0.0
 40
1.000000000000046
100
AcDbArc
 50
145.1538461538
 51
221.4060367439
  0
ARC
  5
29A
330
1F
100
AcDbEntity
  8
0
  6
Continuous
 62
     7
370
    25
100
AcDbCircle
 10
0.0
 20
0.0
 30
0.0
 40
167.1872526448736
100
AcDbArc
 50
221.4060367439
 51
221.670886333
  0
ARC
  5
29B
330
1F
100
AcDbEntity
  8
0
  6
Continuous
 62
     7
370
    25
100
AcDbCircle
 10
-124.1379073372
 20
-110.489741169
 30
0.0
 40
0.9999999999999716
100
AcDbArc
 50
221.670886333
 51
297.9230769231
  0
LINE
  5
29C
330
1F
100
AcDbEntity
  8
0
  6
Continuous
 62
     7
370
    25
100
AcDbLine
 10
-122.3182147298
 20
-110.657088107
 30
0.0
 11
-123.6696216081
 21
-111.3733182601
 31
0.0
  0
ARC
  5
29D
330
1F
100
AcDbEntity
  8
0
  6
Continuous
 62
     7
370
    25
100
AcDbCircle
 10
-121.2177432665
 20
-112.7334942712
 30
0.0
 40
2.349999999999991
100
AcDbArc
 50
327.9230769231
 51
117.9230769231
  0
LINE
  5
29E
330
1F
100
AcDbEntity
  8
0
  6
Continuous
 62
     7
370
    25
100
AcDbLine
 10
-120.038741552
 20
-115.2774559729
 30
0.0
 11
-119.2265039411
 21
-113.9814790262
 31
0.0
  0
ARC
  5
29F
330
1F
100
AcDbEntity
  8
0
  6
Continuous
 62
     7
370
    25
100
AcDbCircle
 10
-119.1914056688
 20
-115.8085133155
 30
0.0
 40
1.000000000000018
100
AcDbArc
 50
147.9230769231
 51
224.1752675131
  0
ARC
  5
2A0
330
1F
100
AcDbEntity
  8
0
  6
Continuous
 62
     7
370
    25
100
AcDbCircle
 10
0.0
 20
0.0
 30
0.0
 40
167.1872526448736
100
AcDbArc
 50
224.1752675131
 51
224.4401171023
  0
ARC
  5
2A1
330
1F
100
AcDbEntity
  8
0
  6
Continuous
 62
     7
370
    25
100
AcDbCircle
 10
-118.6548096211
 20
-116.3582360447
 30
0.0
 40
1.000000000000017
100
AcDbArc
 50
224.4401171023
 51
300.6923076923
  0
LINE
  5
2A2
330
1F
100
AcDbEntity
  8
0
  6
Continuous
 62
     7
370
    25
100
AcDbLine
 10
-116.8291569058
 20
-116.4374720598
 30
0.0
 11
-118.1443821482
 21
-117.218156852
 31
0.0
  0
ARC
  5
2A3
330
1F
100
AcDbEntity
  8
0
  6
Continuous
 62
     7
370
    25
100
AcDbCircle
 10
-115.6296523445
 20
-118.4582859571
 30
0.0
 40
2.349999999999996
100
AcDbArc
 50
330.6923076923
 51
120.6923076923
  0
LINE
  5
2A4
330
1F
100
AcDbEntity
  8
0
  6
Continuous
 62
     7
370
    25
100
AcDbLine
 10
-114.3291200494
 20
-120.9423153314
 30
0.0
 11
-113.5804439738
 21
-119.6086098478
 31
0.0
  0
ARC
  5
2A5
330
1F
100
AcDbEntity
  8
0
  6
Continuous
 62
     7
370
    25
100
AcDbCircle
 10
-113.4571164874
 20
-121.4318148593
 30
0.0
 40
1.000000000000016
100
AcDbArc
 50
150.6923076923
 51
226.9444982824
  0
ARC
  5
2A6
330
1F
100
AcDbEntity
  8
0
  6
Continuous
 62
     7
370
    25
100
AcDbCircle
 10
0.0
 20
0.0
 30
0.0
 40
167.1872526448735
100
AcDbArc
 50
226.9444982824
 51
227.2093478715
  0
ARC
  5
2A7
330
1F
100
AcDbEntity
  8
0
  6
Continuous
 62
     7
370
    25
100
AcDbCircle
 10
-112.8945880993
 20
-121.9549708685
 30
0.0
 40
0.9999999999999787
100
AcDbArc
 50
227.2093478715
 51
303.4615384615
  0
LINE
  5
2A8
330
1F
100
AcDbEntity
  8
0
  6
Continuous
 62
     7
370
    25
100
AcDbLine
 10
-111.0672391726
 20
-121.9459109015
 30
0.0
 11
-112.3432110096
 21
-122.7892270072
 31
0.0
  0
ARC
  5
2A9
330
1F
100
AcDbEntity
  8
0
  6
Continuous
 62
     7
370
    25
100
AcDbCircle
 10
-109.7715030117
 20
-123.9064128274
 30
0.0
 40
2.350000000000001
100
AcDbArc
 50
333.4615384615
 51
123.4615384615
  0
LINE
  5
2AA
330
1F
100
AcDbEntity
  8
0
  6
Continuous
 62
     7
370
    25
100
AcDbLine
 10
-108.3524775894
 20
-126.3247083084
 30
0.0
 11
-107.6691116169
 21
-124.956389219
 31
0.0
  0
ARC
  5
2AB
330
1F
100
AcDbEntity
  8
0
  6
Continuous
 62
     7
370
    25
100
AcDbCircle
 10
-107.4578429533
 20
-126.7715067729
 30
0.0
 40
1.000000000000024
100
AcDbArc
 50
153.4615384615
 51
229.7137290516
  0
ARC
  5
2AC
330
1F
100
AcDbEntity
  8
0
  6
Continuous
 62
     7
370
    25
100
AcDbCircle
 10
0.0
 20
0.0
 30
0.0
 40
167.1872526448735
100
AcDbArc
 50
229.7137290516
 51
229.9785786407
  0
ARC
  5
2AD
330
1F
100
AcDbEntity
  8
0
  6
Continuous
 62
     7
370
    25
100
AcDbCircle
 10
-106.8706960359
 20
-127.2668742071
 30
0.0
 40
1.000000000000006
100
AcDbArc
 50
229.9785786407
 51
306.2307692308
  0
LINE
  5
2AE
330
1F
100
AcDbEntity
  8
0
  6
Continuous
 62
     7
370
    25
100
AcDbLine
 10
-105.0459187559
 20
-127.1695394178
 30
0.0
 11
-106.2796570961
 21
-128.0735172333
 31
0.0
  0
ARC
  5
2AF
330
1F
100
AcDbEntity
  8
0
  6
Continuous
 62
     7
370
    25
100
AcDbCircle
 10
-103.6569772474
 20
-129.0651505293
 30
0.0
 40
2.350000000000017
100
AcDbArc
 50
336.2307692308
 51
126.2307692308
  0
LINE
  5
2B0
330
1F
100
AcDbEntity
  8
0
  6
Continuous
 62
     7
370
    25
100
AcDbLine
 10
-102.1227728974
 20
-131.412064076
 30
0.0
 11
-101.5063130609
 21
-130.0123271532
 31
0.0
  0
ARC
  5
2B1
330
1F
100
AcDbEntity
  8
0
  6
Continuous
 62
     7
370
    25
100
AcDbCircle
 10
-101.2075966479
 20
-131.8151179585
 30
0.0
 40
1.000000000000018
100
AcDbArc
 50
156.2307692308
 51
232.4829598208
  0
ARC
  5
2B2
330
1F
100
AcDbEntity
  8
0
  6
Continuous
 62
     7
370
    25
100
AcDbCircle
 10
0.0
 20
0.0
 30
0.0
 40
167.1872526448735
100
AcDbArc
 50
232.4829598208
 51
232.74780941
  0
ARC
  5
2B3
330
1F
100
AcDbEntity
  8
0
  6
Continuous
 62
     7
370
    25
100
AcDbCircle
 10
-100.5972025101
 20
-132.281539864
 30
0.0
 40
0.9999999999999791
100
AcDbArc
 50
232.74780941
 51
309.0
  0
LINE
  5
2B4
330
1F
100
AcDbEntity
  8
0
  6
Continuous
 62
     7
370
    25
100
AcDbLine
 10
-98.7792587286
 20
-132.0961575824
 30
0.0
 11
-99.9678821191
 21
-133.0586858255
 31
0.0
  0
ARC
  5
2B5
330
1F
100
AcDbEntity
  8
0
  6
Continuous
 62
     7
370
    25
100
AcDbCircle
 10
-97.3003558097
 20
-133.9224505918
 30
0.0
 40
2.350000000000004
100
AcDbArc
 50
339.0
 51
129.0
  0
LINE
  5
2B6
330
1F
100
AcDbEntity
  8
0
  6
Continuous
 62
     7
370
    25
100
AcDbLine
 10
-95.6545557375
 20
-136.1925008788
 30
0.0
 11
-95.1064418074
 21
-134.7646152733
 31
0.0
  0
ARC
  5
2B7
330
1F
100
AcDbEntity
  8
0
  6
Continuous
 62
     7
370
    25
100
AcDbCircle
 10
-94.720975311
 20
-136.5508688284
 30
0.0
 40
1.00000000000002
100
AcDbArc
 50
159.0
 51
235.25219059
  0
ARC
  5
2B8
330
1F
100
AcDbEntity
  8
0
  6
Continuous
 62
     7
370
    25
100
AcDbCircle
 10
0.0
 20
0.0
 30
0.0
 40
167.1872526448736
100
AcDbArc
 50
235.25219059
 51
235.5170401792
  0
ARC
  5
2B9
330
1F
100
AcDbEntity
  8
0
  6
Continuous
 62
     7
370
    25
100
AcDbCircle
 10
-94.0887595566
 20
-136.9872558552
 30
0.0
 40
1.00000000000002
100
AcDbArc
 50
235.5170401792
 51
311.7692307692
  0
LINE
  5
2BA
330
1F
100
AcDbEntity
  8
0
  6
Continuous
 62
     7
370
    25
100
AcDbLine
 10
-92.2818951656
 20
-136.7142590502
 30
0.0
 11
-93.4226275212
 21
-137.7330896916
 31
0.0
  0
ARC
  5
2BB
330
1F
100
AcDbEntity
  8
0
  6
Continuous
 62
     7
370
    25
100
AcDbCircle
 10
-90.7164848825
 20
-138.4669685657
 30
0.0
 40
2.350000000000027
100
AcDbArc
 50
341.7692307692
 51
131.7692307692
  0
LINE
  5
2BC
330
1F
100
AcDbEntity
  8
0
  6
Continuous
 62
     7
370
    25
100
AcDbLine
 10
-88.9629329305
 20
-140.6548537853
 30
0.0
 11
-88.4844450523
 21
-139.20215439
 31
0.0
  0
ARC
  5
2BD
330
1F
100
AcDbEntity
  8
0
  6
Continuous
 62
     7
370
    25
100
AcDbCircle
 10
-88.0131287474
 20
-140.967698817
 30
0.0
 40
1.000000000000004
100
AcDbArc
 50
161.7692307692
 51
238.0214213593
  0
ARC
  5
2BE
330
1F
100
AcDbEntity
  8
0
  6
Continuous
 62
     7
370
    25
100
AcDbCircle
 10
0.0
 20
0.0
 30
0.0
 40
167.1872526448735
100
AcDbArc
 50
238.0214213593
 51
238.2862709484
  0
ARC
  5
2BF
330
1F
100
AcDbEntity
  8
0
  6
Continuous
 62
     7
370
    25
100
AcDbCircle
 10
-87.3605679455
 20
-141.3730317631
 30
0.0
 40
0.9999999999999812
100
AcDbArc
 50
238.2862709484
 51
314.5384615385
  0
LINE
  5
2C0
330
1F
100
AcDbEntity
  8
0
  6
Continuous
 62
     7
370
    25
100
AcDbLine
 10
-85.5690029605
 20
-141.0130580314
 30
0.0
 11
-86.6591800481
 21
-142.0858115449
 31
0.0
  0
ARC
  5
2C1
330
1F
100
AcDbEntity
  8
0
  6
Continuous
 62
     7
370
    25
100
AcDbCircle
 10
-83.9207414015
 20
-142.6880905185
 30
0.0
 40
2.349999999999992
100
AcDbArc
 50
344.5384615385
 51
134.5384615385
  0
LINE
  5
2C2
330
1F
100
AcDbEntity
  8
0
  6
Continuous
 62
     7
370
    25
100
AcDbLine
 10
-82.0635330714
 20
-144.7887007636
 30
0.0
 11
-81.6557887758
 21
-143.3145804251
 31
0.0
  0
ARC
  5
2C3
330
1F
100
AcDbEntity
  8
0
  6
Continuous
 62
     7
370
    25
100
AcDbCircle
 10
-81.0997234435
 20
-145.0552922132
 30
0.0
 40
1.000000000000002
100
AcDbArc
 50
164.5384615385
 51
240.7906521285
  0
ARC
  5
2C4
330
1F
100
AcDbEntity
  8
0
  6
Continuous
 62
     7
370
    25
100
AcDbCircle
 10
0.0
 20
0.0
 30
0.0
 40
167.1872526448735
100
AcDbArc
 50
240.7906521285
 51
241.0555017177
  0
ARC
  5
2C5
330
1F
100
AcDbEntity
  8
0
  6
Continuous
 62
     7
370
    25
100
AcDbCircle
 10
-80.4283416801
 20
-145.4286244047
 30
0.0
 40
1.000000000000005
100
AcDbArc
 50
241.0555017177
 51
317.3076923077
  0
LINE
  5
2C6
330
1F
100
AcDbEntity
  8
0
  6
Continuous
 62
     7
370
    25
100
AcDbLine
 10
-78.6562603842
 20
-144.9825144816
 30
0.0
 11
-79.6933360445
 21
-146.1066854017
 31
0.0
  0
ARC
  5
2C7
330
1F
100
AcDbEntity
  8
0
  6
Continuous
 62
     7
370
    25
100
AcDbCircle
 10
-76.9289971405
 20
-146.5759578245
 30
0.0
 40
2.349999999999994
100
AcDbArc
 50
347.3076923077
 51
137.3076923077
  0
LINE
  5
2C8
330
1F
100
AcDbEntity
  8
0
  6
Continuous
 62
     7
370
    25
100
AcDbLine
 10
-74.9724700285
 20
-148.5843870223
 30
0.0
 11
-74.636421621
 21
-147.0922886171
 31
0.0
  0
ARC
  5
2C9
330
1F
100
AcDbEntity
  8
0
  6
Continuous
 62
     7
370
    25
100
AcDbCircle
 10
-73.9969059776
 20
-148.8041022532
 30
0.0
 40
0.9999999999999999
100
AcDbArc
 50
167.3076923077
 51
243.5598828977
  0
ARC
  5
2CA
330
1F
100
AcDbEntity
  8
0
  6
Continuous
 62
     7
370
    25
100
AcDbCircle
 10
0.0
 20
0.0
 30
0.0
 40
167.1872526448735
100
AcDbArc
 50
243.5598828977
 51
243.8247324869
  0
ARC
  5
2CB
330
1F
100
AcDbEntity
  8
0
  6
Continuous
 62
     7
370
    25
100
AcDbCircle
 10
-73.308271296
 20
-149.1445617555
 30
0.0
 40
1.000000000000004
100
AcDbArc
 50
243.8247324869
 51
320.0769230769
  0
LINE
  5
2CC
330
1F
100
AcDbEntity
  8
0
  6
Continuous
 62
     7
370
    25
100
AcDbLine
 10
-71.5598124671
 20
-148.6133575514
 30
0.0
 11
-72.541364562
 21
-149.7863203248
 31
0.0
  0
ARC
  5
2CD
330
1F
100
AcDbEntity
  8
0
  6
Continuous
 62
     7
370
    25
100
AcDbCircle
 10
-69.7575816422
 20
-150.1214901893
 30
0.0
 40
2.350000000000001
100
AcDbArc
 50
350.0769230769
 51
140.0769230769
  0
LINE
  5
2CE
330
1F
100
AcDbEntity
  8
0
  6
Continuous
 62
     7
370
    25
100
AcDbLine
 10
-67.7063053079
 20
-152.0330475605
 30
0.0
 11
-67.4427376453
 21
-150.5264559535
 31
0.0
  0
ARC
  5
2CF
330
1F
100
AcDbEntity
  8
0
  6
Continuous
 62
     7
370
    25
100
AcDbCircle
 10
-66.7212653092
 20
-152.2053734176
 30
0.0
 40
1.0
100
AcDbArc
 50
170.0769230769
 51
246.329113667
  0
ARC
  5
2D0
330
1F
100
AcDbEntity
  8
0
  6
Continuous
 62
     7
370
    25
100
AcDbCircle
 10
0.0
 20
0.0
 30
0.0
 40
167.1872526448736
100
AcDbArc
 50
246.329113667
 51
246.5939632561
  0
ARC
  5
2D1
330
1F
100
AcDbEntity
  8
0
  6
Continuous
 62
     7
370
    25
100
AcDbCircle
 10
-66.0169860476
 20
-152.5121650716
 30
0.0
 40
0.9999999999999954
100
AcDbArc
 50
246.5939632561
 51
322.8461538462
  0
LINE
  5
2D2
330
1F
100
AcDbEntity
  8
0
  6
Continuous
 62
     7
370
    25
100
AcDbLine
 10
-64.2962332923
 20
-151.8971072385
 30
0.0
 11
-65.2199693614
 21
-153.1161223564
 31
0.0
  0
ARC
  5
2D3
330
1F
100
AcDbEntity
  8
0
  6
Continuous
 62
     7
370
    25
100
AcDbCircle
 10
-62.4232440796
 20
-153.3164068578
 30
0.0
 40
2.350000000000003
100
AcDbArc
 50
352.8461538462
 51
142.8461538462
  0
LINE
  5
2D4
330
1F
100
AcDbEntity
  8
0
  6
Continuous
 62
     7
370
    25
100
AcDbLine
 10
-60.2820093741
 20
-155.1266278715
 30
0.0
 11
-60.0915380308
 21
-153.6090617773
 31
0.0
  0
ARC
  5
2D5
330
1F
100
AcDbEntity
  8
0
  6
Continuous
 62
     7
370
    25
100
AcDbCircle
 10
-59.2897940341
 20
-155.2511618798
 30
0.0
 40
1.000000000000015
100
AcDbArc
 50
172.8461538462
 51
249.0983444362
  0
ARC
  5
2D6
330
1F
100
AcDbEntity
  8
0
  6
Continuous
 62
     7
370
    25
100
AcDbCircle
 10
0.0
 20
0.0
 30
0.0
 40
167.1872526448736
100
AcDbArc
 50
249.0983444362
 51
249.3631940253
  0
ARC
  5
2D7
330
1F
100
AcDbEntity
  8
0
  6
Continuous
 62
     7
370
    25
100
AcDbCircle
 10
-58.5715150693
 20
-155.5235691596
 30
0.0
 40
0.9999999999999818
100
AcDbArc
 50
249.3631940253
 51
325.6153846154
  0
LINE
  5
2D8
330
1F
100
AcDbEntity
  8
0
  6
Continuous
 62
     7
370
    25
100
AcDbLine
 10
-56.8824872854
 20
-154.8260941936
 30
0.0
 11
-57.7462499003
 21
-156.0883145896
 31
0.0
  0
ARC
  5
2D9
330
1F
100
AcDbEntity
  8
0
  6
Continuous
 62
     7
370
    25
100
AcDbCircle
 10
-54.9431141382
 20
-156.1532459541
 30
0.0
 40
2.349999999999991
100
AcDbArc
 50
355.6153846154
 51
145.6153846154
  0
LINE
  5
2DA
330
1F
100
AcDbEntity
  8
0
  6
Continuous
 62
     7
370
    25
100
AcDbLine
 10
-52.7169220142
 20
-157.8579027554
 30
0.0
 11
-52.5999918449
 21
-156.3329065198
 31
0.0
  0
ARC
  5
2DB
330
1F
100
AcDbEntity
  8
0
  6
Continuous
 62
     7
370
    25
100
AcDbCircle
 10
-51.7198486979
 20
-157.9343540599
 30
0.0
 40
1.000000000000004
100
AcDbArc
 50
175.6153846154
 51
251.8675752054
  0
ARC
  5
2DC
330
1F
100
AcDbEntity
  8
0
  6
Continuous
 62
     7
370
    25
100
AcDbCircle
 10
0.0
 20
0.0
 30
0.0
 40
167.1872526448735
100
AcDbArc
 50
251.8675752054
 51
252.1324247946
  0
ARC
  5
2DD
330
1F
100
AcDbEntity
  8
0
  6
Continuous
 62
     7
370
    25
100
AcDbCircle
 10
-50.9892476037
 20
-158.1717407455
 30
0.0
 40
1.000000000000012
100
AcDbArc
 50
252.1324247946
 51
328.3846153846
  0
LINE
  5
2DE
330
1F
100
AcDbEntity
  8
0
  6
Continuous
 62
     7
370
    25
100
AcDbLine
 10
-49.3358895939
 20
-157.3934776317
 30
0.0
 11
-50.1376613968
 21
-158.6959553317
 31
0.0
  0
ARC
  5
2DF
330
1F
100
AcDbEntity
  8
0
  6
Continuous
 62
     7
370
    25
100
AcDbCircle
 10
-47.3346620078
 20
-158.6253819091
 30
0.0
 40
2.350000000000004
100
AcDbArc
 50
358.3846153846
 51
148.3846153846
  0
LINE
  5
2E0
330
1F
100
AcDbEntity
  8
0
  6
Continuous
 62
     7
370
    25
100
AcDbLine
 10
-45.0287118402
 20
-160.2204931929
 30
0.0
 11
-44.9855959408
 21
-158.6916285154
 31
0.0
  0
ARC
  5
2E1
330
1F
100
AcDbEntity
  8
0
  6
Continuous
 62
     7
370
    25
100
AcDbCircle
 10
-44.0291092585
 20
-160.2486832381
 30
0.0
 40
1.0
100
AcDbArc
 50
178.3846153846
 51
254.6368059747
  0
ARC
  5
2E2
330
1F
100
AcDbEntity
  8
0
  6
Continuous
 62
     7
370
    25
100
AcDbCircle
 10
0.0
 20
0.0
 30
0.0
 40
167.1872526448736
100
AcDbArc
 50
254.6368059747
 51
254.9016555638
  0
ARC
  5
2E3
330
1F
100
AcDbEntity
  8
0
  6
Continuous
 62
     7
370
    25
100
AcDbCircle
 10
-43.2878923876
 20
-160.450494902
 30
0.0
 40
1.000000000000021
100
AcDbArc
 50
254.9016555638
 51
331.1538461538
  0
LINE
  5
2E4
330
1F
100
AcDbEntity
  8
0
  6
Continuous
 62
     7
370
    25
100
AcDbLine
 10
-41.6740656461
 20
-159.5932613099
 30
0.0
 11
-42.4119740621
 21
-160.9329543168
 31
0.0
  0
ARC
  5
2E5
330
1F
100
AcDbEntity
  8
0
  6
Continuous
 62
     7
370
    25
100
AcDbCircle
 10
-39.615657581
 20
-160.7270409347
 30
0.0
 40
2.349999999999993
100
AcDbArc
 50
1.1538461538
 51
151.1538461538
  0
LINE
  5
2E6
330
1F
100
AcDbEntity
  8
0
  6
Continuous
 62
     7
370
    25
100
AcDbLine
 10
-37.2353350234
 20
-162.2088812447
 30
0.0
 11
-37.2661340929
 21
-160.6797188596
 31
0.0
  0
ARC
  5
2E7
330
1F
100
AcDbEntity
  8
0
  6
Continuous
 62
     7
370
    25
100
AcDbCircle
 10
-36.2355377944
 20
-162.1887441915
 30
0.0
 40
1.00000000000001
100
AcDbArc
 50
181.1538461538
 51
257.4060367439
  0
ARC
  5
2E8
330
1F
100
AcDbEntity
  8
0
  6
Continuous
 62
     7
370
    25
100
AcDbCircle
 10
0.0
 20
0.0
 30
0.0
 40
167.1872526448736
100
AcDbArc
 50
257.4060367439
 51
257.670886333
  0
ARC
  5
2E9
330
1F
100
AcDbEntity
  8
0
  6
Continuous
 62
     7
370
    25
100
AcDbCircle
 10
-35.4854362932
 20
-162.3545094931
 30
0.0
 40
1.00000000000001
100
AcDbArc
 50
257.670886333
 51
333.9230769231
  0
LINE
  5
2EA
330
1F
100
AcDbEntity
  8
0
  6
Continuous
 62
     7
370
    25
100
AcDbLine
 10
-33.9149099871
 20
-161.4203075316
 30
0.0
 11
-34.5872315967
 21
-162.7940869302
 31
0.0
  0
ARC
  5
2EB
330
1F
100
AcDbEntity
  8
0
  6
Continuous
 62
     7
370
    25
100
AcDbCircle
 10
-31.8041289504
 20
-162.4533145089
 30
0.0
 40
2.349999999999993
100
AcDbArc
 50
3.9230769231
 51
153.9230769231
  0
LINE
  5
2EC
330
1F
100
AcDbEntity
  8
0
  6
Continuous
 62
     7
370
    25
100
AcDbLine
 10
-29.3549933563
 20
-163.8184229384
 30
0.0
 11
-29.4596354622
 21
-162.2925342752
 31
0.0
  0
ARC
  5
2ED
330
1F
100
AcDbEntity
  8
0
  6
Continuous
 62
     7
370
    25
100
AcDbCircle
 10
-28.3573365527
 20
-163.7500058177
 30
0.0
 40
1.000000000000016
100
AcDbArc
 50
183.9230769231
 51
260.1752675131
  0
ARC
  5
2EE
330
1F
100
AcDbEntity
  8
0
  6
Continuous
 62
     7
370
    25
100
AcDbCircle
 10
0.0
 20
0.0
 30
0.0
 40
167.1872526448736
100
AcDbArc
 50
260.1752675131
 51
260.4401171023
  0
ARC
  5
2EF
330
1F
100
AcDbEntity
  8
0
  6
Continuous
 62
     7
370
    25
100
AcDbCircle
 10
-27.600102318
 20
-163.8793376045
 30
0.0
 40
0.9999999999999811
100
AcDbArc
 50
260.4401171023
 51
336.6923076923
  0
LINE
  5
2F0
330
1F
100
AcDbEntity
  8
0
  6
Continuous
 62
     7
370
    25
100
AcDbLine
 10
-26.0765444843
 20
-162.8703491455
 30
0.0
 11
-26.6817090493
 21
-164.2750064105
 31
0.0
  0
ARC
  5
2F1
330
1F
100
AcDbEntity
  8
0
  6
Continuous
 62
     7
370
    25
100
AcDbCircle
 10
-23.918320303
 20
-163.8001708396
 30
0.0
 40
2.350000000000004
100
AcDbArc
 50
6.6923076923
 51
156.6923076923
  0
LINE
  5
2F2
330
1F
100
AcDbEntity
  8
0
  6
Continuous
 62
     7
370
    25
100
AcDbLine
 10
-21.406091742
 20
-165.0453591147
 30
0.0
 11
-21.5843324877
 21
-163.5263079571
 31
0.0
  0
ARC
  5
2F3
330
1F
100
AcDbEntity
  8
0
  6
Continuous
 62
     7
370
    25
100
AcDbCircle
 10
-20.4129054376
 20
-164.9288217179
 30
0.0
 40
1.000000000000003
100
AcDbArc
 50
186.6923076923
 51
262.9444982823
  0
ARC
  5
2F4
330
1F
100
AcDbEntity
  8
0
  6
Continuous
 62
     7
370
    25
100
AcDbCircle
 10
0.0
 20
0.0
 30
0.0
 40
167.1872526448735
100
AcDbArc
 50
262.9444982823
 51
263.2093478715
  0
ARC
  5
2F5
330
1F
100
AcDbEntity
  8
0
  6
Continuous
 62
     7
370
    25
100
AcDbCircle
 10
-19.650307025
 20
-165.0214179295
 30
0.0
 40
0.9999999999999675
100
AcDbArc
 50
263.2093478715
 51
339.4615384615
  0
LINE
  5
2F6
330
1F
100
AcDbEntity
  8
0
  6
Continuous
 62
     7
370
    25
100
AcDbLine
 10
-18.1772760037
 20
-163.9399995123
 30
0.0
 11
-18.7138701342
 21
-165.3722540016
 31
0.0
  0
ARC
  5
2F7
330
1F
100
AcDbEntity
  8
0
  6
Continuous
 62
     7
370
    25
100
AcDbCircle
 10
-15.9766493102
 20
-164.7644642817
 30
0.0
 40
2.349999999999988
100
AcDbArc
 50
9.4615384615
 51
159.4615384615
  0
LINE
  5
2F8
330
1F
100
AcDbEntity
  8
0
  6
Continuous
 62
     7
370
    25
100
AcDbLine
 10
-13.4071952086
 20
-165.8868242074
 30
0.0
 11
-13.6586183047
 21
-164.3781583697
 31
0.0
  0
ARC
  5
2F9
330
1F
100
AcDbEntity
  8
0
  6
Continuous
 62
     7
370
    25
100
AcDbCircle
 10
-12.420799036
 20
-165.7224387129
 30
0.0
 40
1.000000000000002
100
AcDbArc
 50
189.4615384615
 51
265.7137290516
  0
ARC
  5
2FA
330
1F
100
AcDbEntity
  8
0
  6
Continuous
 62
     7
370
    25
100
AcDbCircle
 10
0.0
 20
0.0
 30
0.0
 40
167.1872526448736
100
AcDbArc
 50
265.7137290516
 51
265.9785786407
  0
ARC
  5
2FB
330
1F
100
AcDbEntity
  8
0
  6
Continuous
 62
     7
370
    25
100
AcDbCircle
 10
-11.6546175295
 20
-165.7780830867
 30
0.0
 40
1.000000000000006
100
AcDbArc
 50
265.9785786407
 51
342.2307692308
  0
LINE
  5
2FC
330
1F
100
AcDbEntity
  8
0
  6
Continuous
 62
     7
370
    25
100
AcDbLine
 10
-10.2355536526
 20
-164.6267604141
 30
0.0
 11
-10.7023241082
 21
-166.0832670309
 31
0.0
  0
ARC
  5
2FD
330
1F
100
AcDbEntity
  8
0
  6
Continuous
 62
     7
370
    25
100
AcDbCircle
 10
-7.9976641126
 20
-165.343942683
 30
0.0
 40
2.349999999999998
100
AcDbArc
 50
12.2307692308
 51
162.2307692308
  0
LINE
  5
2FE
330
1F
100
AcDbEntity
  8
0
  6
Continuous
 62
     7
370
    25
100
AcDbLine
 10
-5.3769855496
 20
-166.3408529357
 30
0.0
 11
-5.7010037857
 21
-164.846095977
 31
0.0
  0
ARC
  5
2FF
330
1F
100
AcDbEntity
  8
0
  6
Continuous
 62
     7
370
    25
100
AcDbCircle
 10
-4.3996832828
 20
-166.1290032735
 30
0.0
 40
0.9999999999999986
100
AcDbArc
 50
192.2307692308
 51
268.4829598208
  0
ARC
  5
300
330
1F
100
AcDbEntity
  8
0
  6
Continuous
 62
     7
370
    25
100
AcDbCircle
 10
0.0
 20
0.0
 30
0.0
 40
167.1872526448735
100
AcDbArc
 50
268.4829598208
 51
268.74780941
  0
ARC
  5
301
330
1F
100
AcDbEntity
  8
0
  6
Continuous
 62
     7
370
    25
100
AcDbCircle
 10
-3.6317081347
 20
-166.1475658494
 30
0.0
 40
1.00000000000002
100
AcDbArc
 50
268.74780941
 51
345.0
  0
LINE
  5
302
330
1F
100
AcDbEntity
  8
0
  6
Continuous
 62
     7
370
    25
100
AcDbLine
 10
-2.2699256918
 20
-164.9290278889
 30
0.0
 11
-2.6657823084
 21
-166.4063848945
 31
0.0
  0
ARC
  5
303
330
1F
100
AcDbEntity
  8
0
  6
Continuous
 62
     7
370
    25
100
AcDbCircle
 10
0.0
 20
-165.5372526449
 30
0.0
 40
2.349999999999992
100
AcDbArc
 50
15.0
 51
165.0
  0
LINE
  5
304
330
1F
100
AcDbEntity
  8
0
  6
Continuous
 62
     7
370
    25
100
AcDbLine
 10
2.6657823084
 20
-166.4063848945
 30
0.0
 11
2.2699256918
 21
-164.9290278889
 31
0.0
  0
ARC
  5
305
330
1F
100
AcDbEntity
  8
0
  6
Continuous
 62
     7
370
    25
100
AcDbCircle
 10
3.6317081347
 20
-166.1475658494
 30
0.0
 40
1.000000000000015
100
AcDbArc
 50
195.0
 51
271.25219059
  0
ARC
  5
306
330
1F
100
AcDbEntity
  8
0
  6
Continuous
 62
     7
370
    25
100
AcDbCircle
 10
0.0
 20
0.0
 30
0.0
 40
167.1872526448736
100
AcDbArc
 50
271.25219059
 51
271.5170401792
  0
ARC
  5
307
330
1F
100
AcDbEntity
  8
0
  6
Continuous
 62
     7
370
    25
100
AcDbCircle
 10
4.3996832828
 20
-166.1290032735
 30
0.0
 40
1.000000000000024
100
AcDbArc
 50
271.5170401792
 51
347.7692307692
  0
LINE
  5
308
330
1F
100
AcDbEntity
  8
0
  6
Continuous
 62
     7
370
    25
100
AcDbLine
 10
5.7010037857
 20
-164.846095977
 30
0.0
 11
5.3769855496
 21
-166.3408529357
 31
0.0
  0
ARC
  5
309
330
1F
100
AcDbEntity
  8
0
  6
Continuous
 62
     7
370
    25
100
AcDbCircle
 10
7.9976641126
 20
-165.343942683
 30
0.0
 40
2.349999999999992
100
AcDbArc
 50
17.7692307692
 51
167.7692307692
  0
LINE
  5
30A
330
1F
100
AcDbEntity
  8
0
  6
Continuous
 62
     7
370
    25
100
AcDbLine
 10
10.7023241082
 20
-166.0832670309
 30
0.0
 11
10.2355536526
 21
-164.6267604141
 31
0.0
  0
ARC
  5
30B
330
1F
100
AcDbEntity
  8
0
  6
Continuous
 62
     7
370
    25
100
AcDbCircle
 10
11.6546175295
 20
-165.7780830867
 30
0.0
 40
1.000000000000009
100
AcDbArc
 50
197.7692307692
 51
274.0214213593
  0
ARC
  5
30C
330
1F
100
AcDbEntity
  8
0
  6
Continuous
 62
     7
370
    25
100
AcDbCircle
 10
0.0
 20
0.0
 30
0.0
 40
167.1872526448735
100
AcDbArc
 50
274.0214213593
 51
274.2862709484
  0
ARC
  5
30D
330
1F
100
AcDbEntity
  8
0
  6
Continuous
 62
     7
370
    25
100
AcDbCircle
 10
12.420799036
 20
-165.7224387129
 30
0.0
 40
0.9999999999999905
100
AcDbArc
 50
274.2862709484
 51
350.5384615385
  0
LINE
  5
30E
330
1F
100
AcDbEntity
  8
0
  6
Continuous
 62
     7
370
    25
100
AcDbLine
 10
13.6586183047
 20
-164.3781583697
 30
0.0
 11
13.4071952086
 21
-165.8868242074
 31
0.0
  0
ARC
  5
30F
330
1F
100
AcDbEntity
  8
0
  6
Continuous
 62
     7
370
    25
100
AcDbCircle
 10
15.9766493102
 20
-164.7644642817
 30
0.0
 40
2.350000000000002
100
AcDbArc
 50
20.5384615385
 51
170.5384615385
  0
LINE
  5
310
330
1F
100
AcDbEntity
  8
0
  6
Continuous
 62
     7
370
    25
100
AcDbLine
 10
18.7138701342
 20
-165.3722540016
 30
0.0
 11
18.1772760037
 21
-163.9399995123
 31
0.0
  0
ARC
  5
311
330
1F
100
AcDbEntity
  8
0
  6
Continuous
 62
     7
370
    25
100
AcDbCircle
 10
19.650307025
 20
-165.0214179295
 30
0.0
 40
1.000000000000001
100
AcDbArc
 50
200.5384615385
 51
276.7906521285
  0
ARC
  5
312
330
1F
100
AcDbEntity
  8
0
  6
Continuous
 62
     7
370
    25
100
AcDbCircle
 10
0.0
 20
0.0
 30
0.0
 40
167.1872526448735
100
AcDbArc
 50
276.7906521285
 51
277.0555017177
  0
ARC
  5
313
330
1F
100
AcDbEntity
  8
0
  6
Continuous
 62
     7
370
    25
100
AcDbCircle
 10
20.4129054376
 20
-164.9288217179
 30
0.0
 40
0.999999999999996
100
AcDbArc
 50
277.0555017177
 51
353.3076923077
  0
LINE
  5
314
330
1F
100
AcDbEntity
  8
0
  6
Continuous
 62
     7
370
    25
100
AcDbLine
 10
21.5843324877
 20
-163.5263079571
 30
0.0
 11
21.406091742
 21
-165.0453591147
 31
0.0
  0
ARC
  5
315
330
1F
100
AcDbEntity
  8
0
  6
Continuous
 62
     7
370
    25
100
AcDbCircle
 10
23.918320303
 20
-163.8001708396
 30
0.0
 40
2.350000000000002
100
AcDbArc
 50
23.3076923077
 51
173.3076923077
  0
LINE
  5
316
330
1F
100
AcDbEntity
  8
0
  6
Continuous
 62
     7
370
    25
100
AcDbLine
 10
26.6817090493
 20
-164.2750064105
 30
0.0
 11
26.0765444843
 21
-162.8703491455
 31
0.0
  0
ARC
  5
317
330
1F
100
AcDbEntity
  8
0
  6
Continuous
 62
     7
370
    25
100
AcDbCircle
 10
27.600102318
 20
-163.8793376045
 30
0.0
 40
1.000000000000032
100
AcDbArc
 50
203.3076923077
 51
279.5598828977
  0
ARC
  5
318
330
1F
100
AcDbEntity
  8
0
  6
Continuous
 62
     7
370
    25
100
AcDbCircle
 10
0.0
 20
0.0
 30
0.0
 40
167.1872526448735
100
AcDbArc
 50
279.5598828977
 51
279.8247324869
  0
ARC
  5
319
330
1F
100
AcDbEntity
  8
0
  6
Continuous
 62
     7
370
    25
100
AcDbCircle
 10
28.3573365527
 20
-163.7500058177
 30
0.0
 40
1.000000000000022
100
AcDbArc
 50
279.8247324869
 51
356.0769230769
  0
LINE
  5
31A
330
1F
100
AcDbEntity
  8
0
  6
Continuous
 62
     7
370
    25
100
AcDbLine
 10
29.4596354622
 20
-162.2925342752
 30
0.0
 11
29.3549933563
 21
-163.8184229384
 31
0.0
  0
ARC
  5
31B
330
1F
100
AcDbEntity
  8
0
  6
Continuous
 62
     7
370
    25
100
AcDbCircle
 10
31.8041289504
 20
-162.4533145089
 30
0.0
 40
2.349999999999988
100
AcDbArc
 50
26.0769230769
 51
176.0769230769
  0
LINE
  5
31C
330
1F
100
AcDbEntity
  8
0
  6
Continuous
 62
     7
370
    25
100
AcDbLine
 10
34.5872315967
 20
-162.7940869302
 30
0.0
 11
33.9149099871
 21
-161.4203075316
 31
0.0
  0
ARC
  5
31D
330
1F
100
AcDbEntity
  8
0
  6
Continuous
 62
     7
370
    25
100
AcDbCircle
 10
35.4854362932
 20
-162.3545094931
 30
0.0
 40
1.000000000000004
100
AcDbArc
 50
206.0769230769
 51
282.329113667
  0
ARC
  5
31E
330
1F
100
AcDbEntity
  8
0
  6
Continuous
 62
     7
370
    25
100
AcDbCircle
 10
0.0
 20
0.0
 30
0.0
 40
167.1872526448735
100
AcDbArc
 50
282.329113667
 51
282.5939632561
  0
ARC
  5
31F
330
1F
100
AcDbEntity
  8
0
  6
Continuous
 62
     7
370
    25
100
AcDbCircle
 10
36.2355377944
 20
-162.1887441915
 30
0.0
 40
0.9999999999999961
100
AcDbArc
 50
282.5939632561
 51
358.8461538462
  0
LINE
  5
320
330
1F
100
AcDbEntity
  8
0
  6
Continuous
 62
     7
370
    25
100
AcDbLine
 10
37.2661340929
 20
-160.6797188596
 30
0.0
 11
37.2353350234
 21
-162.2088812447
 31
0.0
  0
ARC
  5
321
330
1F
100
AcDbEntity
  8
0
  6
Continuous
 62
     7
370
    25
100
AcDbCircle
 10
39.615657581
 20
-160.7270409347
 30
0.0
 40
2.350000000000022
100
AcDbArc
 50
28.8461538462
 51
178.8461538462
  0
LINE
  5
322
330
1F
100
AcDbEntity
  8
0
  6
Continuous
 62
     7
370
    25
100
AcDbLine
 10
42.4119740621
 20
-160.9329543168
 30
0.0
 11
41.6740656461
 21
-159.5932613099
 31
0.0
  0
ARC
  5
323
330
1F
100
AcDbEntity
  8
0
  6
Continuous
 62
     7
370
    25
100
AcDbCircle
 10
43.2878923876
 20
-160.450494902
 30
0.0
 40
0.9999999999999848
100
AcDbArc
 50
208.8461538462
 51
285.0983444362
  0
ARC
  5
324
330
1F
100
AcDbEntity
  8
0
  6
Continuous
 62
     7
370
    25
100
AcDbCircle
 10
0.0
 20
0.0
 30
0.0
 40
167.1872526448736
100
AcDbArc
 50
285.0983444362
 51
285.3631940253
  0
ARC
  5
325
330
1F
100
AcDbEntity
  8
0
  6
Continuous
 62
     7
370
    25
100
AcDbCircle
 10
44.0291092585
 20
-160.2486832381
 30
0.0
 40
1.000000000000006
100
AcDbArc
 50
285.3631940253
 51
1.6153846154
  0
LINE
  5
326
330
1F
100
AcDbEntity
  8
0
  6
Continuous
 62
     7
370
    25
100
AcDbLine
 10
44.9855959408
 20
-158.6916285154
 30
0.0
 11
45.0287118402
 21
-160.2204931929
 31
0.0
  0
ARC
  5
327
330
1F
100
AcDbEntity
  8
0
  6
Continuous
 62
     7
370
    25
100
AcDbCircle
 10
47.3346620078
 20
-158.6253819091
 30
0.0
 40
2.350000000000003
100
AcDbArc
 50
31.6153846154
 51
181.6153846154
  0
LINE
  5
328
330
1F
100
AcDbEntity
  8
0
  6
Continuous
 62
     7
370
    25
100
AcDbLine
 10
50.1376613968
 20
-158.6959553316
 30
0.0
 11
49.3358895939
 21
-157.3934776317
 31
0.0
  0
ARC
  5
329
330
1F
100
AcDbEntity
  8
0
  6
Continuous
 62
     7
370
    25
100
AcDbCircle
 10
50.9892476037
 20
-158.1717407455
 30
0.0
 40
0.9999999999999881
100
AcDbArc
 50
211.6153846154
 51
287.8675752054
  0
ARC
  5
32A
330
1F
100
AcDbEntity
  8
0
  6
Continuous
 62
     7
370
    25
100
AcDbCircle
 10
0.0
 20
0.0
 30
0.0
 40
167.1872526448735
100
AcDbArc
 50
287.8675752054
 51
288.1324247946
  0
ARC
  5
32B
330
1F
100
AcDbEntity
  8
0
  6
Continuous
 62
     7
370
    25
100
AcDbCircle
 10
51.7198486979
 20
-157.9343540599
 30
0.0
 40
0.9999999999999996
100
AcDbArc
 50
288.1324247946
 51
4.3846153846
  0
LINE
  5
32C
330
1F
100
AcDbEntity
  8
0
  6
Continuous
 62
     7
370
    25
100
AcDbLine
 10
52.5999918449
 20
-156.3329065198
 30
0.0
 11
52.7169220142
 21
-157.8579027554
 31
0.0
  0
ARC
  5
32D
330
1F
100
AcDbEntity
  8
0
  6
Continuous
 62
     7
370
    25
100
AcDbCircle
 10
54.9431141382
 20
-156.1532459541
 30
0.0
 40
2.349999999999982
100
AcDbArc
 50
34.3846153846
 51
184.3846153846
  0
LINE
  5
32E
330
1F
100
AcDbEntity
  8
0
  6
Continuous
 62
     7
370
    25
100
AcDbLine
 10
57.7462499003
 20
-156.0883145896
 30
0.0
 11
56.8824872854
 21
-154.8260941936
 31
0.0
  0
ARC
  5
32F
330
1F
100
AcDbEntity
  8
0
  6
Continuous
 62
     7
370
    25
100
AcDbCircle
 10
58.5715150693
 20
-155.5235691596
 30
0.0
 40
1.000000000000021
100
AcDbArc
 50
214.3846153846
 51
290.6368059747
  0
ARC
  5
330
330
1F
100
AcDbEntity
  8
0
  6
Continuous
 62
     7
370
    25
100
AcDbCircle
 10
0.0
 20
0.0
 30
0.0
 40
167.1872526448736
100
AcDbArc
 50
290.6368059747
 51
290.9016555638
  0
ARC
  5
331
330
1F
100
AcDbEntity
  8
0
  6
Continuous
 62
     7
370
    25
100
AcDbCircle
 10
59.2897940341
 20
-155.2511618798
 30
0.0
 40
0.9999999999999961
100
AcDbArc
 50
290.9016555638
 51
7.1538461538
  0
LINE
  5
332
330
1F
100
AcDbEntity
  8
0
  6
Continuous
 62
     7
370
    25
100
AcDbLine
 10
60.0915380308
 20
-153.6090617773
 30
0.0
 11
60.2820093741
 21
-155.1266278715
 31
0.0
  0
ARC
  5
333
330
1F
100
AcDbEntity
  8
0
  6
Continuous
 62
     7
370
    25
100
AcDbCircle
 10
62.4232440796
 20
-153.3164068578
 30
0.0
 40
2.350000000000006
100
AcDbArc
 50
37.1538461538
 51
187.1538461538
  0
LINE
  5
334
330
1F
100
AcDbEntity
  8
0
  6
Continuous
 62
     7
370
    25
100
AcDbLine
 10
65.2199693614
 20
-153.1161223564
 30
0.0
 11
64.2962332923
 21
-151.8971072385
 31
0.0
  0
ARC
  5
335
330
1F
100
AcDbEntity
  8
0
  6
Continuous
 62
     7
370
    25
100
AcDbCircle
 10
66.0169860476
 20
-152.5121650716
 30
0.0
 40
1.000000000000007
100
AcDbArc
 50
217.1538461538
 51
293.4060367439
  0
ARC
  5
336
330
1F
100
AcDbEntity
  8
0
  6
Continuous
 62
     7
370
    25
100
AcDbCircle
 10
0.0
 20
0.0
 30
0.0
 40
167.1872526448735
100
AcDbArc
 50
293.4060367439
 51
293.670886333
  0
ARC
  5
337
330
1F
100
AcDbEntity
  8
0
  6
Continuous
 62
     7
370
    25
100
AcDbCircle
 10
66.7212653092
 20
-152.2053734176
 30
0.0
 40
1.000000000000003
100
AcDbArc
 50
293.670886333
 51
9.9230769231
  0
LINE
  5
338
330
1F
100
AcDbEntity
  8
0
  6
Continuous
 62
     7
370
    25
100
AcDbLine
 10
67.4427376453
 20
-150.5264559535
 30
0.0
 11
67.7063053079
 21
-152.0330475605
 31
0.0
  0
ARC
  5
339
330
1F
100
AcDbEntity
  8
0
  6
Continuous
 62
     7
370
    25
100
AcDbCircle
 10
69.7575816422
 20
-150.1214901893
 30
0.0
 40
2.349999999999992
100
AcDbArc
 50
39.9230769231
 51
189.9230769231
  0
LINE
  5
33A
330
1F
100
AcDbEntity
  8
0
  6
Continuous
 62
     7
370
    25
100
AcDbLine
 10
72.541364562
 20
-149.7863203248
 30
0.0
 11
71.5598124671
 21
-148.6133575514
 31
0.0
  0
ARC
  5
33B
330
1F
100
AcDbEntity
  8
0
  6
Continuous
 62
     7
370
    25
100
AcDbCircle
 10
73.308271296
 20
-149.1445617555
 30
0.0
 40
1.000000000000042
100
AcDbArc
 50
219.9230769231
 51
296.1752675131
  0
ARC
  5
33C
330
1F
100
AcDbEntity
  8
0
  6
Continuous
 62
     7
370
    25
100
AcDbCircle
 10
0.0
 20
0.0
 30
0.0
 40
167.1872526448735
100
AcDbArc
 50
296.1752675131
 51
296.4401171023
  0
ARC
  5
33D
330
1F
100
AcDbEntity
  8
0
  6
Continuous
 62
     7
370
    25
100
AcDbCircle
 10
73.9969059776
 20
-148.8041022532
 30
0.0
 40
0.9999999999999953
100
AcDbArc
 50
296.4401171023
 51
12.6923076923
  0
LINE
  5
33E
330
1F
100
AcDbEntity
  8
0
  6
Continuous
 62
     7
370
    25
100
AcDbLine
 10
74.636421621
 20
-147.0922886171
 30
0.0
 11
74.9724700285
 21
-148.5843870223
 31
0.0
  0
ARC
  5
33F
330
1F
100
AcDbEntity
  8
0
  6
Continuous
 62
     7
370
    25
100
AcDbCircle
 10
76.9289971405
 20
-146.5759578245
 30
0.0
 40
2.35
100
AcDbArc
 50
42.6923076923
 51
192.6923076923
  0
LINE
  5
340
330
1F
100
AcDbEntity
  8
0
  6
Continuous
 62
     7
370
    25
100
AcDbLine
 10
79.6933360445
 20
-146.1066854017
 30
0.0
 11
78.6562603842
 21
-144.9825144815
 31
0.0
  0
ARC
  5
341
330
1F
100
AcDbEntity
  8
0
  6
Continuous
 62
     7
370
    25
100
AcDbCircle
 10
80.4283416801
 20
-145.4286244047
 30
0.0
 40
1.000000000000024
100
AcDbArc
 50
222.6923076923
 51
298.9444982823
  0
ARC
  5
342
330
1F
100
AcDbEntity
  8
0
  6
Continuous
 62
     7
370
    25
100
AcDbCircle
 10
0.0
 20
0.0
 30
0.0
 40
167.1872526448736
100
AcDbArc
 50
298.9444982823
 51
299.2093478715
  0
ARC
  5
343
330
1F
100
AcDbEntity
  8
0
  6
Continuous
 62
     7
370
    25
100
AcDbCircle
 10
81.0997234435
 20
-145.0552922132
 30
0.0
 40
1.000000000000002
100
AcDbArc
 50
299.2093478715
 51
15.4615384615
  0
LINE
  5
344
330
1F
100
AcDbEntity
  8
0
  6
Continuous
 62
     7
370
    25
100
AcDbLine
 10
81.6557887758
 20
-143.3145804251
 30
0.0
 11
82.0635330714
 21
-144.7887007636
 31
0.0
  0
ARC
  5
345
330
1F
100
AcDbEntity
  8
0
  6
Continuous
 62
     7
370
    25
100
AcDbCircle
 10
83.9207414015
 20
-142.6880905185
 30
0.0
 40
2.349999999999981
100
AcDbArc
 50
45.4615384615
 51
195.4615384615
  0
LINE
  5
346
330
1F
100
AcDbEntity
  8
0
  6
Continuous
 62
     7
370
    25
100
AcDbLine
 10
86.6591800481
 20
-142.0858115449
 30
0.0
 11
85.5690029606
 21
-141.0130580314
 31
0.0
  0
ARC
  5
347
330
1F
100
AcDbEntity
  8
0
  6
Continuous
 62
     7
370
    25
100
AcDbCircle
 10
87.3605679455
 20
-141.3730317631
 30
0.0
 40
1.000000000000042
100
AcDbArc
 50
225.4615384615
 51
301.7137290516
  0
ARC
  5
348
330
1F
100
AcDbEntity
  8
0
  6
Continuous
 62
     7
370
    25
100
AcDbCircle
 10
0.0
 20
0.0
 30
0.0
 40
167.1872526448736
100
AcDbArc
 50
301.7137290516
 51
301.9785786407
  0
ARC
  5
349
330
1F
100
AcDbEntity
  8
0
  6
Continuous
 62
     7
370
    25
100
AcDbCircle
 10
88.0131287474
 20
-140.9676988169
 30
0.0
 40
1.000000000000004
100
AcDbArc
 50
301.9785786407
 51
18.2307692308
  0
LINE
  5
34A
330
1F
100
AcDbEntity
  8
0
  6
Continuous
 62
     7
370
    25
100
AcDbLine
 10
88.4844450523
 20
-139.20215439
 30
0.0
 11
88.9629329305
 21
-140.6548537853
 31
0.0
  0
ARC
  5
34B
330
1F
100
AcDbEntity
  8
0
  6
Continuous
 62
     7
370
    25
100
AcDbCircle
 10
90.7164848825
 20
-138.4669685657
 30
0.0
 40
2.350000000000011
100
AcDbArc
 50
48.2307692308
 51
198.2307692308
  0
LINE
  5
34C
330
1F
100
AcDbEntity
  8
0
  6
Continuous
 62
     7
370
    25
100
AcDbLine
 10
93.4226275212
 20
-137.7330896916
 30
0.0
 11
92.2818951656
 21
-136.7142590502
 31
0.0
  0
ARC
  5
34D
330
1F
100
AcDbEntity
  8
0
  6
Continuous
 62
     7
370
    25
100
AcDbCircle
 10
94.0887595566
 20
-136.9872558552
 30
0.0
 40
0.9999999999999991
100
AcDbArc
 50
228.2307692308
 51
304.4829598208
  0
ARC
  5
34E
330
1F
100
AcDbEntity
  8
0
  6
Continuous
 62
     7
370
    25
100
AcDbCircle
 10
0.0
 20
0.0
 30
0.0
 40
167.1872526448735
100
AcDbArc
 50
304.4829598208
 51
304.74780941
  0
ARC
  5
34F
330
1F
100
AcDbEntity
  8
0
  6
Continuous
 62
     7
370
    25
100
AcDbCircle
 10
94.720975311
 20
-136.5508688284
 30
0.0
 40
1.000000000000003
100
AcDbArc
 50
304.74780941
 51
21.0
  0
LINE
  5
350
330
1F
100
AcDbEntity
  8
0
  6
Continuous
 62
     7
370
    25
100
AcDbLine
 10
95.1064418074
 20
-134.7646152733
 30
0.0
 11
95.6545557375
 21
-136.1925008788
 31
0.0
  0
ARC
  5
351
330
1F
100
AcDbEntity
  8
0
  6
Continuous
 62
     7
370
    25
100
AcDbCircle
 10
97.3003558097
 20
-133.9224505918
 30
0.0
 40
2.349999999999989
100
AcDbArc
 50
51.0
 51
201.0
  0
LINE
  5
352
330
1F
100
AcDbEntity
  8
0
  6
Continuous
 62
     7
370
    25
100
AcDbLine
 10
99.9678821191
 20
-133.0586858255
 30
0.0
 11
98.7792587286
 21
-132.0961575824
 31
0.0
  0
ARC
  5
353
330
1F
100
AcDbEntity
  8
0
  6
Continuous
 62
     7
370
    25
100
AcDbCircle
 10
100.5972025101
 20
-132.281539864
 30
0.0
 40
0.9999999999999922
100
AcDbArc
 50
231.0
 51
307.25219059
  0
ARC
  5
354
330
1F
100
AcDbEntity
  8
0
  6
Continuous
 62
     7
370
    25
100
AcDbCircle
 10
0.0
 20
0.0
 30
0.0
 40
167.1872526448735
100
AcDbArc
 50
307.25219059
 51
307.5170401792
  0
ARC
  5
355
330
1F
100
AcDbEntity
  8
0
  6
Continuous
 62
     7
370
    25
100
AcDbCircle
 10
101.2075966479
 20
-131.8151179585
 30
0.0
 40
1.000000000000004
100
AcDbArc
 50
307.5170401792
 51
23.7692307692
  0
LINE
  5
356
330
1F
100
AcDbEntity
  8
0
  6
Continuous
 62
     7
370
    25
100
AcDbLine
 10
101.5063130609
 20
-130.0123271532
 30
0.0
 11
102.1227728974
 21
-131.412064076
 31
0.0
  0
ARC
  5
357
330
1F
100
AcDbEntity
  8
0
  6
Continuous
 62
     7
370
    25
100
AcDbCircle
 10
103.6569772474
 20
-129.0651505293
 30
0.0
 40
2.350000000000014
100
AcDbArc
 50
53.7692307692
 51
203.7692307692
  0
LINE
  5
358
330
1F
100
AcDbEntity
  8
0
  6
Continuous
 62
     7
370
    25
100
AcDbLine
 10
106.2796570961
 20
-128.0735172332
 30
0.0
 11
105.0459187559
 21
-127.1695394178
 31
0.0
  0
ARC
  5
359
330
1F
100
AcDbEntity
  8
0
  6
Continuous
 62
     7
370
    25
100
AcDbCircle
 10
106.8706960359
 20
-127.2668742071
 30
0.0
 40
1.000000000000013
100
AcDbArc
 50
233.7692307692
 51
310.0214213593
  0
ARC
  5
35A
330
1F
100
AcDbEntity
  8
0
  6
Continuous
 62
     7
370
    25
100
AcDbCircle
 10
0.0
 20
0.0
 30
0.0
 40
167.1872526448736
100
AcDbArc
 50
310.0214213593
 51
310.2862709484
  0
ARC
  5
35B
330
1F
100
AcDbEntity
  8
0
  6
Continuous
 62
     7
370
    25
100
AcDbCircle
 10
107.4578429533
 20
-126.7715067729
 30
0.0
 40
1.000000000000004
100
AcDbArc
 50
310.2862709484
 51
26.5384615385
  0
LINE
  5
35C
330
1F
100
AcDbEntity
  8
0
  6
Continuous
 62
     7
370
    25
100
AcDbLine
 10
107.6691116169
 20
-124.956389219
 30
0.0
 11
108.3524775894
 21
-126.3247083084
 31
0.0
  0
ARC
  5
35D
330
1F
100
AcDbEntity
  8
0
  6
Continuous
 62
     7
370
    25
100
AcDbCircle
 10
109.7715030117
 20
-123.9064128274
 30
0.0
 40
2.350000000000007
100
AcDbArc
 50
56.5384615385
 51
206.5384615385
  0
LINE
  5
35E
330
1F
100
AcDbEntity
  8
0
  6
Continuous
 62
     7
370
    25
100
AcDbLine
 10
112.3432110096
 20
-122.7892270072
 30
0.0
 11
111.0672391726
 21
-121.9459109015
 31
0.0
  0
ARC
  5
35F
330
1F
100
AcDbEntity
  8
0
  6
Continuous
 62
     7
370
    25
100
AcDbCircle
 10
112.8945880993
 20
-121.9549708685
 30
0.0
 40
1.00000000000005
100
AcDbArc
 50
236.5384615385
 51
312.7906521285
  0
ARC
  5
360
330
1F
100
AcDbEntity
  8
0
  6
Continuous
 62
     7
370
    25
100
AcDbCircle
 10
0.0
 20
0.0
 30
0.0
 40
167.1872526448736
100
AcDbArc
 50
312.7906521285
 51
313.0555017177
  0
ARC
  5
361
330
1F
100
AcDbEntity
  8
0
  6
Continuous
 62
     7
370
    25
100
AcDbCircle
 10
113.4571164874
 20
-121.4318148593
 30
0.0
 40
0.9999999999999942
100
AcDbArc
 50
313.0555017177
 51
29.3076923077
  0
LINE
  5
362
330
1F
100
AcDbEntity
  8
0
  6
Continuous
 62
     7
370
    25
100
AcDbLine
 10
113.5804439738
 20
-119.6086098478
 30
0.0
 11
114.3291200494
 21
-120.9423153314
 31
0.0
  0
ARC
  5
363
330
1F
100
AcDbEntity
  8
0
  6
Continuous
 62
     7
370
    25
100
AcDbCircle
 10
115.6296523445
 20
-118.4582859571
 30
0.0
 40
2.349999999999992
100
AcDbArc
 50
59.3076923077
 51
209.3076923077
  0
LINE
  5
364
330
1F
100
AcDbEntity
  8
0
  6
Continuous
 62
     7
370
    25
100
AcDbLine
 10
118.1443821482
 20
-117.218156852
 30
0.0
 11
116.8291569058
 21
-116.4374720598
 31
0.0
  0
ARC
  5
365
330
1F
100
AcDbEntity
  8
0
  6
Continuous
 62
     7
370
    25
100
AcDbCircle
 10
118.6548096211
 20
-116.3582360447
 30
0.0
 40
1.000000000000027
100
AcDbArc
 50
239.3076923077
 51
315.5598828977
  0
ARC
  5
366
330
1F
100
AcDbEntity
  8
0
  6
Continuous
 62
     7
370
    25
100
AcDbCircle
 10
0.0
 20
0.0
 30
0.0
 40
167.1872526448735
100
AcDbArc
 50
315.5598828977
 51
315.8247324869
  0
ARC
  5
367
330
1F
100
AcDbEntity
  8
0
  6
Continuous
 62
     7
370
    25
100
AcDbCircle
 10
119.1914056688
 20
-115.8085133155
 30
0.0
 40
0.9999999999999688
100
AcDbArc
 50
315.8247324869
 51
32.0769230769
  0
LINE
  5
368
330
1F
100
AcDbEntity
  8
0
  6
Continuous
 62
     7
370
    25
100
AcDbLine
 10
119.2265039411
 20
-113.9814790262
 30
0.0
 11
120.038741552
 21
-115.2774559729
 31
0.0
  0
ARC
  5
369
330
1F
100
AcDbEntity
  8
0
  6
Continuous
 62
     7
370
    25
100
AcDbCircle
 10
121.2177432665
 20
-112.7334942712
 30
0.0
 40
2.349999999999971
100
AcDbArc
 50
62.0769230769
 51
212.0769230769
  0
LINE
  5
36A
330
1F
100
AcDbEntity
  8
0
  6
Continuous
 62
     7
370
    25
100
AcDbLine
 10
123.6696216081
 20
-111.3733182601
 30
0.0
 11
122.3182147298
 21
-110.657088107
 31
0.0
  0
ARC
  5
36B
330
1F
100
AcDbEntity
  8
0
  6
Continuous
 62
     7
370
    25
100
AcDbCircle
 10
124.1379073372
 20
-110.489741169
 30
0.0
 40
1.000000000000047
100
AcDbArc
 50
242.0769230769
 51
318.329113667
  0
ARC
  5
36C
330
1F
100
AcDbEntity
  8
0
  6
Continuous
 62
     7
370
    25
100
AcDbCircle
 10
0.0
 20
0.0
 30
0.0
 40
167.1872526448736
100
AcDbArc
 50
318.329113667
 51
318.5939632561
  0
ARC
  5
36D
330
1F
100
AcDbEntity
  8
0
  6
Continuous
 62
     7
370
    25
100
AcDbCircle
 10
124.6473177996
 20
-109.9147356228
 30
0.0
 40
0.9999999999999771
100
AcDbArc
 50
318.5939632561
 51
34.8461538462
  0
LINE
  5
36E
330
1F
100
AcDbEntity
  8
0
  6
Continuous
 62
     7
370
    25
100
AcDbLine
 10
124.594104884
 20
-108.088139179
 30
0.0
 11
125.4680070117
 21
-109.3433607746
 31
0.0
  0
ARC
  5
36F
330
1F
100
AcDbEntity
  8
0
  6
Continuous
 62
     7
370
    25
100
AcDbCircle
 10
126.5227245324
 20
-106.7454082858
 30
0.0
 40
2.349999999999969
100
AcDbArc
 50
64.8461538462
 51
214.8461538462
  0
LINE
  5
370
330
1F
100
AcDbEntity
  8
0
  6
Continuous
 62
     7
370
    25
100
AcDbLine
 10
128.9060249365
 20
-105.268362123
 30
0.0
 11
127.5215926957
 21
-104.6182593976
 31
0.0
  0
ARC
  5
371
330
1F
100
AcDbEntity
  8
0
  6
Continuous
 62
     7
370
    25
100
AcDbCircle
 10
129.3310752187
 20
-104.3631923833
 30
0.0
 40
1.000000000000059
100
AcDbArc
 50
244.8461538462
 51
321.0983444362
  0
ARC
  5
372
330
1F
100
AcDbEntity
  8
0
  6
Continuous
 62
     7
370
    25
100
AcDbCircle
 10
0.0
 20
0.0
 30
0.0
 40
167.1872526448736
100
AcDbArc
 50
321.0983444362
 51
321.3631940253
  0
ARC
  5
373
330
1F
100
AcDbEntity
  8
0
  6
Continuous
 62
     7
370
    25
100
AcDbCircle
 10
129.812110344
 20
-103.7642469721
 30
0.0
 40
0.9999999999999599
100
AcDbArc
 50
321.3631940253
 51
37.6153846154
  0
LINE
  5
374
330
1F
100
AcDbEntity
  8
0
  6
Continuous
 62
     7
370
    25
100
AcDbLine
 10
129.6707105218
 20
-101.9423544744
 30
0.0
 11
130.6042361274
 21
-103.1538890908
 31
0.0
  0
ARC
  5
375
330
1F
100
AcDbEntity
  8
0
  6
Continuous
 62
     7
370
    25
100
AcDbCircle
 10
131.5322061128
 20
-100.5080134533
 30
0.0
 40
2.350000000000015
100
AcDbArc
 50
67.6153846154
 51
217.6153846154
  0
LINE
  5
376
330
1F
100
AcDbEntity
  8
0
  6
Continuous
 62
     7
370
    25
100
AcDbLine
 10
133.8413622707
 20
-98.9175468484
 30
0.0
 11
132.427138073
 21
-98.3350898958
 31
0.0
  0
ARC
  5
377
330
1F
100
AcDbEntity
  8
0
  6
Continuous
 62
     7
370
    25
100
AcDbCircle
 10
134.2221843814
 20
-97.9928985261
 30
0.0
 40
0.999999999999999
100
AcDbArc
 50
247.6153846154
 51
323.8675752054
  0
ARC
  5
378
330
1F
100
AcDbEntity
  8
0
  6
Continuous
 62
     7
370
    25
100
AcDbCircle
 10
0.0
 20
0.0
 30
0.0
 40
167.1872526448735
100
AcDbArc
 50
323.8675752054
 51
324.1324247946
  0
ARC
  5
379
330
1F
100
AcDbEntity
  8
0
  6
Continuous
 62
     7
370
    25
100
AcDbCircle
 10
134.6737206898
 20
-97.3714121147
 30
0.0
 40
0.9999999999999833
100
AcDbArc
 50
324.1324247946
 51
40.3846153846
  0
LINE
  5
37A
330
1F
100
AcDbEntity
  8
0
  6
Continuous
 62
     7
370
    25
100
AcDbLine
 10
134.4444642069
 20
-95.5584786774
 30
0.0
 11
135.435432998
 21
-96.7234967193
 31
0.0
  0
ARC
  5
37B
330
1F
100
AcDbEntity
  8
0
  6
Continuous
 62
     7
370
    25
100
AcDbCircle
 10
136.2344881311
 20
-94.0358774983
 30
0.0
 40
2.349999999999986
100
AcDbArc
 50
70.3846153846
 51
220.3846153846
  0
LINE
  5
37C
330
1F
100
AcDbEntity
  8
0
  6
Continuous
 62
     7
370
    25
100
AcDbLine
 10
138.4641069017
 20
-92.3357050598
 30
0.0
 11
137.0233937333
 21
-91.8222542352
 31
0.0
  0
ARC
  5
37D
330
1F
100
AcDbEntity
  8
0
  6
Continuous
 62
     7
370
    25
100
AcDbCircle
 10
138.7998114133
 20
-91.3937377138
 30
0.0
 40
1.000000000000004
100
AcDbArc
 50
250.3846153846
 51
326.6368059747
  0
ARC
  5
37E
330
1F
100
AcDbEntity
  8
0
  6
Continuous
 62
     7
370
    25
100
AcDbCircle
 10
0.0
 20
0.0
 30
0.0
 40
167.1872526448735
100
AcDbArc
 50
326.6368059747
 51
326.9016555638
  0
ARC
  5
37F
330
1F
100
AcDbEntity
  8
0
  6
Continuous
 62
     7
370
    25
100
AcDbCircle
 10
139.2207943209
 20
-90.7511618125
 30
0.0
 40
0.9999999999999905
100
AcDbArc
 50
326.9016555638
 51
43.1538461538
  0
LINE
  5
380
330
1F
100
AcDbEntity
  8
0
  6
Continuous
 62
     7
370
    25
100
AcDbLine
 10
138.9042166163
 20
-88.9514216258
 30
0.0
 11
139.9503141394
 21
-90.0672021395
 31
0.0
  0
ARC
  5
381
330
1F
100
AcDbEntity
  8
0
  6
Continuous
 62
     7
370
    25
100
AcDbCircle
 10
140.6185881899
 20
-87.3441163942
 30
0.0
 40
2.350000000000005
100
AcDbArc
 50
73.1538461538
 51
223.1538461538
  0
LINE
  5
382
330
1F
100
AcDbEntity
  8
0
  6
Continuous
 62
     7
370
    25
100
AcDbLine
 10
142.7634621953
 20
-85.5382089536
 30
0.0
 11
141.2996249085
 21
-85.0949634452
 31
0.0
  0
ARC
  5
383
330
1F
100
AcDbEntity
  8
0
  6
Continuous
 62
     7
370
    25
100
AcDbCircle
 10
143.0532650542
 20
-84.5811225923
 30
0.0
 40
1.000000000000012
100
AcDbArc
 50
253.1538461538
 51
329.4060367439
  0
ARC
  5
384
330
1F
100
AcDbEntity
  8
0
  6
Continuous
 62
     7
370
    25
100
AcDbCircle
 10
0.0
 20
0.0
 30
0.0
 40
167.1872526448735
100
AcDbArc
 50
329.4060367439
 51
329.670886333
  0
ARC
  5
385
330
1F
100
AcDbEntity
  8
0
  6
Continuous
 62
     7
370
    25
100
AcDbCircle
 10
143.4427113359
 20
-83.918957967
 30
0.0
 40
0.9999999999999805
100
AcDbArc
 50
329.670886333
 51
45.9230769231
  0
LINE
  5
386
330
1F
100
AcDbEntity
  8
0
  6
Continuous
 62
     7
370
    25
100
AcDbLine
 10
143.0395517916
 20
-82.1366144073
 30
0.0
 11
144.1383348375
 21
-83.2005514358
 31
0.0
  0
ARC
  5
387
330
1F
100
AcDbEntity
  8
0
  6
Continuous
 62
     7
370
    25
100
AcDbCircle
 10
144.6742670204
 20
-80.4483590592
 30
0.0
 40
2.349999999999997
100
AcDbArc
 50
75.9230769231
 51
225.9230769231
  0
LINE
  5
388
330
1F
100
AcDbEntity
  8
0
  6
Continuous
 62
     7
370
    25
100
AcDbLine
 10
146.7293868079
 20
-78.5409343969
 30
0.0
 11
145.2458442625
 21
-78.1689294252
 31
0.0
  0
ARC
  5
389
330
1F
100
AcDbEntity
  8
0
  6
Continuous
 62
     7
370
    25
100
AcDbCircle
 10
146.9726111663
 20
-77.5709643399
 30
0.0
 40
1.000000000000014
100
AcDbArc
 50
255.9230769231
 51
332.1752675131
  0
ARC
  5
38A
330
1F
100
AcDbEntity
  8
0
  6
Continuous
 62
     7
370
    25
100
AcDbCircle
 10
0.0
 20
0.0
 30
0.0
 40
167.1872526448735
100
AcDbArc
 50
332.1752675131
 51
332.4401171023
  0
ARC
  5
38B
330
1F
100
AcDbEntity
  8
0
  6
Continuous
 62
     7
370
    25
100
AcDbCircle
 10
147.3296112521
 20
-76.8907575066
 30
0.0
 40
1.000000000000009
100
AcDbArc
 50
332.4401171023
 51
48.6923076923
  0
LINE
  5
38C
330
1F
100
AcDbEntity
  8
0
  6
Continuous
 62
     7
370
    25
100
AcDbLine
 10
146.8408114659
 20
-75.12997332
 30
0.0
 11
147.9897137759
 21
-76.1395819892
 31
0.0
  0
ARC
  5
38D
330
1F
100
AcDbEntity
  8
0
  6
Continuous
 62
     7
370
    25
100
AcDbCircle
 10
148.3920523968
 20
-73.3647108539
 30
0.0
 40
2.350000000000012
100
AcDbArc
 50
78.6923076923
 51
228.6923076923
  0
LINE
  5
38E
330
1F
100
AcDbEntity
  8
0
  6
Continuous
 62
     7
370
    25
100
AcDbLine
 10
150.3526181389
 20
-71.3602238488
 30
0.0
 11
148.8528352173
 21
-71.0603282485
 31
0.0
  0
ARC
  5
38F
330
1F
100
AcDbEntity
  8
0
  6
Continuous
 62
     7
370
    25
100
AcDbCircle
 10
150.5486959349
 20
-70.379635506
 30
0.0
 40
1.000000000000022
100
AcDbArc
 50
258.6923076923
 51
334.9444982823
  0
ARC
  5
390
330
1F
100
AcDbEntity
  8
0
  6
Continuous
 62
     7
370
    25
100
AcDbCircle
 10
0.0
 20
0.0
 30
0.0
 40
167.1872526448735
100
AcDbArc
 50
334.9444982823
 51
335.2093478715
  0
ARC
  5
391
330
1F
100
AcDbEntity
  8
0
  6
Continuous
 62
     7
370
    25
100
AcDbCircle
 10
150.8724160347
 20
-69.6829751194
 30
0.0
 40
0.9999999999999944
100
AcDbArc
 50
335.2093478715
 51
51.4615384615
  0
LINE
  5
392
330
1F
100
AcDbEntity
  8
0
  6
Continuous
 62
     7
370
    25
100
AcDbLine
 10
150.2991176211
 20
-67.9478626989
 30
0.0
 11
151.4954558807
 21
-68.9007850208
 31
0.0
  0
ARC
  5
393
330
1F
100
AcDbEntity
  8
0
  6
Continuous
 62
     7
370
    25
100
AcDbCircle
 10
151.763261259
 20
-66.1097159671
 30
0.0
 40
2.350000000000015
100
AcDbArc
 50
81.4615384615
 51
231.4615384615
  0
LINE
  5
394
330
1F
100
AcDbEntity
  8
0
  6
Continuous
 62
     7
370
    25
100
AcDbLine
 10
153.6246939636
 20
-64.0128481913
 30
0.0
 11
152.1121734783
 21
-63.7857623826
 31
0.0
  0
ARC
  5
395
330
1F
100
AcDbEntity
  8
0
  6
Continuous
 62
     7
370
    25
100
AcDbCircle
 10
153.7731672484
 20
-63.0239317724
 30
0.0
 40
1.000000000000012
100
AcDbArc
 50
261.4615384615
 51
337.7137290516
  0
ARC
  5
396
330
1F
100
AcDbEntity
  8
0
  6
Continuous
 62
     7
370
    25
100
AcDbCircle
 10
0.0
 20
0.0
 30
0.0
 40
167.1872526448736
100
AcDbArc
 50
337.7137290516
 51
337.9785786407
  0
ARC
  5
397
330
1F
100
AcDbEntity
  8
0
  6
Continuous
 62
     7
370
    25
100
AcDbCircle
 10
154.062851299
 20
-62.312444915
 30
0.0
 40
1.000000000000027
100
AcDbArc
 50
337.9785786407
 51
54.2307692308
  0
LINE
  5
398
330
1F
100
AcDbEntity
  8
0
  6
Continuous
 62
     7
370
    25
100
AcDbLine
 10
153.4063932229
 20
-60.6070566961
 30
0.0
 11
154.6473733286
 21
-61.5010670764
 31
0.0
  0
ARC
  5
399
330
1F
100
AcDbEntity
  8
0
  6
Continuous
 62
     7
370
    25
100
AcDbCircle
 10
154.7800199925
 20
-58.7003187755
 30
0.0
 40
2.35
100
AcDbArc
 50
84.2307692308
 51
234.2307692308
  0
LINE
  5
39A
330
1F
100
AcDbEntity
  8
0
  6
Continuous
 62
     7
370
    25
100
AcDbLine
 10
156.5379721972
 20
-56.5159675609
 30
0.0
 11
155.0162467099
 21
-56.3622219131
 31
0.0
  0
ARC
  5
39B
330
1F
100
AcDbEntity
  8
0
  6
Continuous
 62
     7
370
    25
100
AcDbCircle
 10
156.6384942047
 20
-55.5210327258
 30
0.0
 40
1.000000000000002
100
AcDbArc
 50
264.2307692308
 51
340.4829598208
  0
ARC
  5
39C
330
1F
100
AcDbEntity
  8
0
  6
Continuous
 62
     7
370
    25
100
AcDbCircle
 10
0.0
 20
0.0
 30
0.0
 40
167.1872526448736
100
AcDbArc
 50
340.4829598208
 51
340.74780941
  0
ARC
  5
39D
330
1F
100
AcDbEntity
  8
0
  6
Continuous
 62
     7
370
    25
100
AcDbCircle
 10
156.8934656354
 20
-54.7963811082
 30
0.0
 40
0.9999999999999861
100
AcDbArc
 50
340.74780941
 51
57.0
  0
LINE
  5
39E
330
1F
100
AcDbEntity
  8
0
  6
Continuous
 62
     7
370
    25
100
AcDbLine
 10
156.1553810852
 20
-53.1247001041
 30
0.0
 11
157.4381046704
 21
-53.9577105403
 31
0.0
  0
ARC
  5
39F
330
1F
100
AcDbEntity
  8
0
  6
Continuous
 62
     7
370
    25
100
AcDbCircle
 10
157.4352828175
 20
-51.1538242694
 30
0.0
 40
2.350000000000009
100
AcDbArc
 50
87.0
 51
237.0
  0
LINE
  5
3A0
330
1F
100
AcDbEntity
  8
0
  6
Continuous
 62
     7
370
    25
100
AcDbLine
 10
159.0856487436
 20
-48.8870912695
 30
0.0
 11
157.5582723147
 21
-48.8070448627
 31
0.0
  0
ARC
  5
3A1
330
1F
100
AcDbEntity
  8
0
  6
Continuous
 62
     7
370
    25
100
AcDbCircle
 10
159.1379846999
 20
-47.8884617347
 30
0.0
 40
1.000000000000003
100
AcDbArc
 50
267.0
 51
343.25219059
  0
ARC
  5
3A2
330
1F
100
AcDbEntity
  8
0
  6
Continuous
 62
     7
370
    25
100
AcDbCircle
 10
0.0
 20
0.0
 30
0.0
 40
167.1872526448736
100
AcDbArc
 50
343.25219059
 51
343.5170401792
  0
ARC
  5
3A3
330
1F
100
AcDbEntity
  8
0
  6
Continuous
 62
     7
370
    25
100
AcDbCircle
 10
159.3576480132
 20
-47.1523378144
 30
0.0
 40
1.000000000000052
100
AcDbArc
 50
343.5170401792
 51
59.7692307692
  0
LINE
  5
3A4
330
1F
100
AcDbEntity
  8
0
  6
Continuous
 62
     7
370
    25
100
AcDbLine
 10
158.5396608195
 20
-45.5182683134
 30
0.0
 11
159.8611320239
 21
-46.288333271
 31
0.0
  0
ARC
  5
3A5
330
1F
100
AcDbEntity
  8
0
  6
Continuous
 62
     7
370
    25
100
AcDbCircle
 10
159.7228482447
 20
-43.4878576365
 30
0.0
 40
2.350000000000001
100
AcDbArc
 50
89.7692307692
 51
239.7692307692
  0
LINE
  5
3A6
330
1F
100
AcDbEntity
  8
0
  6
Continuous
 62
     7
370
    25
100
AcDbLine
 10
161.261773386
 20
-41.1440369113
 30
0.0
 11
159.7323132739
 21
-41.1378766976
 31
0.0
  0
ARC
  5
3A7
330
1F
100
AcDbEntity
  8
0
  6
Continuous
 62
     7
370
    25
100
AcDbCircle
 10
161.265801058
 20
-40.1440450224
 30
0.0
 40
1.000000000000003
100
AcDbArc
 50
269.7692307692
 51
346.0214213593
  0
ARC
  5
3A8
330
1F
100
AcDbEntity
  8
0
  6
Continuous
 62
     7
370
    25
100
AcDbCircle
 10
0.0
 20
0.0
 30
0.0
 40
167.1872526448735
100
AcDbArc
 50
346.0214213593
 51
346.2862709484
  0
ARC
  5
3A9
330
1F
100
AcDbEntity
  8
0
  6
Continuous
 62
     7
370
    25
100
AcDbCircle
 10
161.4496432201
 20
-39.3981680507
 30
0.0
 40
1.000000000000007
100
AcDbArc
 50
346.2862709484
 51
62.5384615385
  0
LINE
  5
3AA
330
1F
100
AcDbEntity
  8
0
  6
Continuous
 62
     7
370
    25
100
AcDbLine
 10
160.55366383
 20
-37.805526498
 30
0.0
 11
161.9107962963
 21
-38.5108474546
 31
0.0
  0
ARC
  5
3AB
330
1F
100
AcDbEntity
  8
0
  6
Continuous
 62
     7
370
    25
100
AcDbCircle
 10
161.637373559
 20
-35.7203230971
 30
0.0
 40
2.349999999999999
100
AcDbArc
 50
92.5384615385
 51
242.5384615385
  0
LINE
  5
3AC
330
1F
100
AcDbEntity
  8
0
  6
Continuous
 62
     7
370
    25
100
AcDbLine
 10
163.0612636846
 20
-33.3048887484
 30
0.0
 11
161.5332920142
 21
-33.3726291154
 31
0.0
  0
ARC
  5
3AD
330
1F
100
AcDbEntity
  8
0
  6
Continuous
 62
     7
370
    25
100
AcDbCircle
 10
163.0169736656
 20
-32.3058700327
 30
0.0
 40
1.000000000000009
100
AcDbArc
 50
272.5384615385
 51
348.7906521285
  0
ARC
  5
3AE
330
1F
100
AcDbEntity
  8
0
  6
Continuous
 62
     7
370
    25
100
AcDbCircle
 10
0.0
 20
0.0
 30
0.0
 40
167.1872526448735
100
AcDbArc
 50
348.7906521285
 51
349.0555017177
  0
ARC
  5
3AF
330
1F
100
AcDbEntity
  8
0
  6
Continuous
 62
     7
370
    25
100
AcDbCircle
 10
163.1645653045
 20
-31.5519820401
 30
0.0
 40
1.000000000000003
100
AcDbArc
 50
349.0555017177
 51
65.3076923077
  0
LINE
  5
3B0
330
1F
100
AcDbEntity
  8
0
  6
Continuous
 62
     7
370
    25
100
AcDbLine
 10
162.1926863192
 20
-30.0044881238
 30
0.0
 11
163.5823104017
 21
-30.6434177695
 31
0.0
  0
ARC
  5
3B1
330
1F
100
AcDbEntity
  8
0
  6
Continuous
 62
     7
370
    25
100
AcDbCircle
 10
163.1743872978
 20
-27.869362088
 30
0.0
 40
2.350000000000007
100
AcDbArc
 50
95.3076923077
 51
245.3076923077
  0
LINE
  5
3B2
330
1F
100
AcDbEntity
  8
0
  6
Continuous
 62
     7
370
    25
100
AcDbLine
 10
164.4799168464
 20
-25.3879554747
 30
0.0
 11
162.9570022663
 21
-25.5294382115
 31
0.0
  0
ARC
  5
3B3
330
1F
100
AcDbEntity
  8
0
  6
Continuous
 62
     7
370
    25
100
AcDbCircle
 10
164.3874125776
 20
-24.3922431868
 30
0.0
 40
1.000000000000004
100
AcDbArc
 50
275.3076923077
 51
351.5598828977
  0
ARC
  5
3B4
330
1F
100
AcDbEntity
  8
0
  6
Continuous
 62
     7
370
    25
100
AcDbCircle
 10
0.0
 20
0.0
 30
0.0
 40
167.1872526448736
100
AcDbArc
 50
351.5598828977
 51
351.8247324869
  0
ARC
  5
3B5
330
1F
100
AcDbEntity
  8
0
  6
Continuous
 62
     7
370
    25
100
AcDbCircle
 10
164.4984089863
 20
-23.6321049134
 30
0.0
 40
1.000000000000001
100
AcDbArc
 50
351.8247324869
 51
68.0769230769
  0
LINE
  5
3B6
330
1F
100
AcDbEntity
  8
0
  6
Continuous
 62
     7
370
    25
100
AcDbLine
 10
163.4529002743
 20
-22.1333728772
 30
0.0
 11
164.8717704416
 21
-22.7044189624
 31
0.0
  0
ARC
  5
3B7
330
1F
100
AcDbEntity
  8
0
  6
Continuous
 62
     7
370
    25
100
AcDbCircle
 10
164.3302996944
 20
-19.9533108924
 30
0.0
 40
2.349999999999997
100
AcDbArc
 50
98.0769230769
 51
248.0769230769
  0
LINE
  5
3B8
330
1F
100
AcDbEntity
  8
0
  6
Continuous
 62
     7
370
    25
100
AcDbLine
 10
165.5144195411
 20
-17.4117274545
 30
0.0
 11
164.000118889
 21
-17.6266221217
 31
0.0
  0
ARC
  5
3B9
330
1F
100
AcDbEntity
  8
0
  6
Continuous
 62
     7
370
    25
100
AcDbCircle
 10
165.3739170707
 20
-16.4216471266
 30
0.0
 40
1.000000000000005
100
AcDbArc
 50
278.0769230769
 51
354.329113667
  0
ARC
  5
3BA
330
1F
100
AcDbEntity
  8
0
  6
Continuous
 62
     7
370
    25
100
AcDbCircle
 10
0.0
 20
0.0
 30
0.0
 40
167.1872526448735
100
AcDbArc
 50
354.329113667
 51
354.5939632561
  0
ARC
  5
3BB
330
1F
100
AcDbEntity
  8
0
  6
Continuous
 62
     7
370
    25
100
AcDbCircle
 10
165.4480590118
 20
-15.6570339107
 30
0.0
 40
0.9999999999999998
100
AcDbArc
 50
354.5939632561
 51
70.8461538462
  0
LINE
  5
3BC
330
1F
100
AcDbEntity
  8
0
  6
Continuous
 62
     7
370
    25
100
AcDbLine
 10
164.3313624072
 20
-14.2105641128
 30
0.0
 11
165.7761648222
 21
-14.7123929328
 31
0.0
  0
ARC
  5
3BD
330
1F
100
AcDbEntity
  8
0
  6
Continuous
 62
     7
370
    25
100
AcDbCircle
 10
165.1024110617
 20
-11.9906578147
 30
0.0
 40
2.35
100
AcDbArc
 50
100.8461538462
 51
250.8461538462
  0
LINE
  5
3BE
330
1F
100
AcDbEntity
  8
0
  6
Continuous
 62
     7
370
    25
100
AcDbLine
 10
166.1623556398
 20
-9.3948335382
 30
0.0
 11
164.660205635
 21
-9.6826382392
 31
0.0
  0
ARC
  5
3BF
330
1F
100
AcDbEntity
  8
0
  6
Continuous
 62
     7
370
    25
100
AcDbCircle
 10
165.9741831178
 20
-8.4126975486
 30
0.0
 40
1.000000000000011
100
AcDbArc
 50
280.8461538462
 51
357.0983444362
  0
ARC
  5
3C0
330
1F
100
AcDbEntity
  8
0
  6
Continuous
 62
     7
370
    25
100
AcDbCircle
 10
0.0
 20
0.0
 30
0.0
 40
167.1872526448735
100
AcDbArc
 50
357.0983444362
 51
357.3631940253
  0
ARC
  5
3C1
330
1F
100
AcDbEntity
  8
0
  6
Continuous
 62
     7
370
    25
100
AcDbCircle
 10
166.0112974294
 20
-7.6453951798
 30
0.0
 40
0.9999999999999949
100
AcDbArc
 50
357.3631940253
 51
73.6153846154
  0
LINE
  5
3C2
330
1F
100
AcDbEntity
  8
0
  6
Continuous
 62
     7
370
    25
100
AcDbLine
 10
164.8260210289
 20
-6.2545659174
 30
0.0
 11
166.2933812886
 21
-6.6860054277
 31
0.0
  0
ARC
  5
3C3
330
1F
100
AcDbEntity
  8
0
  6
Continuous
 62
     7
370
    25
100
AcDbCircle
 10
165.4889180979
 20
-4.0
 30
0.0
 40
2.34999999999999
100
AcDbArc
 50
103.6153846154
 51
253.6153846154
  0
LINE
  5
3C4
330
1F
100
AcDbEntity
  8
0
  6
Continuous
 62
     7
370
    25
100
AcDbLine
 10
166.4222118577
 20
-1.3559975528
 30
0.0
 11
164.9357208411
 21
-1.7160401065
 31
0.0
  0
ARC
  5
3C5
330
1F
100
AcDbEntity
  8
0
  6
Continuous
 62
     7
370
    25
100
AcDbCircle
 10
166.1868087697
 20
-0.3840997258
 30
0.0
 40
1.000000000000024
100
AcDbArc
 50
283.6153846154
 51
359.8675752054
  0
ARC
  5
3C6
330
1F
100
AcDbEntity
  8
0
  6
Continuous
 62
     7
370
    25
100
AcDbCircle
 10
0.0
 20
0.0
 30
0.0
 40
167.1872526448736
100
AcDbArc
 50
359.8675752054
 51
0.1324247946
  0
ARC
  5
3C7
330
1F
100
AcDbEntity
  8
0
  6
Continuous
 62
     7
370
    25
100
AcDbCircle
 10
166.1868087697
 20
0.3840997258
 30
0.0
 40
0.9999999999999893
100
AcDbArc
 50
0.1324247946
 51
76.3846153846
  0
LINE
  5
3C8
330
1F
100
AcDbEntity
  8
0
  6
Continuous
 62
     7
370
    25
100
AcDbLine
 10
164.9357208411
 20
1.7160401065
 30
0.0
 11
166.4222118577
 21
1.3559975528
 31
0.0
  0
ARC
  5
3C9
330
1F
100
AcDbEntity
  8
0
  6
Continuous
 62
     7
370
    25
100
AcDbCircle
 10
165.4889180979
 20
4.0
 30
0.0
 40
2.349999999999999
100
AcDbArc
 50
106.3846153846
 51
256.3846153846
  0
LINE
  5
3CA
330
1F
100
AcDbEntity
  8
0
  6
Continuous
 62
     7
370
    25
100
AcDbLine
 10
166.2933812886
 20
6.6860054277
 30
0.0
 11
164.8260210289
 21
6.2545659174
 31
0.0
  0
ENDSEC
  0
SECTION
  2
OBJECTS
  0
DICTIONARY
  5
C
330
0
100
AcDbDictionary
281
     1
  3
ACAD_GROUP
350
D
  3
ACAD_LAYOUT
350
1A
  3
ACAD_MLINESTYLE
350
17
  3
ACAD_PLOTSETTINGS
350
19
  3
ACAD_PLOTSTYLENAME
350
E
  3
ACAD_SCALELIST
350
47
  0
DICTIONARY
  5
D
102
{ACAD_REACTORS
330
C
102
}
330
C
100
AcDbDictionary
281
     1
  0
DICTIONARY
  5
1A
102
{ACAD_REACTORS
330
C
102
}
330
C
100
AcDbDictionary
281
     1
  3
Layout1
350
1E
  3
Layout2
350
26
  3
Model
350
22
  0
DICTIONARY
  5
17
102
{ACAD_REACTORS
330
C
102
}
330
C
100
AcDbDictionary
281
     1
  3
Standard
350
18
  0
DICTIONARY
  5
19
102
{ACAD_REACTORS
330
C
102
}
330
C
100
AcDbDictionary
281
     1
  0
ACDBDICTIONARYWDFLT
  5
E
102
{ACAD_REACTORS
330
C
102
}
330
C
100
AcDbDictionary
281
     1
  3
Normal
350
F
100
AcDbDictionaryWithDefault
340
F
  0
DICTIONARY
  5
47
102
{ACAD_REACTORS
330
C
102
}
330
C
100
AcDbDictionary
281
     1
  3
A0
350
48
  3
A1
350
49
  3
A2
350
4A
  3
A3
350
4B
  3
A4
350
4C
  3
A5
350
4D
  3
A6
350
4E
  3
A7
350
4F
  3
A8
350
50
  3
A9
350
51
  3
B0
350
52
  3
B1
350
53
  3
B2
350
54
  3
B3
350
55
  3
B4
350
56
  3
B5
350
57
  3
B6
350
58
  3
B7
350
59
  3
B8
350
5A
  3
B9
350
5B
  3
C0
350
5C
  3
C1
350
5D
  3
C2
350
5E
  3
C3
350
5F
  3
C4
350
60
  3
C5
350
61
  3
C6
350
62
  3
C7
350
63
  3
C8
350
64
  3
C9
350
65
  3
D0
350
66
  3
D1
350
67
  3
D2
350
68
  0
LAYOUT
  5
1E
102
{ACAD_REACTORS
330
1A
102
}
330
1A
100
AcDbPlotSettings
  1

  2
none_device
  4

  6

 40
0.0
 41
0.0
 42
0.0
 43
0.0
 44
0.0
 45
0.0
 46
0.0
 47
0.0
 48
0.0
 49
0.0
140
0.0
141
0.0
142
1.0
143
1.0
 70
   688
 72
     1
 73
     0
 74
     5
  7

 75
    16
147
1.0
148
0.0
149
0.0
100
AcDbLayout
  1
Layout1
 70
     1
 71
     1
 10
0.0
 20
0.0
 11
420.0
 21
297.0
 12
0.0
 22
0.0
 32
0.0
 14
1.0000000000E+20
 24
1.0000000000E+20
 34
1.0000000000E+20
 15
-1.0000000000E+20
 25
-1.0000000000E+20
 35
-1.0000000000E+20
146
0.0
 13
0.0
 23
0.0
 33
0.0
 16
1.0
 26
0.0
 36
0.0
 17
0.0
 27
1.0
 37
0.0
 76
     0
330
1B
  0
LAYOUT
  5
26
102
{ACAD_REACTORS
330
1A
102
}
330
1A
100
AcDbPlotSettings
  1

  2
none_device
  4

  6

 40
0.0
 41
0.0
 42
0.0
 43
0.0
 44
0.0
 45
0.0
 46
0.0
 47
0.0
 48
0.0
 49
0.0
140
0.0
141
0.0
142
1.0
143
1.0
 70
   688
 72
     1
 73
     0
 74
     5
  7

 75
    16
147
1.0
148
0.0
149
0.0
100
AcDbLayout
  1
Layout2
 70
     1
 71
     2
 10
0.0
 20
0.0
 11
0.0
 21
0.0
 12
0.0
 22
0.0
 32
0.0
 14
0.0
 24
0.0
 34
0.0
 15
0.0
 25
0.0
 35
0.0
146
0.0
 13
0.0
 23
0.0
 33
0.0
 16
1.0
 26
0.0
 36
0.0
 17
0.0
 27
1.0
 37
0.0
 76
     0
330
23
  0
LAYOUT
  5
22
102
{ACAD_REACTORS
330
1A
102
}
330
1A
100
AcDbPlotSettings
  1

  2
none_device
  4
ANSI_A_(11.00_x_8.50_Inches)
  6

 40
6.35
 41
19.05
 42
6.35000508
 43
19.05000254
 44
279.4
 45
215.9
 46
133.34999746
 47
88.89999873
 48
0.0
 49
0.0
140
0.0
141
0.0
142
0.0251723678
143
1.0
 70
  1696
 72
     0
 73
     0
 74
     0
  7

 75
     0
147
0.0179189148
148
-1300.4909072572
149
0.0
100
AcDbLayout
  1
Model
 70
     1
 71
     0
 10
0.0
 20
0.0
 11
420.0
 21
297.0
 12
0.0
 22
0.0
 32
0.0
 14
-167.1872526449
 24
-167.1475658494
 34
0.0
 15
167.1872526449
 25
167.1475658494
 35
0.0
146
0.0
 13
0.0
 23
0.0
 33
0.0
 16
1.0
 26
0.0
 36
0.0
 17
0.0
 27
1.0
 37
0.0
 76
     0
330
1F
331
29
  0
MLINESTYLE
  5
18
102
{ACAD_REACTORS
330
17
102
}
330
17
100
AcDbMlineStyle
  2
Standard
 70
     0
  3

 62
   256
 51
90.0
 52
90.0
 71
     2
 49
0.5
 62
   256
  6
BYLAYER
 49
-0.5
 62
   256
  6
BYLAYER
  0
ACDBPLACEHOLDER
  5
F
102
{ACAD_REACTORS
330
E
102
}
330
E
  0
SCALE
  5
48
102
{ACAD_REACTORS
330
47
102
}
330
47
100
AcDbScale
 70
     0
300
1:1
140
1.0
141
1.0
290
     1
  0
SCALE
  5
49
102
{ACAD_REACTORS
330
47
102
}
330
47
100
AcDbScale
 70
     0
300
1:2
140
1.0
141
2.0
290
     0
  0
SCALE
  5
4A
102
{ACAD_REACTORS
330
47
102
}
330
47
100
AcDbScale
 70
     0
300
1:4
140
1.0
141
4.0
290
     0
  0
SCALE
  5
4B
102
{ACAD_REACTORS
330
47
102
}
330
47
100
AcDbScale
 70
     0
300
1:5
140
1.0
141
5.0
290
     0
  0
SCALE
  5
4C
102
{ACAD_REACTORS
330
47
102
}
330
47
100
AcDbScale
 70
     0
300
1:8
140
1.0
141
8.0
290
     0
  0
SCALE
  5
4D
102
{ACAD_REACTORS
330
47
102
}
330
47
100
AcDbScale
 70
     0
300
1:10
140
1.0
141
10.0
290
     0
  0
SCALE
  5
4E
102
{ACAD_REACTORS
330
47
102
}
330
47
100
AcDbScale
 70
     0
300
1:16
140
1.0
141
16.0
290
     0
  0
SCALE
  5
4F
102
{ACAD_REACTORS
330
47
102
}
330
47
100
AcDbScale
 70
     0
300
1:20
140
1.0
141
20.0
290
     0
  0
SCALE
  5
50
102
{ACAD_REACTORS
330
47
102
}
330
47
100
AcDbScale
 70
     0
300
1:30
140
1.0
141
30.0
290
     0
  0
SCALE
  5
51
102
{ACAD_REACTORS
330
47
102
}
330
47
100
AcDbScale
 70
     0
300
1:40
140
1.0
141
40.0
290
     0
  0
SCALE
  5
52
102
{ACAD_REACTORS
330
47
102
}
330
47
100
AcDbScale
 70
     0
300
1:50
140
1.0
141
50.0
290
     0
  0
SCALE
  5
53
102
{ACAD_REACTORS
330
47
102
}
330
47
100
AcDbScale
 70
     0
300
1:100
140
1.0
141
100.0
290
     0
  0
SCALE
  5
54
102
{ACAD_REACTORS
330
47
102
}
330
47
100
AcDbScale
 70
     0
300
2:1
140
2.0
141
1.0
290
     0
  0
SCALE
  5
55
102
{ACAD_REACTORS
330
47
102
}
330
47
100
AcDbScale
 70
     0
300
4:1
140
4.0
141
1.0
290
     0
  0
SCALE
  5
56
102
{ACAD_REACTORS
330
47
102
}
330
47
100
AcDbScale
 70
     0
300
8:1
140
8.0
141
1.0
290
     0
  0
SCALE
  5
57
102
{ACAD_REACTORS
330
47
102
}
330
47
100
AcDbScale
 70
     0
300
10:1
140
10.0
141
1.0
290
     0
  0
SCALE
  5
58
102
{ACAD_REACTORS
330
47
102
}
330
47
100
AcDbScale
 70
     0
300
100:1
140
100.0
141
1.0
290
     0
  0
SCALE
  5
59
102
{ACAD_REACTORS
330
47
102
}
330
47
100
AcDbScale
 70
     0
300
1/128" = 1'-0"
140
0.0078125
141
12.0
290
     0
  0
SCALE
  5
5A
102
{ACAD_REACTORS
330
47
102
}
330
47
100
AcDbScale
 70
     0
300
1/64" = 1'-0"
140
0.015625
141
12.0
290
     0
  0
SCALE
  5
5B
102
{ACAD_REACTORS
330
47
102
}
330
47
100
AcDbScale
 70
     0
300
1/32" = 1'-0"
140
0.03125
141
12.0
290
     0
  0
SCALE
  5
5C
102
{ACAD_REACTORS
330
47
102
}
330
47
100
AcDbScale
 70
     0
300
1/16" = 1'-0"
140
0.0625
141
12.0
290
     0
  0
SCALE
  5
5D
102
{ACAD_REACTORS
330
47
102
}
330
47
100
AcDbScale
 70
     0
300
3/32" = 1'-0"
140
0.09375
141
12.0
290
     0
  0
SCALE
  5
5E
102
{ACAD_REACTORS
330
47
102
}
330
47
100
AcDbScale
 70
     0
300
1/8" = 1'-0"
140
0.125
141
12.0
290
     0
  0
SCALE
  5
5F
102
{ACAD_REACTORS
330
47
102
}
330
47
100
AcDbScale
 70
     0
300
3/16" = 1'-0"
140
0.1875
141
12.0
290
     0
  0
SCALE
  5
60
102
{ACAD_REACTORS
330
47
102
}
330
47
100
AcDbScale
 70
     0
300
1/4" = 1'-0"
140
0.25
141
12.0
290
     0
  0
SCALE
  5
61
102
{ACAD_REACTORS
330
47
102
}
330
47
100
AcDbScale
 70
     0
300
3/8" = 1'-0"
140
0.375
141
12.0
290
     0
  0
SCALE
  5
62
102
{ACAD_REACTORS
330
47
102
}
330
47
100
AcDbScale
 70
     0
300
1/2" = 1'-0"
140
0.5
141
12.0
290
     0
  0
SCALE
  5
63
102
{ACAD_REACTORS
330
47
102
}
330
47
100
AcDbScale
 70
     0
300
3/4" = 1'-0"
140
0.75
141
12.0
290
     0
  0
SCALE
  5
64
102
{ACAD_REACTORS
330
47
102
}
330
47
100
AcDbScale
 70
     0
300
1" = 1'-0"
140
1.0
141
12.0
290
     0
  0
SCALE
  5
65
102
{ACAD_REACTORS
330
47
102
}
330
47
100
AcDbScale
 70
     0
300
1-1/2" = 1'-0"
140
1.5
141
12.0
290
     0
  0
SCALE
  5
66
102
{ACAD_REACTORS
330
47
102
}
330
47
100
AcDbScale
 70
     0
300
3" = 1'-0"
140
3.0
141
12.0
290
     0
  0
SCALE
  5
67
102
{ACAD_REACTORS
330
47
102
}
330
47
100
AcDbScale
 70
     0
300
6" = 1'-0"
140
6.0
141
12.0
290
     0
  0
SCALE
  5
68
102
{ACAD_REACTORS
330
47
102
}
330
47
100
AcDbScale
 70
     0
300
1'-0" = 1'-0"
140
12.0
141
12.0
290
     0
  0
ENDSEC
  0
EOF
