ISO-10303-21;
HEADER;
/* Generated by software containing ST-Developer
 * from STEP Tools, Inc. (www.steptools.com) 
 */

FILE_DESCRIPTION(
/* description */ (''),
/* implementation_level */ '2;1');

FILE_NAME(
/* name */ 
'D:/MEGA/PROJETS/2021 - S1 - Berg Gran Tour/Freewheel_Disk_Brake_Adapt
or.step',
/* time_stamp */ '2021-05-13T10:59:30+02:00',
/* author */ (''),
/* organization */ (''),
/* preprocessor_version */ 'ST-DEVELOPER v18.1',
/* originating_system */ 'Autodesk Translation Framework v10.6.0.1341',

/* authorisation */ '');

FILE_SCHEMA (('AUTOMOTIVE_DESIGN { 1 0 10303 214 3 1 1 }'));
ENDSEC;

DATA;
#10=MECHANICAL_DESIGN_GEOMETRIC_PRESENTATION_REPRESENTATION('',(#13),#294);
#11=SHAPE_REPRESENTATION_RELATIONSHIP('SRR','None',#301,#12);
#12=ADVANCED_BREP_SHAPE_REPRESENTATION('',(#14),#293);
#13=STYLED_ITEM('',(#310),#14);
#14=MANIFOLD_SOLID_BREP('Body1',#166);
#15=FACE_BOUND('',#40,.T.);
#16=FACE_BOUND('',#44,.T.);
#17=PLANE('',#187);
#18=PLANE('',#188);
#19=PLANE('',#189);
#20=PLANE('',#190);
#21=PLANE('',#196);
#22=CYLINDRICAL_SURFACE('',#185,17.40027);
#23=CYLINDRICAL_SURFACE('',#192,10.);
#24=CYLINDRICAL_SURFACE('',#194,19.);
#25=FACE_OUTER_BOUND('',#34,.T.);
#26=FACE_OUTER_BOUND('',#35,.T.);
#27=FACE_OUTER_BOUND('',#36,.T.);
#28=FACE_OUTER_BOUND('',#37,.T.);
#29=FACE_OUTER_BOUND('',#38,.T.);
#30=FACE_OUTER_BOUND('',#39,.T.);
#31=FACE_OUTER_BOUND('',#41,.T.);
#32=FACE_OUTER_BOUND('',#42,.T.);
#33=FACE_OUTER_BOUND('',#43,.T.);
#34=EDGE_LOOP('',(#114,#115,#116,#117,#118,#119));
#35=EDGE_LOOP('',(#120,#121,#122,#123,#124));
#36=EDGE_LOOP('',(#125,#126,#127,#128));
#37=EDGE_LOOP('',(#129,#130,#131,#132));
#38=EDGE_LOOP('',(#133,#134,#135,#136));
#39=EDGE_LOOP('',(#137));
#40=EDGE_LOOP('',(#138,#139,#140,#141));
#41=EDGE_LOOP('',(#142,#143,#144,#145));
#42=EDGE_LOOP('',(#146,#147,#148,#149,#150));
#43=EDGE_LOOP('',(#151));
#44=EDGE_LOOP('',(#152,#153,#154,#155));
#45=LINE('',#252,#58);
#46=LINE('',#259,#59);
#47=LINE('',#264,#60);
#48=LINE('',#266,#61);
#49=LINE('',#268,#62);
#50=LINE('',#269,#63);
#51=LINE('',#273,#64);
#52=LINE('',#275,#65);
#53=LINE('',#277,#66);
#54=LINE('',#278,#67);
#55=LINE('',#280,#68);
#56=LINE('',#281,#69);
#57=LINE('',#289,#70);
#58=VECTOR('',#203,17.);
#59=VECTOR('',#212,15.);
#60=VECTOR('',#217,10.);
#61=VECTOR('',#218,10.);
#62=VECTOR('',#219,10.);
#63=VECTOR('',#220,10.);
#64=VECTOR('',#223,10.);
#65=VECTOR('',#224,10.);
#66=VECTOR('',#225,10.);
#67=VECTOR('',#226,10.);
#68=VECTOR('',#229,10.);
#69=VECTOR('',#230,10.);
#70=VECTOR('',#243,19.);
#71=CIRCLE('',#181,19.);
#72=CIRCLE('',#182,17.40027);
#73=CIRCLE('',#183,17.40027);
#74=CIRCLE('',#184,19.);
#75=CIRCLE('',#186,17.40027);
#76=CIRCLE('',#191,10.);
#77=CIRCLE('',#193,10.);
#78=CIRCLE('',#195,19.);
#79=VERTEX_POINT('',#248);
#80=VERTEX_POINT('',#249);
#81=VERTEX_POINT('',#251);
#82=VERTEX_POINT('',#253);
#83=VERTEX_POINT('',#258);
#84=VERTEX_POINT('',#262);
#85=VERTEX_POINT('',#263);
#86=VERTEX_POINT('',#265);
#87=VERTEX_POINT('',#267);
#88=VERTEX_POINT('',#271);
#89=VERTEX_POINT('',#272);
#90=VERTEX_POINT('',#274);
#91=VERTEX_POINT('',#276);
#92=VERTEX_POINT('',#287);
#93=EDGE_CURVE('',#79,#80,#71,.T.);
#94=EDGE_CURVE('',#79,#81,#45,.T.);
#95=EDGE_CURVE('',#81,#82,#72,.T.);
#96=EDGE_CURVE('',#82,#81,#73,.T.);
#97=EDGE_CURVE('',#80,#79,#74,.T.);
#98=EDGE_CURVE('',#82,#83,#46,.T.);
#99=EDGE_CURVE('',#83,#83,#75,.T.);
#100=EDGE_CURVE('',#84,#85,#47,.T.);
#101=EDGE_CURVE('',#86,#84,#48,.T.);
#102=EDGE_CURVE('',#87,#86,#49,.T.);
#103=EDGE_CURVE('',#85,#87,#50,.T.);
#104=EDGE_CURVE('',#88,#89,#51,.T.);
#105=EDGE_CURVE('',#90,#88,#52,.T.);
#106=EDGE_CURVE('',#91,#90,#53,.T.);
#107=EDGE_CURVE('',#91,#89,#54,.T.);
#108=EDGE_CURVE('',#89,#84,#55,.T.);
#109=EDGE_CURVE('',#86,#91,#56,.T.);
#110=EDGE_CURVE('',#90,#87,#76,.T.);
#111=EDGE_CURVE('',#85,#88,#77,.T.);
#112=EDGE_CURVE('',#92,#92,#78,.T.);
#113=EDGE_CURVE('',#92,#80,#57,.T.);
#114=ORIENTED_EDGE('',*,*,#93,.F.);
#115=ORIENTED_EDGE('',*,*,#94,.T.);
#116=ORIENTED_EDGE('',*,*,#95,.T.);
#117=ORIENTED_EDGE('',*,*,#96,.T.);
#118=ORIENTED_EDGE('',*,*,#94,.F.);
#119=ORIENTED_EDGE('',*,*,#97,.F.);
#120=ORIENTED_EDGE('',*,*,#96,.F.);
#121=ORIENTED_EDGE('',*,*,#98,.T.);
#122=ORIENTED_EDGE('',*,*,#99,.T.);
#123=ORIENTED_EDGE('',*,*,#98,.F.);
#124=ORIENTED_EDGE('',*,*,#95,.F.);
#125=ORIENTED_EDGE('',*,*,#100,.F.);
#126=ORIENTED_EDGE('',*,*,#101,.F.);
#127=ORIENTED_EDGE('',*,*,#102,.F.);
#128=ORIENTED_EDGE('',*,*,#103,.F.);
#129=ORIENTED_EDGE('',*,*,#104,.F.);
#130=ORIENTED_EDGE('',*,*,#105,.F.);
#131=ORIENTED_EDGE('',*,*,#106,.F.);
#132=ORIENTED_EDGE('',*,*,#107,.T.);
#133=ORIENTED_EDGE('',*,*,#108,.F.);
#134=ORIENTED_EDGE('',*,*,#107,.F.);
#135=ORIENTED_EDGE('',*,*,#109,.F.);
#136=ORIENTED_EDGE('',*,*,#101,.T.);
#137=ORIENTED_EDGE('',*,*,#99,.F.);
#138=ORIENTED_EDGE('',*,*,#102,.T.);
#139=ORIENTED_EDGE('',*,*,#109,.T.);
#140=ORIENTED_EDGE('',*,*,#106,.T.);
#141=ORIENTED_EDGE('',*,*,#110,.T.);
#142=ORIENTED_EDGE('',*,*,#103,.T.);
#143=ORIENTED_EDGE('',*,*,#110,.F.);
#144=ORIENTED_EDGE('',*,*,#105,.T.);
#145=ORIENTED_EDGE('',*,*,#111,.F.);
#146=ORIENTED_EDGE('',*,*,#112,.F.);
#147=ORIENTED_EDGE('',*,*,#113,.T.);
#148=ORIENTED_EDGE('',*,*,#97,.T.);
#149=ORIENTED_EDGE('',*,*,#93,.T.);
#150=ORIENTED_EDGE('',*,*,#113,.F.);
#151=ORIENTED_EDGE('',*,*,#112,.T.);
#152=ORIENTED_EDGE('',*,*,#100,.T.);
#153=ORIENTED_EDGE('',*,*,#111,.T.);
#154=ORIENTED_EDGE('',*,*,#104,.T.);
#155=ORIENTED_EDGE('',*,*,#108,.T.);
#156=CONICAL_SURFACE('',#180,17.,0.785398163397449);
#157=ADVANCED_FACE('',(#25),#156,.T.);
#158=ADVANCED_FACE('',(#26),#22,.T.);
#159=ADVANCED_FACE('',(#27),#17,.F.);
#160=ADVANCED_FACE('',(#28),#18,.F.);
#161=ADVANCED_FACE('',(#29),#19,.F.);
#162=ADVANCED_FACE('',(#30,#15),#20,.T.);
#163=ADVANCED_FACE('',(#31),#23,.F.);
#164=ADVANCED_FACE('',(#32),#24,.T.);
#165=ADVANCED_FACE('',(#33,#16),#21,.T.);
#166=CLOSED_SHELL('',(#157,#158,#159,#160,#161,#162,#163,#164,#165));
#167=DERIVED_UNIT_ELEMENT(#169,1.);
#168=DERIVED_UNIT_ELEMENT(#296,-3.);
#169=(
MASS_UNIT()
NAMED_UNIT(*)
SI_UNIT(.KILO.,.GRAM.)
);
#170=DERIVED_UNIT((#167,#168));
#171=MEASURE_REPRESENTATION_ITEM('density measure',
POSITIVE_RATIO_MEASURE(7850.),#170);
#172=PROPERTY_DEFINITION_REPRESENTATION(#177,#174);
#173=PROPERTY_DEFINITION_REPRESENTATION(#178,#175);
#174=REPRESENTATION('material name',(#176),#293);
#175=REPRESENTATION('density',(#171),#293);
#176=DESCRIPTIVE_REPRESENTATION_ITEM('Steel','Steel');
#177=PROPERTY_DEFINITION('material property','material name',#303);
#178=PROPERTY_DEFINITION('material property','density of part',#303);
#179=AXIS2_PLACEMENT_3D('placement',#246,#197,#198);
#180=AXIS2_PLACEMENT_3D('',#247,#199,#200);
#181=AXIS2_PLACEMENT_3D('',#250,#201,#202);
#182=AXIS2_PLACEMENT_3D('',#254,#204,#205);
#183=AXIS2_PLACEMENT_3D('',#255,#206,#207);
#184=AXIS2_PLACEMENT_3D('',#256,#208,#209);
#185=AXIS2_PLACEMENT_3D('',#257,#210,#211);
#186=AXIS2_PLACEMENT_3D('',#260,#213,#214);
#187=AXIS2_PLACEMENT_3D('',#261,#215,#216);
#188=AXIS2_PLACEMENT_3D('',#270,#221,#222);
#189=AXIS2_PLACEMENT_3D('',#279,#227,#228);
#190=AXIS2_PLACEMENT_3D('',#282,#231,#232);
#191=AXIS2_PLACEMENT_3D('',#283,#233,#234);
#192=AXIS2_PLACEMENT_3D('',#284,#235,#236);
#193=AXIS2_PLACEMENT_3D('',#285,#237,#238);
#194=AXIS2_PLACEMENT_3D('',#286,#239,#240);
#195=AXIS2_PLACEMENT_3D('',#288,#241,#242);
#196=AXIS2_PLACEMENT_3D('',#290,#244,#245);
#197=DIRECTION('axis',(0.,0.,1.));
#198=DIRECTION('refdir',(1.,0.,0.));
#199=DIRECTION('center_axis',(1.,0.,0.));
#200=DIRECTION('ref_axis',(0.,-1.,0.));
#201=DIRECTION('center_axis',(1.,0.,0.));
#202=DIRECTION('ref_axis',(0.,0.,-1.));
#203=DIRECTION('',(-0.707106781186547,-0.707106781186548,-8.65956056235494E-17));
#204=DIRECTION('center_axis',(1.,0.,0.));
#205=DIRECTION('ref_axis',(0.,1.,0.));
#206=DIRECTION('center_axis',(1.,0.,0.));
#207=DIRECTION('ref_axis',(0.,1.,0.));
#208=DIRECTION('center_axis',(1.,0.,0.));
#209=DIRECTION('ref_axis',(0.,0.,-1.));
#210=DIRECTION('center_axis',(1.,0.,0.));
#211=DIRECTION('ref_axis',(0.,1.,0.));
#212=DIRECTION('',(-1.,0.,0.));
#213=DIRECTION('center_axis',(1.,0.,0.));
#214=DIRECTION('ref_axis',(0.,1.,0.));
#215=DIRECTION('center_axis',(0.,0.,-1.));
#216=DIRECTION('ref_axis',(0.,1.,0.));
#217=DIRECTION('',(0.,-1.,0.));
#218=DIRECTION('',(1.,0.,0.));
#219=DIRECTION('',(0.,1.,0.));
#220=DIRECTION('',(-1.,0.,0.));
#221=DIRECTION('center_axis',(0.,0.,1.));
#222=DIRECTION('ref_axis',(0.,-1.,0.));
#223=DIRECTION('',(0.,1.,0.));
#224=DIRECTION('',(1.,0.,0.));
#225=DIRECTION('',(0.,-1.,0.));
#226=DIRECTION('',(1.,0.,0.));
#227=DIRECTION('center_axis',(0.,1.,0.));
#228=DIRECTION('ref_axis',(0.,0.,1.));
#229=DIRECTION('',(0.,0.,-1.));
#230=DIRECTION('',(0.,0.,1.));
#231=DIRECTION('center_axis',(-1.,0.,0.));
#232=DIRECTION('ref_axis',(0.,0.,1.));
#233=DIRECTION('center_axis',(1.,0.,0.));
#234=DIRECTION('ref_axis',(0.,-1.,0.));
#235=DIRECTION('center_axis',(1.,0.,0.));
#236=DIRECTION('ref_axis',(0.,-1.,0.));
#237=DIRECTION('center_axis',(-1.,0.,0.));
#238=DIRECTION('ref_axis',(0.,-1.,0.));
#239=DIRECTION('center_axis',(1.,0.,0.));
#240=DIRECTION('ref_axis',(0.,1.,0.));
#241=DIRECTION('center_axis',(1.,0.,0.));
#242=DIRECTION('ref_axis',(0.,0.,-1.));
#243=DIRECTION('',(-1.,0.,0.));
#244=DIRECTION('center_axis',(1.,0.,0.));
#245=DIRECTION('ref_axis',(0.,0.,-1.));
#246=CARTESIAN_POINT('',(0.,0.,0.));
#247=CARTESIAN_POINT('Origin',(18.,0.,0.));
#248=CARTESIAN_POINT('',(20.,19.,0.));
#249=CARTESIAN_POINT('',(20.,-19.,-2.32682891837997E-15));
#250=CARTESIAN_POINT('Origin',(20.,0.,0.));
#251=CARTESIAN_POINT('',(18.40027,17.40027,2.13091849597997E-15));
#252=CARTESIAN_POINT('',(18.,17.,2.0818995585505E-15));
#253=CARTESIAN_POINT('',(18.40027,-17.40027,-2.13091849597997E-15));
#254=CARTESIAN_POINT('Origin',(18.40027,0.,0.));
#255=CARTESIAN_POINT('Origin',(18.40027,0.,0.));
#256=CARTESIAN_POINT('Origin',(20.,0.,0.));
#257=CARTESIAN_POINT('Origin',(10.,0.,0.));
#258=CARTESIAN_POINT('',(0.,-17.40027,-2.13091849597997E-15));
#259=CARTESIAN_POINT('',(10.,-17.40027,-2.13091849597997E-15));
#260=CARTESIAN_POINT('Origin',(0.,0.,0.));
#261=CARTESIAN_POINT('Origin',(0.,-2.99999999999999,-3.));
#262=CARTESIAN_POINT('',(30.,12.8,-3.));
#263=CARTESIAN_POINT('',(30.,9.53939201416946,-3.));
#264=CARTESIAN_POINT('',(30.,-1.5,-3.));
#265=CARTESIAN_POINT('',(0.,12.8,-3.));
#266=CARTESIAN_POINT('',(0.,12.8,-3.));
#267=CARTESIAN_POINT('',(0.,9.53939201416946,-3.));
#268=CARTESIAN_POINT('',(1.66997335584987E-17,6.,-3.));
#269=CARTESIAN_POINT('',(16.5,9.53939201416946,-3.));
#270=CARTESIAN_POINT('Origin',(0.,12.8,3.));
#271=CARTESIAN_POINT('',(30.,9.53939201416946,3.));
#272=CARTESIAN_POINT('',(30.,12.8,3.));
#273=CARTESIAN_POINT('',(30.,6.4,3.));
#274=CARTESIAN_POINT('',(0.,9.53939201416946,3.));
#275=CARTESIAN_POINT('',(16.5,9.53939201416946,3.));
#276=CARTESIAN_POINT('',(0.,12.8,3.));
#277=CARTESIAN_POINT('',(1.66997335584987E-17,13.9,3.));
#278=CARTESIAN_POINT('',(0.,12.8,3.));
#279=CARTESIAN_POINT('Origin',(0.,12.8,-3.));
#280=CARTESIAN_POINT('',(30.,12.8,-1.5));
#281=CARTESIAN_POINT('',(1.66997335584987E-17,12.8,-1.5));
#282=CARTESIAN_POINT('Origin',(1.66997335584987E-17,15.,0.));
#283=CARTESIAN_POINT('Origin',(0.,6.78292423922319E-16,0.));
#284=CARTESIAN_POINT('Origin',(16.5,6.78292423922319E-16,0.));
#285=CARTESIAN_POINT('Origin',(30.,6.78292423922319E-16,0.));
#286=CARTESIAN_POINT('Origin',(25.,0.,0.));
#287=CARTESIAN_POINT('',(30.,-19.,-2.32682891837997E-15));
#288=CARTESIAN_POINT('Origin',(30.,0.,0.));
#289=CARTESIAN_POINT('',(25.,-19.,-2.32682891837997E-15));
#290=CARTESIAN_POINT('Origin',(30.,0.,0.));
#291=UNCERTAINTY_MEASURE_WITH_UNIT(LENGTH_MEASURE(0.01),#295,
'DISTANCE_ACCURACY_VALUE',
'Maximum model space distance between geometric entities at asserted c
onnectivities');
#292=UNCERTAINTY_MEASURE_WITH_UNIT(LENGTH_MEASURE(0.01),#295,
'DISTANCE_ACCURACY_VALUE',
'Maximum model space distance between geometric entities at asserted c
onnectivities');
#293=(
GEOMETRIC_REPRESENTATION_CONTEXT(3)
GLOBAL_UNCERTAINTY_ASSIGNED_CONTEXT((#291))
GLOBAL_UNIT_ASSIGNED_CONTEXT((#295,#297,#298))
REPRESENTATION_CONTEXT('','3D')
);
#294=(
GEOMETRIC_REPRESENTATION_CONTEXT(3)
GLOBAL_UNCERTAINTY_ASSIGNED_CONTEXT((#292))
GLOBAL_UNIT_ASSIGNED_CONTEXT((#295,#297,#298))
REPRESENTATION_CONTEXT('','3D')
);
#295=(
LENGTH_UNIT()
NAMED_UNIT(*)
SI_UNIT(.MILLI.,.METRE.)
);
#296=(
LENGTH_UNIT()
NAMED_UNIT(*)
SI_UNIT($,.METRE.)
);
#297=(
NAMED_UNIT(*)
PLANE_ANGLE_UNIT()
SI_UNIT($,.RADIAN.)
);
#298=(
NAMED_UNIT(*)
SI_UNIT($,.STERADIAN.)
SOLID_ANGLE_UNIT()
);
#299=SHAPE_DEFINITION_REPRESENTATION(#300,#301);
#300=PRODUCT_DEFINITION_SHAPE('',$,#303);
#301=SHAPE_REPRESENTATION('',(#179),#293);
#302=PRODUCT_DEFINITION_CONTEXT('part definition',#307,'design');
#303=PRODUCT_DEFINITION('Freewheel_Disk_Brake_Adaptor',
'Freewheel_Disk_Brake_Adaptor v1',#304,#302);
#304=PRODUCT_DEFINITION_FORMATION('',$,#309);
#305=PRODUCT_RELATED_PRODUCT_CATEGORY('Freewheel_Disk_Brake_Adaptor v1',
'Freewheel_Disk_Brake_Adaptor v1',(#309));
#306=APPLICATION_PROTOCOL_DEFINITION('international standard',
'automotive_design',2009,#307);
#307=APPLICATION_CONTEXT(
'Core Data for Automotive Mechanical Design Process');
#308=PRODUCT_CONTEXT('part definition',#307,'mechanical');
#309=PRODUCT('Freewheel_Disk_Brake_Adaptor',
'Freewheel_Disk_Brake_Adaptor v1',$,(#308));
#310=PRESENTATION_STYLE_ASSIGNMENT((#311));
#311=SURFACE_STYLE_USAGE(.BOTH.,#312);
#312=SURFACE_SIDE_STYLE('',(#313));
#313=SURFACE_STYLE_FILL_AREA(#314);
#314=FILL_AREA_STYLE('Steel - Satin',(#315));
#315=FILL_AREA_STYLE_COLOUR('Steel - Satin',#316);
#316=COLOUR_RGB('Steel - Satin',0.627450980392157,0.627450980392157,0.627450980392157);
ENDSEC;
END-ISO-10303-21;
