ISO-10303-21;
HEADER;
FILE_DESCRIPTION((''),'2;1');
FILE_NAME('KRAMP_ROUE_JOCKEY_FOURCHE2','2021-05-04T11:14:33',('itang'),(''),
'CREO PARAMETRIC BY PTC INC, 2020281','CREO PARAMETRIC BY PTC INC, 2020281','');
FILE_SCHEMA(('CONFIG_CONTROL_DESIGN'));
ENDSEC;
DATA;
#1=DIRECTION('',(0.E0,1.E0,0.E0));
#2=VECTOR('',#1,5.9E1);
#3=CARTESIAN_POINT('',(3.953618465927E1,0.E0,0.E0));
#4=LINE('',#3,#2);
#5=DIRECTION('',(-8.141155183563E-1,5.807029557109E-1,0.E0));
#6=VECTOR('',#5,1.652139732641E2);
#7=CARTESIAN_POINT('',(3.953618465927E1,5.9E1,0.E0));
#8=LINE('',#7,#6);
#9=CARTESIAN_POINT('',(-1.091174428972E2,1.355538087839E2,0.E0));
#10=DIRECTION('',(0.E0,0.E0,1.E0));
#11=DIRECTION('',(5.895645185955E-1,8.077212875821E-1,0.E0));
#12=AXIS2_PLACEMENT_3D('',#9,#10,#11);
#14=DIRECTION('',(8.140199781469E-1,-5.808368748432E-1,0.E0));
#15=VECTOR('',#14,2.E2);
#16=CARTESIAN_POINT('',(-1.232678109701E2,1.161673749686E2,0.E0));
#17=LINE('',#16,#15);
#18=DIRECTION('',(0.E0,0.E0,1.E0));
#19=VECTOR('',#18,1.E1);
#20=CARTESIAN_POINT('',(3.953618465927E1,0.E0,0.E0));
#21=LINE('',#20,#19);
#22=DIRECTION('',(0.E0,0.E0,1.E0));
#23=VECTOR('',#22,1.E1);
#24=CARTESIAN_POINT('',(-1.232678109701E2,1.161673749686E2,0.E0));
#25=LINE('',#24,#23);
#26=DIRECTION('',(0.E0,0.E0,1.E0));
#27=VECTOR('',#26,1.E1);
#28=CARTESIAN_POINT('',(-9.496707482435E1,1.549402425992E2,0.E0));
#29=LINE('',#28,#27);
#30=DIRECTION('',(0.E0,0.E0,1.E0));
#31=VECTOR('',#30,1.E1);
#32=CARTESIAN_POINT('',(3.953618465927E1,5.9E1,0.E0));
#33=LINE('',#32,#31);
#34=DIRECTION('',(0.E0,1.E0,0.E0));
#35=VECTOR('',#34,5.9E1);
#36=CARTESIAN_POINT('',(3.953618465927E1,0.E0,1.E1));
#37=LINE('',#36,#35);
#38=DIRECTION('',(8.140199781469E-1,-5.808368748432E-1,0.E0));
#39=VECTOR('',#38,2.E2);
#40=CARTESIAN_POINT('',(-1.232678109701E2,1.161673749686E2,1.E1));
#41=LINE('',#40,#39);
#42=CARTESIAN_POINT('',(-1.091174428972E2,1.355538087839E2,1.E1));
#43=DIRECTION('',(0.E0,0.E0,1.E0));
#44=DIRECTION('',(5.895645185955E-1,8.077212875821E-1,0.E0));
#45=AXIS2_PLACEMENT_3D('',#42,#43,#44);
#47=DIRECTION('',(-8.141155183563E-1,5.807029557109E-1,0.E0));
#48=VECTOR('',#47,1.652139732641E2);
#49=CARTESIAN_POINT('',(3.953618465927E1,5.9E1,1.E1));
#50=LINE('',#49,#48);
#51=CARTESIAN_POINT('',(3.953618465927E1,0.E0,0.E0));
#52=CARTESIAN_POINT('',(3.953618465927E1,5.9E1,0.E0));
#53=VERTEX_POINT('',#51);
#54=VERTEX_POINT('',#52);
#55=CARTESIAN_POINT('',(-9.496707482435E1,1.549402425992E2,0.E0));
#56=VERTEX_POINT('',#55);
#57=CARTESIAN_POINT('',(-1.232678109701E2,1.161673749686E2,0.E0));
#58=VERTEX_POINT('',#57);
#59=CARTESIAN_POINT('',(3.953618465927E1,0.E0,1.E1));
#60=CARTESIAN_POINT('',(3.953618465927E1,5.9E1,1.E1));
#61=VERTEX_POINT('',#59);
#62=VERTEX_POINT('',#60);
#63=CARTESIAN_POINT('',(-9.496707482435E1,1.549402425992E2,1.E1));
#64=VERTEX_POINT('',#63);
#65=CARTESIAN_POINT('',(-1.232678109701E2,1.161673749686E2,1.E1));
#66=VERTEX_POINT('',#65);
#67=CARTESIAN_POINT('',(0.E0,0.E0,0.E0));
#68=DIRECTION('',(0.E0,0.E0,1.E0));
#69=DIRECTION('',(1.E0,0.E0,0.E0));
#70=AXIS2_PLACEMENT_3D('',#67,#68,#69);
#71=PLANE('',#70);
#73=ORIENTED_EDGE('',*,*,#72,.T.);
#75=ORIENTED_EDGE('',*,*,#74,.T.);
#77=ORIENTED_EDGE('',*,*,#76,.T.);
#79=ORIENTED_EDGE('',*,*,#78,.T.);
#80=EDGE_LOOP('',(#73,#75,#77,#79));
#81=FACE_OUTER_BOUND('',#80,.F.);
#82=ADVANCED_FACE('',(#81),#71,.F.);
#83=CARTESIAN_POINT('',(3.953618465927E1,0.E0,0.E0));
#84=DIRECTION('',(1.E0,0.E0,0.E0));
#85=DIRECTION('',(0.E0,1.E0,0.E0));
#86=AXIS2_PLACEMENT_3D('',#83,#84,#85);
#87=PLANE('',#86);
#88=ORIENTED_EDGE('',*,*,#72,.F.);
#90=ORIENTED_EDGE('',*,*,#89,.T.);
#92=ORIENTED_EDGE('',*,*,#91,.T.);
#94=ORIENTED_EDGE('',*,*,#93,.F.);
#95=EDGE_LOOP('',(#88,#90,#92,#94));
#96=FACE_OUTER_BOUND('',#95,.F.);
#97=ADVANCED_FACE('',(#96),#87,.T.);
#98=CARTESIAN_POINT('',(-1.232678109701E2,1.161673749686E2,0.E0));
#99=DIRECTION('',(-5.808368748432E-1,-8.140199781469E-1,0.E0));
#100=DIRECTION('',(8.140199781469E-1,-5.808368748432E-1,0.E0));
#101=AXIS2_PLACEMENT_3D('',#98,#99,#100);
#102=PLANE('',#101);
#103=ORIENTED_EDGE('',*,*,#78,.F.);
#105=ORIENTED_EDGE('',*,*,#104,.T.);
#107=ORIENTED_EDGE('',*,*,#106,.T.);
#108=ORIENTED_EDGE('',*,*,#89,.F.);
#109=EDGE_LOOP('',(#103,#105,#107,#108));
#110=FACE_OUTER_BOUND('',#109,.F.);
#111=ADVANCED_FACE('',(#110),#102,.T.);
#112=CARTESIAN_POINT('',(-1.091174428972E2,1.355538087839E2,0.E0));
#113=DIRECTION('',(0.E0,0.E0,1.E0));
#114=DIRECTION('',(1.E0,0.E0,0.E0));
#115=AXIS2_PLACEMENT_3D('',#112,#113,#114);
#116=CYLINDRICAL_SURFACE('',#115,2.400139022375E1);
#117=ORIENTED_EDGE('',*,*,#76,.F.);
#119=ORIENTED_EDGE('',*,*,#118,.T.);
#121=ORIENTED_EDGE('',*,*,#120,.T.);
#122=ORIENTED_EDGE('',*,*,#104,.F.);
#123=EDGE_LOOP('',(#117,#119,#121,#122));
#124=FACE_OUTER_BOUND('',#123,.F.);
#125=ADVANCED_FACE('',(#124),#116,.T.);
#126=CARTESIAN_POINT('',(3.953618465927E1,5.9E1,0.E0));
#127=DIRECTION('',(5.807029557109E-1,8.141155183563E-1,0.E0));
#128=DIRECTION('',(-8.141155183563E-1,5.807029557109E-1,0.E0));
#129=AXIS2_PLACEMENT_3D('',#126,#127,#128);
#130=PLANE('',#129);
#131=ORIENTED_EDGE('',*,*,#74,.F.);
#132=ORIENTED_EDGE('',*,*,#93,.T.);
#134=ORIENTED_EDGE('',*,*,#133,.T.);
#135=ORIENTED_EDGE('',*,*,#118,.F.);
#136=EDGE_LOOP('',(#131,#132,#134,#135));
#137=FACE_OUTER_BOUND('',#136,.F.);
#138=ADVANCED_FACE('',(#137),#130,.T.);
#139=CARTESIAN_POINT('',(0.E0,0.E0,1.E1));
#140=DIRECTION('',(0.E0,0.E0,1.E0));
#141=DIRECTION('',(1.E0,0.E0,0.E0));
#142=AXIS2_PLACEMENT_3D('',#139,#140,#141);
#143=PLANE('',#142);
#144=ORIENTED_EDGE('',*,*,#91,.F.);
#145=ORIENTED_EDGE('',*,*,#106,.F.);
#146=ORIENTED_EDGE('',*,*,#120,.F.);
#147=ORIENTED_EDGE('',*,*,#133,.F.);
#148=EDGE_LOOP('',(#144,#145,#146,#147));
#149=FACE_OUTER_BOUND('',#148,.F.);
#150=ADVANCED_FACE('',(#149),#143,.T.);
#154=DIMENSIONAL_EXPONENTS(0.E0,0.E0,0.E0,0.E0,0.E0,0.E0,0.E0);
#156=PLANE_ANGLE_MEASURE_WITH_UNIT(PLANE_ANGLE_MEASURE(1.745329251994E-2),#155);
#157=(CONVERSION_BASED_UNIT('DEGREE',#156)NAMED_UNIT(*)PLANE_ANGLE_UNIT());
#159=UNCERTAINTY_MEASURE_WITH_UNIT(LENGTH_MEASURE(1.E-2),#153,'closure',
'Maximum model space distance between geometric entities at asserted connectivities');
#160=(GEOMETRIC_REPRESENTATION_CONTEXT(3)GLOBAL_UNCERTAINTY_ASSIGNED_CONTEXT((
#159))GLOBAL_UNIT_ASSIGNED_CONTEXT((#153,#157,#158))REPRESENTATION_CONTEXT
('ID1','3'));
#162=APPLICATION_CONTEXT(
'CONFIGURATION CONTROLLED 3D DESIGNS OF MECHANICAL PARTS AND ASSEMBLIES');
#163=APPLICATION_PROTOCOL_DEFINITION('international standard',
'config_control_design',1994,#162);
#164=DESIGN_CONTEXT('',#162,'design');
#165=MECHANICAL_CONTEXT('',#162,'mechanical');
#166=PRODUCT('KRAMP_ROUE_JOCKEY_FOURCHE2','KRAMP_ROUE_JOCKEY_FOURCHE2',
'NOT SPECIFIED',(#165));
#167=PRODUCT_DEFINITION_FORMATION_WITH_SPECIFIED_SOURCE('4','LAST_VERSION',#166,
.MADE.);
#171=PRODUCT_CATEGORY('part','');
#172=PRODUCT_RELATED_PRODUCT_CATEGORY('detail','',(#166));
#173=PRODUCT_CATEGORY_RELATIONSHIP('','',#171,#172);
#174=SECURITY_CLASSIFICATION_LEVEL('unclassified');
#175=SECURITY_CLASSIFICATION('','',#174);
#176=CC_DESIGN_SECURITY_CLASSIFICATION(#175,(#167));
#177=APPROVAL_STATUS('approved');
#178=APPROVAL(#177,'');
#179=CC_DESIGN_APPROVAL(#178,(#175,#167,#168));
#180=CALENDAR_DATE(121,4,5);
#181=COORDINATED_UNIVERSAL_TIME_OFFSET(2,0,.AHEAD.);
#182=LOCAL_TIME(11,14,3.3E1,#181);
#183=DATE_AND_TIME(#180,#182);
#184=APPROVAL_DATE_TIME(#183,#178);
#185=DATE_TIME_ROLE('creation_date');
#186=CC_DESIGN_DATE_AND_TIME_ASSIGNMENT(#183,#185,(#168));
#187=DATE_TIME_ROLE('classification_date');
#188=CC_DESIGN_DATE_AND_TIME_ASSIGNMENT(#183,#187,(#175));
#189=PERSON('UNSPECIFIED','UNSPECIFIED',$,$,$,$);
#190=ORGANIZATION('UNSPECIFIED','UNSPECIFIED','UNSPECIFIED');
#191=PERSON_AND_ORGANIZATION(#189,#190);
#192=APPROVAL_ROLE('approver');
#193=APPROVAL_PERSON_ORGANIZATION(#191,#178,#192);
#194=PERSON_AND_ORGANIZATION_ROLE('creator');
#195=CC_DESIGN_PERSON_AND_ORGANIZATION_ASSIGNMENT(#191,#194,(#167,#168));
#196=PERSON_AND_ORGANIZATION_ROLE('design_supplier');
#197=CC_DESIGN_PERSON_AND_ORGANIZATION_ASSIGNMENT(#191,#196,(#167));
#198=PERSON_AND_ORGANIZATION_ROLE('classification_officer');
#199=CC_DESIGN_PERSON_AND_ORGANIZATION_ASSIGNMENT(#191,#198,(#175));
#200=PERSON_AND_ORGANIZATION_ROLE('design_owner');
#201=CC_DESIGN_PERSON_AND_ORGANIZATION_ASSIGNMENT(#191,#200,(#166));
#13=CIRCLE('',#12,2.400139022375E1);
#46=CIRCLE('',#45,2.400139022375E1);
#72=EDGE_CURVE('',#53,#54,#4,.T.);
#74=EDGE_CURVE('',#54,#56,#8,.T.);
#76=EDGE_CURVE('',#56,#58,#13,.T.);
#78=EDGE_CURVE('',#58,#53,#17,.T.);
#89=EDGE_CURVE('',#53,#61,#21,.T.);
#91=EDGE_CURVE('',#61,#62,#37,.T.);
#93=EDGE_CURVE('',#54,#62,#33,.T.);
#104=EDGE_CURVE('',#58,#66,#25,.T.);
#106=EDGE_CURVE('',#66,#61,#41,.T.);
#118=EDGE_CURVE('',#56,#64,#29,.T.);
#120=EDGE_CURVE('',#64,#66,#46,.T.);
#133=EDGE_CURVE('',#62,#64,#50,.T.);
#151=CLOSED_SHELL('',(#82,#97,#111,#125,#138,#150));
#152=MANIFOLD_SOLID_BREP('',#151);
#153=(LENGTH_UNIT()NAMED_UNIT(*)SI_UNIT(.MILLI.,.METRE.));
#155=(NAMED_UNIT(*)PLANE_ANGLE_UNIT()SI_UNIT($,.RADIAN.));
#158=(NAMED_UNIT(*)SI_UNIT($,.STERADIAN.)SOLID_ANGLE_UNIT());
#161=ADVANCED_BREP_SHAPE_REPRESENTATION('',(#152),#160);
#168=PRODUCT_DEFINITION('design','',#167,#164);
#169=PRODUCT_DEFINITION_SHAPE('','SHAPE FOR KRAMP_ROUE_JOCKEY_FOURCHE2.',#168);
#170=SHAPE_DEFINITION_REPRESENTATION(#169,#161);
ENDSEC;
END-ISO-10303-21;
