ISO-10303-21;
HEADER;
FILE_DESCRIPTION((''),'2;1');
FILE_NAME('KRAMP_ROUE_JOCKEY_ENTRETOISE','2021-04-30T15:11:47',('itang'),(''),
'CREO PARAMETRIC BY PTC INC, 2020281','CREO PARAMETRIC BY PTC INC, 2020281','');
FILE_SCHEMA(('CONFIG_CONTROL_DESIGN'));
ENDSEC;
DATA;
#1=CARTESIAN_POINT('',(0.E0,7.25E1,0.E0));
#2=DIRECTION('',(0.E0,-1.E0,0.E0));
#3=DIRECTION('',(0.E0,0.E0,1.E0));
#4=AXIS2_PLACEMENT_3D('',#1,#2,#3);
#6=CARTESIAN_POINT('',(0.E0,7.25E1,0.E0));
#7=DIRECTION('',(0.E0,1.E0,0.E0));
#8=DIRECTION('',(0.E0,0.E0,1.E0));
#9=AXIS2_PLACEMENT_3D('',#6,#7,#8);
#11=CARTESIAN_POINT('',(0.E0,5.E1,0.E0));
#12=DIRECTION('',(0.E0,-1.E0,0.E0));
#13=DIRECTION('',(0.E0,0.E0,1.E0));
#14=AXIS2_PLACEMENT_3D('',#11,#12,#13);
#16=DIRECTION('',(0.E0,1.E0,0.E0));
#17=VECTOR('',#16,2.25E1);
#18=CARTESIAN_POINT('',(0.E0,5.E1,1.2E1));
#19=LINE('',#18,#17);
#20=CARTESIAN_POINT('',(0.E0,5.E1,0.E0));
#21=DIRECTION('',(0.E0,1.E0,0.E0));
#22=DIRECTION('',(0.E0,0.E0,1.E0));
#23=AXIS2_PLACEMENT_3D('',#20,#21,#22);
#25=DIRECTION('',(0.E0,1.E0,0.E0));
#26=VECTOR('',#25,2.25E1);
#27=CARTESIAN_POINT('',(0.E0,5.E1,-1.2E1));
#28=LINE('',#27,#26);
#29=CARTESIAN_POINT('',(0.E0,5.E1,0.E0));
#30=DIRECTION('',(0.E0,-1.E0,0.E0));
#31=DIRECTION('',(0.E0,0.E0,1.E0));
#32=AXIS2_PLACEMENT_3D('',#29,#30,#31);
#34=CARTESIAN_POINT('',(0.E0,5.E1,0.E0));
#35=DIRECTION('',(0.E0,1.E0,0.E0));
#36=DIRECTION('',(0.E0,0.E0,1.E0));
#37=AXIS2_PLACEMENT_3D('',#34,#35,#36);
#39=CARTESIAN_POINT('',(0.E0,2.E1,0.E0));
#40=DIRECTION('',(0.E0,-1.E0,0.E0));
#41=DIRECTION('',(0.E0,0.E0,1.E0));
#42=AXIS2_PLACEMENT_3D('',#39,#40,#41);
#44=DIRECTION('',(0.E0,1.E0,0.E0));
#45=VECTOR('',#44,3.E1);
#46=CARTESIAN_POINT('',(0.E0,2.E1,1.E1));
#47=LINE('',#46,#45);
#48=CARTESIAN_POINT('',(0.E0,2.E1,0.E0));
#49=DIRECTION('',(0.E0,1.E0,0.E0));
#50=DIRECTION('',(0.E0,0.E0,1.E0));
#51=AXIS2_PLACEMENT_3D('',#48,#49,#50);
#53=DIRECTION('',(0.E0,1.E0,0.E0));
#54=VECTOR('',#53,3.E1);
#55=CARTESIAN_POINT('',(0.E0,2.E1,-1.E1));
#56=LINE('',#55,#54);
#57=CARTESIAN_POINT('',(0.E0,2.E1,0.E0));
#58=DIRECTION('',(0.E0,-1.E0,0.E0));
#59=DIRECTION('',(0.E0,0.E0,1.E0));
#60=AXIS2_PLACEMENT_3D('',#57,#58,#59);
#62=CARTESIAN_POINT('',(0.E0,2.E1,0.E0));
#63=DIRECTION('',(0.E0,1.E0,0.E0));
#64=DIRECTION('',(0.E0,0.E0,1.E0));
#65=AXIS2_PLACEMENT_3D('',#62,#63,#64);
#67=CARTESIAN_POINT('',(0.E0,0.E0,1.331720746943E-14));
#68=DIRECTION('',(0.E0,-1.E0,0.E0));
#69=DIRECTION('',(0.E0,0.E0,1.E0));
#70=AXIS2_PLACEMENT_3D('',#67,#68,#69);
#72=DIRECTION('',(0.E0,1.E0,0.E0));
#73=VECTOR('',#72,2.E1);
#74=CARTESIAN_POINT('',(0.E0,0.E0,1.25E1));
#75=LINE('',#74,#73);
#76=CARTESIAN_POINT('',(0.E0,0.E0,1.331720746943E-14));
#77=DIRECTION('',(0.E0,1.E0,0.E0));
#78=DIRECTION('',(0.E0,0.E0,1.E0));
#79=AXIS2_PLACEMENT_3D('',#76,#77,#78);
#81=DIRECTION('',(0.E0,1.E0,0.E0));
#82=VECTOR('',#81,2.E1);
#83=CARTESIAN_POINT('',(0.E0,0.E0,-1.25E1));
#84=LINE('',#83,#82);
#85=CARTESIAN_POINT('',(0.E0,0.E0,1.331720746943E-14));
#86=DIRECTION('',(0.E0,-1.E0,0.E0));
#87=DIRECTION('',(0.E0,0.E0,1.E0));
#88=AXIS2_PLACEMENT_3D('',#85,#86,#87);
#90=CARTESIAN_POINT('',(0.E0,0.E0,1.331720746943E-14));
#91=DIRECTION('',(0.E0,1.E0,0.E0));
#92=DIRECTION('',(0.E0,0.E0,1.E0));
#93=AXIS2_PLACEMENT_3D('',#90,#91,#92);
#95=CARTESIAN_POINT('',(0.E0,7.25E1,0.E0));
#96=DIRECTION('',(0.E0,-1.E0,0.E0));
#97=DIRECTION('',(0.E0,0.E0,1.E0));
#98=AXIS2_PLACEMENT_3D('',#95,#96,#97);
#100=DIRECTION('',(0.E0,-1.E0,0.E0));
#101=VECTOR('',#100,7.25E1);
#102=CARTESIAN_POINT('',(0.E0,7.25E1,1.75E1));
#103=LINE('',#102,#101);
#104=CARTESIAN_POINT('',(0.E0,7.25E1,0.E0));
#105=DIRECTION('',(0.E0,1.E0,0.E0));
#106=DIRECTION('',(0.E0,0.E0,1.E0));
#107=AXIS2_PLACEMENT_3D('',#104,#105,#106);
#109=DIRECTION('',(0.E0,-1.E0,0.E0));
#110=VECTOR('',#109,7.25E1);
#111=CARTESIAN_POINT('',(0.E0,7.25E1,-1.75E1));
#112=LINE('',#111,#110);
#113=CARTESIAN_POINT('',(0.E0,7.25E1,1.75E1));
#114=CARTESIAN_POINT('',(0.E0,0.E0,1.75E1));
#115=VERTEX_POINT('',#113);
#116=VERTEX_POINT('',#114);
#117=CARTESIAN_POINT('',(0.E0,0.E0,1.25E1));
#118=CARTESIAN_POINT('',(0.E0,2.E1,1.25E1));
#119=VERTEX_POINT('',#117);
#120=VERTEX_POINT('',#118);
#121=CARTESIAN_POINT('',(0.E0,2.E1,1.E1));
#122=CARTESIAN_POINT('',(0.E0,5.E1,1.E1));
#123=VERTEX_POINT('',#121);
#124=VERTEX_POINT('',#122);
#125=CARTESIAN_POINT('',(0.E0,5.E1,1.2E1));
#126=CARTESIAN_POINT('',(0.E0,7.25E1,1.2E1));
#127=VERTEX_POINT('',#125);
#128=VERTEX_POINT('',#126);
#129=CARTESIAN_POINT('',(0.E0,7.25E1,-1.75E1));
#130=CARTESIAN_POINT('',(0.E0,0.E0,-1.75E1));
#131=VERTEX_POINT('',#129);
#132=VERTEX_POINT('',#130);
#133=CARTESIAN_POINT('',(0.E0,0.E0,-1.25E1));
#134=CARTESIAN_POINT('',(0.E0,2.E1,-1.25E1));
#135=VERTEX_POINT('',#133);
#136=VERTEX_POINT('',#134);
#137=CARTESIAN_POINT('',(0.E0,2.E1,-1.E1));
#138=CARTESIAN_POINT('',(0.E0,5.E1,-1.E1));
#139=VERTEX_POINT('',#137);
#140=VERTEX_POINT('',#138);
#141=CARTESIAN_POINT('',(0.E0,5.E1,-1.2E1));
#142=CARTESIAN_POINT('',(0.E0,7.25E1,-1.2E1));
#143=VERTEX_POINT('',#141);
#144=VERTEX_POINT('',#142);
#145=CARTESIAN_POINT('',(0.E0,7.25E1,0.E0));
#146=DIRECTION('',(0.E0,-1.E0,0.E0));
#147=DIRECTION('',(0.E0,0.E0,1.E0));
#148=AXIS2_PLACEMENT_3D('',#145,#146,#147);
#149=PLANE('',#148);
#151=ORIENTED_EDGE('',*,*,#150,.F.);
#153=ORIENTED_EDGE('',*,*,#152,.T.);
#154=EDGE_LOOP('',(#151,#153));
#155=FACE_OUTER_BOUND('',#154,.F.);
#157=ORIENTED_EDGE('',*,*,#156,.F.);
#159=ORIENTED_EDGE('',*,*,#158,.T.);
#160=EDGE_LOOP('',(#157,#159));
#161=FACE_BOUND('',#160,.F.);
#162=ADVANCED_FACE('',(#155,#161),#149,.F.);
#163=CARTESIAN_POINT('',(0.E0,7.6125E1,0.E0));
#164=DIRECTION('',(0.E0,-1.E0,0.E0));
#165=DIRECTION('',(0.E0,0.E0,1.E0));
#166=AXIS2_PLACEMENT_3D('',#163,#164,#165);
#167=CYLINDRICAL_SURFACE('',#166,1.2E1);
#169=ORIENTED_EDGE('',*,*,#168,.T.);
#170=ORIENTED_EDGE('',*,*,#156,.T.);
#172=ORIENTED_EDGE('',*,*,#171,.F.);
#174=ORIENTED_EDGE('',*,*,#173,.F.);
#175=EDGE_LOOP('',(#169,#170,#172,#174));
#176=FACE_OUTER_BOUND('',#175,.F.);
#177=ADVANCED_FACE('',(#176),#167,.F.);
#178=CARTESIAN_POINT('',(0.E0,7.6125E1,0.E0));
#179=DIRECTION('',(0.E0,-1.E0,0.E0));
#180=DIRECTION('',(0.E0,0.E0,1.E0));
#181=AXIS2_PLACEMENT_3D('',#178,#179,#180);
#182=CYLINDRICAL_SURFACE('',#181,1.2E1);
#183=ORIENTED_EDGE('',*,*,#168,.F.);
#185=ORIENTED_EDGE('',*,*,#184,.T.);
#186=ORIENTED_EDGE('',*,*,#171,.T.);
#187=ORIENTED_EDGE('',*,*,#158,.F.);
#188=EDGE_LOOP('',(#183,#185,#186,#187));
#189=FACE_OUTER_BOUND('',#188,.F.);
#190=ADVANCED_FACE('',(#189),#182,.F.);
#191=CARTESIAN_POINT('',(0.E0,5.E1,0.E0));
#192=DIRECTION('',(0.E0,-1.E0,0.E0));
#193=DIRECTION('',(0.E0,0.E0,1.E0));
#194=AXIS2_PLACEMENT_3D('',#191,#192,#193);
#195=PLANE('',#194);
#196=ORIENTED_EDGE('',*,*,#184,.F.);
#197=ORIENTED_EDGE('',*,*,#173,.T.);
#198=EDGE_LOOP('',(#196,#197));
#199=FACE_OUTER_BOUND('',#198,.F.);
#201=ORIENTED_EDGE('',*,*,#200,.F.);
#203=ORIENTED_EDGE('',*,*,#202,.T.);
#204=EDGE_LOOP('',(#201,#203));
#205=FACE_BOUND('',#204,.F.);
#206=ADVANCED_FACE('',(#199,#205),#195,.F.);
#207=CARTESIAN_POINT('',(0.E0,7.6125E1,0.E0));
#208=DIRECTION('',(0.E0,-1.E0,0.E0));
#209=DIRECTION('',(0.E0,0.E0,1.E0));
#210=AXIS2_PLACEMENT_3D('',#207,#208,#209);
#211=CYLINDRICAL_SURFACE('',#210,1.E1);
#213=ORIENTED_EDGE('',*,*,#212,.T.);
#214=ORIENTED_EDGE('',*,*,#200,.T.);
#216=ORIENTED_EDGE('',*,*,#215,.F.);
#218=ORIENTED_EDGE('',*,*,#217,.F.);
#219=EDGE_LOOP('',(#213,#214,#216,#218));
#220=FACE_OUTER_BOUND('',#219,.F.);
#221=ADVANCED_FACE('',(#220),#211,.F.);
#222=CARTESIAN_POINT('',(0.E0,7.6125E1,0.E0));
#223=DIRECTION('',(0.E0,-1.E0,0.E0));
#224=DIRECTION('',(0.E0,0.E0,1.E0));
#225=AXIS2_PLACEMENT_3D('',#222,#223,#224);
#226=CYLINDRICAL_SURFACE('',#225,1.E1);
#227=ORIENTED_EDGE('',*,*,#212,.F.);
#229=ORIENTED_EDGE('',*,*,#228,.T.);
#230=ORIENTED_EDGE('',*,*,#215,.T.);
#231=ORIENTED_EDGE('',*,*,#202,.F.);
#232=EDGE_LOOP('',(#227,#229,#230,#231));
#233=FACE_OUTER_BOUND('',#232,.F.);
#234=ADVANCED_FACE('',(#233),#226,.F.);
#235=CARTESIAN_POINT('',(0.E0,2.E1,0.E0));
#236=DIRECTION('',(0.E0,-1.E0,0.E0));
#237=DIRECTION('',(0.E0,0.E0,1.E0));
#238=AXIS2_PLACEMENT_3D('',#235,#236,#237);
#239=PLANE('',#238);
#241=ORIENTED_EDGE('',*,*,#240,.F.);
#243=ORIENTED_EDGE('',*,*,#242,.T.);
#244=EDGE_LOOP('',(#241,#243));
#245=FACE_OUTER_BOUND('',#244,.F.);
#246=ORIENTED_EDGE('',*,*,#228,.F.);
#247=ORIENTED_EDGE('',*,*,#217,.T.);
#248=EDGE_LOOP('',(#246,#247));
#249=FACE_BOUND('',#248,.F.);
#250=ADVANCED_FACE('',(#245,#249),#239,.T.);
#251=CARTESIAN_POINT('',(0.E0,7.6125E1,0.E0));
#252=DIRECTION('',(0.E0,-1.E0,0.E0));
#253=DIRECTION('',(0.E0,0.E0,1.E0));
#254=AXIS2_PLACEMENT_3D('',#251,#252,#253);
#255=CYLINDRICAL_SURFACE('',#254,1.25E1);
#257=ORIENTED_EDGE('',*,*,#256,.T.);
#258=ORIENTED_EDGE('',*,*,#240,.T.);
#260=ORIENTED_EDGE('',*,*,#259,.F.);
#262=ORIENTED_EDGE('',*,*,#261,.F.);
#263=EDGE_LOOP('',(#257,#258,#260,#262));
#264=FACE_OUTER_BOUND('',#263,.F.);
#265=ADVANCED_FACE('',(#264),#255,.F.);
#266=CARTESIAN_POINT('',(0.E0,7.6125E1,0.E0));
#267=DIRECTION('',(0.E0,-1.E0,0.E0));
#268=DIRECTION('',(0.E0,0.E0,1.E0));
#269=AXIS2_PLACEMENT_3D('',#266,#267,#268);
#270=CYLINDRICAL_SURFACE('',#269,1.25E1);
#271=ORIENTED_EDGE('',*,*,#256,.F.);
#273=ORIENTED_EDGE('',*,*,#272,.T.);
#274=ORIENTED_EDGE('',*,*,#259,.T.);
#275=ORIENTED_EDGE('',*,*,#242,.F.);
#276=EDGE_LOOP('',(#271,#273,#274,#275));
#277=FACE_OUTER_BOUND('',#276,.F.);
#278=ADVANCED_FACE('',(#277),#270,.F.);
#279=CARTESIAN_POINT('',(0.E0,0.E0,1.331720746943E-14));
#280=DIRECTION('',(0.E0,-1.E0,0.E0));
#281=DIRECTION('',(0.E0,0.E0,1.E0));
#282=AXIS2_PLACEMENT_3D('',#279,#280,#281);
#283=PLANE('',#282);
#285=ORIENTED_EDGE('',*,*,#284,.F.);
#287=ORIENTED_EDGE('',*,*,#286,.T.);
#288=EDGE_LOOP('',(#285,#287));
#289=FACE_OUTER_BOUND('',#288,.F.);
#290=ORIENTED_EDGE('',*,*,#272,.F.);
#291=ORIENTED_EDGE('',*,*,#261,.T.);
#292=EDGE_LOOP('',(#290,#291));
#293=FACE_BOUND('',#292,.F.);
#294=ADVANCED_FACE('',(#289,#293),#283,.T.);
#295=CARTESIAN_POINT('',(0.E0,7.6125E1,0.E0));
#296=DIRECTION('',(0.E0,-1.E0,0.E0));
#297=DIRECTION('',(0.E0,0.E0,1.E0));
#298=AXIS2_PLACEMENT_3D('',#295,#296,#297);
#299=CYLINDRICAL_SURFACE('',#298,1.75E1);
#301=ORIENTED_EDGE('',*,*,#300,.T.);
#302=ORIENTED_EDGE('',*,*,#284,.T.);
#304=ORIENTED_EDGE('',*,*,#303,.F.);
#305=ORIENTED_EDGE('',*,*,#152,.F.);
#306=EDGE_LOOP('',(#301,#302,#304,#305));
#307=FACE_OUTER_BOUND('',#306,.F.);
#308=ADVANCED_FACE('',(#307),#299,.T.);
#309=CARTESIAN_POINT('',(0.E0,7.6125E1,0.E0));
#310=DIRECTION('',(0.E0,-1.E0,0.E0));
#311=DIRECTION('',(0.E0,0.E0,1.E0));
#312=AXIS2_PLACEMENT_3D('',#309,#310,#311);
#313=CYLINDRICAL_SURFACE('',#312,1.75E1);
#314=ORIENTED_EDGE('',*,*,#300,.F.);
#315=ORIENTED_EDGE('',*,*,#150,.T.);
#316=ORIENTED_EDGE('',*,*,#303,.T.);
#317=ORIENTED_EDGE('',*,*,#286,.F.);
#318=EDGE_LOOP('',(#314,#315,#316,#317));
#319=FACE_OUTER_BOUND('',#318,.F.);
#320=ADVANCED_FACE('',(#319),#313,.T.);
#324=DIMENSIONAL_EXPONENTS(0.E0,0.E0,0.E0,0.E0,0.E0,0.E0,0.E0);
#326=PLANE_ANGLE_MEASURE_WITH_UNIT(PLANE_ANGLE_MEASURE(1.745329251994E-2),#325);
#327=(CONVERSION_BASED_UNIT('DEGREE',#326)NAMED_UNIT(*)PLANE_ANGLE_UNIT());
#329=UNCERTAINTY_MEASURE_WITH_UNIT(LENGTH_MEASURE(1.E-2),#323,'closure',
'Maximum model space distance between geometric entities at asserted connectivities');
#330=(GEOMETRIC_REPRESENTATION_CONTEXT(3)GLOBAL_UNCERTAINTY_ASSIGNED_CONTEXT((
#329))GLOBAL_UNIT_ASSIGNED_CONTEXT((#323,#327,#328))REPRESENTATION_CONTEXT
('ID1','3'));
#332=APPLICATION_CONTEXT(
'CONFIGURATION CONTROLLED 3D DESIGNS OF MECHANICAL PARTS AND ASSEMBLIES');
#333=APPLICATION_PROTOCOL_DEFINITION('international standard',
'config_control_design',1994,#332);
#334=DESIGN_CONTEXT('',#332,'design');
#335=MECHANICAL_CONTEXT('',#332,'mechanical');
#336=PRODUCT('KRAMP_ROUE_JOCKEY_ENTRETOISE','KRAMP_ROUE_JOCKEY_ENTRETOISE',
'NOT SPECIFIED',(#335));
#337=PRODUCT_DEFINITION_FORMATION_WITH_SPECIFIED_SOURCE('15','LAST_VERSION',
#336,.MADE.);
#341=PRODUCT_CATEGORY('part','');
#342=PRODUCT_RELATED_PRODUCT_CATEGORY('detail','',(#336));
#343=PRODUCT_CATEGORY_RELATIONSHIP('','',#341,#342);
#344=SECURITY_CLASSIFICATION_LEVEL('unclassified');
#345=SECURITY_CLASSIFICATION('','',#344);
#346=CC_DESIGN_SECURITY_CLASSIFICATION(#345,(#337));
#347=APPROVAL_STATUS('approved');
#348=APPROVAL(#347,'');
#349=CC_DESIGN_APPROVAL(#348,(#345,#337,#338));
#350=CALENDAR_DATE(121,30,4);
#351=COORDINATED_UNIVERSAL_TIME_OFFSET(2,0,.AHEAD.);
#352=LOCAL_TIME(15,11,4.7E1,#351);
#353=DATE_AND_TIME(#350,#352);
#354=APPROVAL_DATE_TIME(#353,#348);
#355=DATE_TIME_ROLE('creation_date');
#356=CC_DESIGN_DATE_AND_TIME_ASSIGNMENT(#353,#355,(#338));
#357=DATE_TIME_ROLE('classification_date');
#358=CC_DESIGN_DATE_AND_TIME_ASSIGNMENT(#353,#357,(#345));
#359=PERSON('UNSPECIFIED','UNSPECIFIED',$,$,$,$);
#360=ORGANIZATION('UNSPECIFIED','UNSPECIFIED','UNSPECIFIED');
#361=PERSON_AND_ORGANIZATION(#359,#360);
#362=APPROVAL_ROLE('approver');
#363=APPROVAL_PERSON_ORGANIZATION(#361,#348,#362);
#364=PERSON_AND_ORGANIZATION_ROLE('creator');
#365=CC_DESIGN_PERSON_AND_ORGANIZATION_ASSIGNMENT(#361,#364,(#337,#338));
#366=PERSON_AND_ORGANIZATION_ROLE('design_supplier');
#367=CC_DESIGN_PERSON_AND_ORGANIZATION_ASSIGNMENT(#361,#366,(#337));
#368=PERSON_AND_ORGANIZATION_ROLE('classification_officer');
#369=CC_DESIGN_PERSON_AND_ORGANIZATION_ASSIGNMENT(#361,#368,(#345));
#370=PERSON_AND_ORGANIZATION_ROLE('design_owner');
#371=CC_DESIGN_PERSON_AND_ORGANIZATION_ASSIGNMENT(#361,#370,(#336));
#5=CIRCLE('',#4,1.2E1);
#10=CIRCLE('',#9,1.2E1);
#15=CIRCLE('',#14,1.2E1);
#24=CIRCLE('',#23,1.2E1);
#33=CIRCLE('',#32,1.E1);
#38=CIRCLE('',#37,1.E1);
#43=CIRCLE('',#42,1.E1);
#52=CIRCLE('',#51,1.E1);
#61=CIRCLE('',#60,1.25E1);
#66=CIRCLE('',#65,1.25E1);
#71=CIRCLE('',#70,1.25E1);
#80=CIRCLE('',#79,1.25E1);
#89=CIRCLE('',#88,1.75E1);
#94=CIRCLE('',#93,1.75E1);
#99=CIRCLE('',#98,1.75E1);
#108=CIRCLE('',#107,1.75E1);
#150=EDGE_CURVE('',#115,#131,#108,.T.);
#152=EDGE_CURVE('',#115,#131,#99,.T.);
#156=EDGE_CURVE('',#128,#144,#5,.T.);
#158=EDGE_CURVE('',#128,#144,#10,.T.);
#168=EDGE_CURVE('',#127,#128,#19,.T.);
#171=EDGE_CURVE('',#143,#144,#28,.T.);
#173=EDGE_CURVE('',#127,#143,#15,.T.);
#184=EDGE_CURVE('',#127,#143,#24,.T.);
#200=EDGE_CURVE('',#124,#140,#33,.T.);
#202=EDGE_CURVE('',#124,#140,#38,.T.);
#212=EDGE_CURVE('',#123,#124,#47,.T.);
#215=EDGE_CURVE('',#139,#140,#56,.T.);
#217=EDGE_CURVE('',#123,#139,#43,.T.);
#228=EDGE_CURVE('',#123,#139,#52,.T.);
#240=EDGE_CURVE('',#120,#136,#61,.T.);
#242=EDGE_CURVE('',#120,#136,#66,.T.);
#256=EDGE_CURVE('',#119,#120,#75,.T.);
#259=EDGE_CURVE('',#135,#136,#84,.T.);
#261=EDGE_CURVE('',#119,#135,#71,.T.);
#272=EDGE_CURVE('',#119,#135,#80,.T.);
#284=EDGE_CURVE('',#116,#132,#89,.T.);
#286=EDGE_CURVE('',#116,#132,#94,.T.);
#300=EDGE_CURVE('',#115,#116,#103,.T.);
#303=EDGE_CURVE('',#131,#132,#112,.T.);
#321=CLOSED_SHELL('',(#162,#177,#190,#206,#221,#234,#250,#265,#278,#294,#308,
#320));
#322=MANIFOLD_SOLID_BREP('',#321);
#323=(LENGTH_UNIT()NAMED_UNIT(*)SI_UNIT(.MILLI.,.METRE.));
#325=(NAMED_UNIT(*)PLANE_ANGLE_UNIT()SI_UNIT($,.RADIAN.));
#328=(NAMED_UNIT(*)SI_UNIT($,.STERADIAN.)SOLID_ANGLE_UNIT());
#331=ADVANCED_BREP_SHAPE_REPRESENTATION('',(#322),#330);
#338=PRODUCT_DEFINITION('design','',#337,#334);
#339=PRODUCT_DEFINITION_SHAPE('','SHAPE FOR KRAMP_ROUE_JOCKEY_ENTRETOISE.',
#338);
#340=SHAPE_DEFINITION_REPRESENTATION(#339,#331);
ENDSEC;
END-ISO-10303-21;
