ISO-10303-21;
HEADER;
FILE_DESCRIPTION(('CATIA V5 STEP Exchange','CAx-IF Rec.Pracs.--- Model Styling and Organization---1.4--- 2014-01-23','CAx-IF Rec.Pracs.---3D Tessellated Data Validation Properties---0.5---2014-09-14'),'2;1');

FILE_NAME('C:\\Users\\rvaginay\\Desktop\\stl\\Entretoises lc4 - EXC\\entretoise avant LC4 - EXC V01.stp','2021-04-28T08:36:05+00:00',('none'),('none'),'CATIA Version 5-6 Release 2019 SP3','CATIA V5 STEP AP242 v1','none');

FILE_SCHEMA(('AP242_MANAGED_MODEL_BASED_3D_ENGINEERING_MIM_LF  {1 0 10303 442 1 1 4}'));

ENDSEC;
DATA;
#5=PRODUCT('entretoise LC4 - EXC','','',(#2)) ;
#2=PRODUCT_CONTEXT(' ',#1,'mechanical') ;
#1=APPLICATION_CONTEXT('managed model based 3d engineering') ;
#10=PRODUCT_DEFINITION('',' ',#6,#3) ;
#3=PRODUCT_DEFINITION_CONTEXT('part definition',#1,' ') ;
#11=PRODUCT_DEFINITION_SHAPE(' ',' ',#10) ;
#509=MECHANICAL_DESIGN_GEOMETRIC_PRESENTATION_REPRESENTATION(' ',(#29),#16) ;
#7=PRODUCT_CATEGORY('part','specification') ;
#19=SHAPE_REPRESENTATION(' ',(#18),#16) ;
#17=CARTESIAN_POINT(' ',(0.,0.,0.)) ;
#31=CARTESIAN_POINT('Axis2P3D Location',(0.,0.,14.3000000007)) ;
#36=CARTESIAN_POINT('Line Origine',(19.,-4.65365783676E-15,26.3)) ;
#40=CARTESIAN_POINT('Vertex',(19.,-4.65365783676E-15,24.)) ;
#42=CARTESIAN_POINT('Vertex',(19.,-4.65365783676E-15,28.6)) ;
#45=CARTESIAN_POINT('Axis2P3D Location',(0.,0.,28.6)) ;
#49=CARTESIAN_POINT('Vertex',(-19.,2.32682891838E-15,28.6)) ;
#52=CARTESIAN_POINT('Line Origine',(-19.,2.32682891838E-15,26.3)) ;
#56=CARTESIAN_POINT('Vertex',(-19.,2.32682891838E-15,24.)) ;
#59=CARTESIAN_POINT('Axis2P3D Location',(0.,0.,24.)) ;
#71=CARTESIAN_POINT('Axis2P3D Location',(0.,0.,28.6)) ;
#76=CARTESIAN_POINT('Axis2P3D Location',(0.,0.,24.)) ;
#88=CARTESIAN_POINT('Axis2P3D Location',(-19.,0.,24.)) ;
#97=CARTESIAN_POINT('Axis2P3D Location',(0.,0.,24.)) ;
#101=CARTESIAN_POINT('Vertex',(17.45,1.12246960947E-14,24.)) ;
#103=CARTESIAN_POINT('Vertex',(-17.45,2.13700866451E-15,24.)) ;
#106=CARTESIAN_POINT('Axis2P3D Location',(0.,0.,24.)) ;
#116=CARTESIAN_POINT('Axis2P3D Location',(-19.,0.,28.6)) ;
#125=CARTESIAN_POINT('Axis2P3D Location',(0.,3.09292254914E-16,28.6)) ;
#129=CARTESIAN_POINT('Vertex',(-10.85,4.29551758614E-15,28.6)) ;
#131=CARTESIAN_POINT('Vertex',(10.85,1.69252804083E-14,28.6)) ;
#134=CARTESIAN_POINT('Axis2P3D Location',(0.,3.09292254914E-16,28.6)) ;
#144=CARTESIAN_POINT('Axis2P3D Location',(-1.7763568394E-15,2.11824971632E-14,17.75)) ;
#149=CARTESIAN_POINT('Line Origine',(10.45,4.12631612936E-15,28.2)) ;
#153=CARTESIAN_POINT('Vertex',(10.05,-2.46154006629E-15,27.8)) ;
#156=CARTESIAN_POINT('Line Origine',(-10.45,-1.58576983139E-14,28.2)) ;
#160=CARTESIAN_POINT('Vertex',(-10.05,2.15446963354E-14,27.8)) ;
#163=CARTESIAN_POINT('Axis2P3D Location',(-1.7763568394E-15,2.08797686792E-15,27.8)) ;
#175=CARTESIAN_POINT('Axis2P3D Location',(-1.67366120962E-14,3.52495810318E-14,17.75)) ;
#180=CARTESIAN_POINT('Axis2P3D Location',(-2.8398992588E-29,1.7763568394E-15,27.8)) ;
#192=CARTESIAN_POINT('Axis2P3D Location',(0.,0.,14.3000000007)) ;
#197=CARTESIAN_POINT('Axis2P3D Location',(0.,0.,0.8)) ;
#201=CARTESIAN_POINT('Vertex',(-10.05,2.15446963354E-14,0.8)) ;
#203=CARTESIAN_POINT('Vertex',(10.05,-2.46154006629E-15,0.8)) ;
#206=CARTESIAN_POINT('Line Origine',(-10.05,1.23077003314E-15,14.3)) ;
#211=CARTESIAN_POINT('Line Origine',(10.05,-2.46154006629E-15,14.3)) ;
#223=CARTESIAN_POINT('Axis2P3D Location',(0.,0.,0.8)) ;
#235=CARTESIAN_POINT('Axis2P3D Location',(-1.7763568394E-15,2.11824971632E-14,10.85)) ;
#240=CARTESIAN_POINT('Line Origine',(10.45,-1.71899659434E-14,0.4)) ;
#244=CARTESIAN_POINT('Vertex',(10.85,1.69252804083E-14,0.)) ;
#247=CARTESIAN_POINT('Line Origine',(-10.45,2.34995928996E-15,0.4)) ;
#251=CARTESIAN_POINT('Vertex',(-10.85,4.29551758614E-15,0.)) ;
#254=CARTESIAN_POINT('Axis2P3D Location',(-1.7763568394E-15,5.68015053375E-16,-1.95399252334E-14)) ;
#266=CARTESIAN_POINT('Axis2P3D Location',(-1.67366120962E-14,3.52495810318E-14,10.85)) ;
#271=CARTESIAN_POINT('Axis2P3D Location',(1.33226762955E-15,-8.881784197E-16,1.24344978758E-14)) ;
#283=CARTESIAN_POINT('Axis2P3D Location',(0.,0.,14.3000000007)) ;
#288=CARTESIAN_POINT('Line Origine',(14.975,-3.66781716345E-15,7.)) ;
#292=CARTESIAN_POINT('Vertex',(14.975,-3.66781716345E-15,0.8)) ;
#294=CARTESIAN_POINT('Vertex',(14.975,-3.66781716345E-15,14.)) ;
#297=CARTESIAN_POINT('Axis2P3D Location',(0.,0.,14.)) ;
#301=CARTESIAN_POINT('Vertex',(-14.975,1.83390858172E-15,14.)) ;
#304=CARTESIAN_POINT('Line Origine',(-14.975,1.83390858172E-15,7.)) ;
#308=CARTESIAN_POINT('Vertex',(-14.975,5.50172574517E-15,0.8)) ;
#311=CARTESIAN_POINT('Axis2P3D Location',(0.,0.,0.8)) ;
#323=CARTESIAN_POINT('Axis2P3D Location',(0.,0.,14.)) ;
#328=CARTESIAN_POINT('Axis2P3D Location',(0.,0.,0.8)) ;
#340=CARTESIAN_POINT('Axis2P3D Location',(-10.05,0.,0.)) ;
#345=CARTESIAN_POINT('Axis2P3D Location',(0.,1.11444867204E-16,0.)) ;
#349=CARTESIAN_POINT('Vertex',(-14.175,-1.98606028179E-14,0.)) ;
#351=CARTESIAN_POINT('Vertex',(14.175,2.18194293901E-14,0.)) ;
#354=CARTESIAN_POINT('Axis2P3D Location',(0.,1.11444867204E-16,0.)) ;
#368=CARTESIAN_POINT('Axis2P3D Location',(1.48492329544E-14,2.29752474429E-14,-14.175)) ;
#373=CARTESIAN_POINT('Line Origine',(14.575,1.56151538071E-14,0.4)) ;
#378=CARTESIAN_POINT('Line Origine',(-14.575,-2.257651824E-14,0.4)) ;
#390=CARTESIAN_POINT('Axis2P3D Location',(-1.61815005839E-14,-3.14748227481E-14,-14.175)) ;
#402=CARTESIAN_POINT('Axis2P3D Location',(0.,0.,14.3000000007)) ;
#407=CARTESIAN_POINT('Line Origine',(17.45,1.12246960947E-14,19.)) ;
#411=CARTESIAN_POINT('Vertex',(17.45,1.12246960947E-14,14.8)) ;
#414=CARTESIAN_POINT('Line Origine',(-17.45,2.13700866451E-15,19.)) ;
#418=CARTESIAN_POINT('Vertex',(-17.45,3.74084528411E-14,14.8)) ;
#421=CARTESIAN_POINT('Axis2P3D Location',(0.,0.,14.8)) ;
#433=CARTESIAN_POINT('Axis2P3D Location',(0.,0.,14.8)) ;
#445=CARTESIAN_POINT('Axis2P3D Location',(-14.975,0.,14.)) ;
#450=CARTESIAN_POINT('Axis2P3D Location',(0.,-9.51988121382E-16,14.)) ;
#454=CARTESIAN_POINT('Vertex',(-16.65,5.16512264036E-15,14.)) ;
#456=CARTESIAN_POINT('Vertex',(16.65,9.75810872546E-15,14.)) ;
#459=CARTESIAN_POINT('Axis2P3D Location',(0.,-9.51988121382E-16,14.)) ;
#473=CARTESIAN_POINT('Axis2P3D Location',(7.74935671188E-14,5.59843279479E-14,-2.65)) ;
#478=CARTESIAN_POINT('Line Origine',(17.05,1.20752761053E-15,14.4)) ;
#483=CARTESIAN_POINT('Line Origine',(-17.05,8.31295496813E-15,14.4)) ;
#495=CARTESIAN_POINT('Axis2P3D Location',(-5.81201753391E-14,-4.22994972382E-14,-2.65)) ;
#8=PRODUCT_RELATED_PRODUCT_CATEGORY('part',$,(#5)) ;
#15=UNCERTAINTY_MEASURE_WITH_UNIT(LENGTH_MEASURE(0.005),#12,'distance_accuracy_value','CONFUSED CURVE UNCERTAINTY') ;
#29=STYLED_ITEM(' ',(#28),#21) ;
#28=PRESENTATION_STYLE_ASSIGNMENT((#27)) ;
#27=SURFACE_STYLE_USAGE(.BOTH.,#26) ;
#26=SURFACE_SIDE_STYLE(' ',(#25)) ;
#25=SURFACE_STYLE_FILL_AREA(#24) ;
#24=FILL_AREA_STYLE(' ',(#23)) ;
#23=FILL_AREA_STYLE_COLOUR(' ',#22) ;
#38=VECTOR('Line Direction',#37,1.) ;
#54=VECTOR('Line Direction',#53,1.) ;
#151=VECTOR('Line Direction',#150,1.) ;
#158=VECTOR('Line Direction',#157,1.) ;
#208=VECTOR('Line Direction',#207,1.) ;
#213=VECTOR('Line Direction',#212,1.) ;
#242=VECTOR('Line Direction',#241,1.) ;
#249=VECTOR('Line Direction',#248,1.) ;
#290=VECTOR('Line Direction',#289,1.) ;
#306=VECTOR('Line Direction',#305,1.) ;
#375=VECTOR('Line Direction',#374,1.) ;
#380=VECTOR('Line Direction',#379,1.) ;
#409=VECTOR('Line Direction',#408,1.) ;
#416=VECTOR('Line Direction',#415,1.) ;
#480=VECTOR('Line Direction',#479,1.) ;
#485=VECTOR('Line Direction',#484,1.) ;
#32=DIRECTION('Axis2P3D Direction',(0.,0.,1.)) ;
#33=DIRECTION('Axis2P3D XDirection',(-1.,1.22464679915E-16,0.)) ;
#37=DIRECTION('Vector Direction',(0.,0.,1.)) ;
#46=DIRECTION('Axis2P3D Direction',(0.,0.,1.)) ;
#53=DIRECTION('Vector Direction',(0.,0.,1.)) ;
#60=DIRECTION('Axis2P3D Direction',(0.,0.,1.)) ;
#72=DIRECTION('Axis2P3D Direction',(0.,0.,1.)) ;
#77=DIRECTION('Axis2P3D Direction',(0.,0.,1.)) ;
#89=DIRECTION('Axis2P3D Direction',(0.,0.,1.)) ;
#90=DIRECTION('Axis2P3D XDirection',(1.,0.,0.)) ;
#98=DIRECTION('Axis2P3D Direction',(0.,0.,1.)) ;
#107=DIRECTION('Axis2P3D Direction',(0.,0.,1.)) ;
#117=DIRECTION('Axis2P3D Direction',(0.,0.,1.)) ;
#118=DIRECTION('Axis2P3D XDirection',(1.,0.,0.)) ;
#126=DIRECTION('Axis2P3D Direction',(0.,0.,1.)) ;
#135=DIRECTION('Axis2P3D Direction',(0.,0.,1.)) ;
#145=DIRECTION('Axis2P3D Direction',(-0.,-1.89995226819E-15,1.)) ;
#146=DIRECTION('Axis2P3D XDirection',(0.5,-0.866025403784,-1.58050681916E-15)) ;
#150=DIRECTION('Vector Direction',(0.707106781187,-1.34346913277E-15,0.707106781187)) ;
#157=DIRECTION('Vector Direction',(-0.707106781187,-2.12851536211E-15,0.707106781187)) ;
#164=DIRECTION('Axis2P3D Direction',(-8.22703465114E-16,-4.74988067047E-16,1.)) ;
#176=DIRECTION('Axis2P3D Direction',(1.66533453694E-15,-3.33066907388E-15,1.)) ;
#177=DIRECTION('Axis2P3D XDirection',(-1.,2.04324442099E-16,1.71221572076E-15)) ;
#181=DIRECTION('Axis2P3D Direction',(-6.80537100336E-31,-3.33066907388E-15,1.)) ;
#193=DIRECTION('Axis2P3D Direction',(0.,0.,1.)) ;
#194=DIRECTION('Axis2P3D XDirection',(-1.,1.22464679915E-16,0.)) ;
#198=DIRECTION('Axis2P3D Direction',(0.,0.,1.)) ;
#207=DIRECTION('Vector Direction',(0.,0.,1.)) ;
#212=DIRECTION('Vector Direction',(0.,0.,1.)) ;
#224=DIRECTION('Axis2P3D Direction',(0.,0.,1.)) ;
#236=DIRECTION('Axis2P3D Direction',(-0.,-1.89995226819E-15,-1.)) ;
#237=DIRECTION('Axis2P3D XDirection',(0.5,-0.866025403784,1.58050681916E-15)) ;
#241=DIRECTION('Vector Direction',(0.707106781187,-2.91356159145E-15,-0.707106781187)) ;
#248=DIRECTION('Vector Direction',(-0.707106781187,-1.34346913277E-15,-0.707106781187)) ;
#255=DIRECTION('Axis2P3D Direction',(8.22703465114E-16,4.74988067047E-16,1.)) ;
#267=DIRECTION('Axis2P3D Direction',(1.66533453694E-15,-3.33066907388E-15,-1.)) ;
#268=DIRECTION('Axis2P3D XDirection',(-1.,2.04324442099E-16,-1.71221572076E-15)) ;
#272=DIRECTION('Axis2P3D Direction',(6.80537100336E-31,3.33066907388E-15,1.)) ;
#284=DIRECTION('Axis2P3D Direction',(0.,0.,1.)) ;
#285=DIRECTION('Axis2P3D XDirection',(-1.,1.22464679915E-16,0.)) ;
#289=DIRECTION('Vector Direction',(0.,0.,1.)) ;
#298=DIRECTION('Axis2P3D Direction',(0.,0.,1.)) ;
#305=DIRECTION('Vector Direction',(0.,0.,1.)) ;
#312=DIRECTION('Axis2P3D Direction',(0.,0.,1.)) ;
#324=DIRECTION('Axis2P3D Direction',(0.,0.,1.)) ;
#329=DIRECTION('Axis2P3D Direction',(0.,0.,1.)) ;
#341=DIRECTION('Axis2P3D Direction',(0.,0.,1.)) ;
#342=DIRECTION('Axis2P3D XDirection',(1.,0.,0.)) ;
#346=DIRECTION('Axis2P3D Direction',(0.,0.,1.)) ;
#355=DIRECTION('Axis2P3D Direction',(0.,0.,1.)) ;
#369=DIRECTION('Axis2P3D Direction',(-1.11022302463E-15,-1.57945848712E-15,1.)) ;
#370=DIRECTION('Axis2P3D XDirection',(0.5,-0.866025403784,-7.90253409579E-16)) ;
#374=DIRECTION('Vector Direction',(0.707106781187,-3.31799577505E-16,0.707106781187)) ;
#379=DIRECTION('Vector Direction',(-0.707106781187,-1.90189203619E-15,0.707106781187)) ;
#391=DIRECTION('Axis2P3D Direction',(1.11022302463E-15,2.22044604925E-15,1.)) ;
#392=DIRECTION('Axis2P3D XDirection',(-1.,3.84318813509E-18,1.05367121277E-15)) ;
#403=DIRECTION('Axis2P3D Direction',(0.,0.,1.)) ;
#404=DIRECTION('Axis2P3D XDirection',(-1.,1.22464679915E-16,0.)) ;
#408=DIRECTION('Vector Direction',(0.,0.,1.)) ;
#415=DIRECTION('Vector Direction',(0.,0.,1.)) ;
#422=DIRECTION('Axis2P3D Direction',(0.,0.,1.)) ;
#434=DIRECTION('Axis2P3D Direction',(0.,0.,1.)) ;
#446=DIRECTION('Axis2P3D Direction',(0.,0.,1.)) ;
#447=DIRECTION('Axis2P3D XDirection',(1.,0.,0.)) ;
#451=DIRECTION('Axis2P3D Direction',(0.,0.,1.)) ;
#460=DIRECTION('Axis2P3D Direction',(0.,0.,1.)) ;
#474=DIRECTION('Axis2P3D Direction',(-4.4408920985E-15,-3.15891697424E-15,1.)) ;
#475=DIRECTION('Axis2P3D XDirection',(0.5,-0.866025403784,-5.26835606386E-16)) ;
#479=DIRECTION('Vector Direction',(0.707106781187,-6.6359915501E-16,0.707106781187)) ;
#484=DIRECTION('Vector Direction',(-0.707106781187,-2.23369161369E-15,0.707106781187)) ;
#496=DIRECTION('Axis2P3D Direction',(3.33066907388E-15,2.22044604925E-15,1.)) ;
#497=DIRECTION('Axis2P3D XDirection',(-1.,3.26058587009E-16,3.29272253991E-15)) ;
#508=SHAPE_REPRESENTATION_RELATIONSHIP(' ',' ',#19,#507) ;
#18=AXIS2_PLACEMENT_3D(' ',#17,$,$) ;
#34=AXIS2_PLACEMENT_3D('Cylinder Axis2P3D',#31,#32,#33) ;
#47=AXIS2_PLACEMENT_3D('Circle Axis2P3D',#45,#46,$) ;
#61=AXIS2_PLACEMENT_3D('Circle Axis2P3D',#59,#60,$) ;
#73=AXIS2_PLACEMENT_3D('Circle Axis2P3D',#71,#72,$) ;
#78=AXIS2_PLACEMENT_3D('Circle Axis2P3D',#76,#77,$) ;
#91=AXIS2_PLACEMENT_3D('Plane Axis2P3D',#88,#89,#90) ;
#99=AXIS2_PLACEMENT_3D('Circle Axis2P3D',#97,#98,$) ;
#108=AXIS2_PLACEMENT_3D('Circle Axis2P3D',#106,#107,$) ;
#119=AXIS2_PLACEMENT_3D('Plane Axis2P3D',#116,#117,#118) ;
#127=AXIS2_PLACEMENT_3D('Circle Axis2P3D',#125,#126,$) ;
#136=AXIS2_PLACEMENT_3D('Circle Axis2P3D',#134,#135,$) ;
#147=AXIS2_PLACEMENT_3D('Cone Axis2P3D',#144,#145,#146) ;
#165=AXIS2_PLACEMENT_3D('Circle Axis2P3D',#163,#164,$) ;
#178=AXIS2_PLACEMENT_3D('Cone Axis2P3D',#175,#176,#177) ;
#182=AXIS2_PLACEMENT_3D('Circle Axis2P3D',#180,#181,$) ;
#195=AXIS2_PLACEMENT_3D('Cylinder Axis2P3D',#192,#193,#194) ;
#199=AXIS2_PLACEMENT_3D('Circle Axis2P3D',#197,#198,$) ;
#225=AXIS2_PLACEMENT_3D('Circle Axis2P3D',#223,#224,$) ;
#238=AXIS2_PLACEMENT_3D('Cone Axis2P3D',#235,#236,#237) ;
#256=AXIS2_PLACEMENT_3D('Circle Axis2P3D',#254,#255,$) ;
#269=AXIS2_PLACEMENT_3D('Cone Axis2P3D',#266,#267,#268) ;
#273=AXIS2_PLACEMENT_3D('Circle Axis2P3D',#271,#272,$) ;
#286=AXIS2_PLACEMENT_3D('Cylinder Axis2P3D',#283,#284,#285) ;
#299=AXIS2_PLACEMENT_3D('Circle Axis2P3D',#297,#298,$) ;
#313=AXIS2_PLACEMENT_3D('Circle Axis2P3D',#311,#312,$) ;
#325=AXIS2_PLACEMENT_3D('Circle Axis2P3D',#323,#324,$) ;
#330=AXIS2_PLACEMENT_3D('Circle Axis2P3D',#328,#329,$) ;
#343=AXIS2_PLACEMENT_3D('Plane Axis2P3D',#340,#341,#342) ;
#347=AXIS2_PLACEMENT_3D('Circle Axis2P3D',#345,#346,$) ;
#356=AXIS2_PLACEMENT_3D('Circle Axis2P3D',#354,#355,$) ;
#371=AXIS2_PLACEMENT_3D('Cone Axis2P3D',#368,#369,#370) ;
#393=AXIS2_PLACEMENT_3D('Cone Axis2P3D',#390,#391,#392) ;
#405=AXIS2_PLACEMENT_3D('Cylinder Axis2P3D',#402,#403,#404) ;
#423=AXIS2_PLACEMENT_3D('Circle Axis2P3D',#421,#422,$) ;
#435=AXIS2_PLACEMENT_3D('Circle Axis2P3D',#433,#434,$) ;
#448=AXIS2_PLACEMENT_3D('Plane Axis2P3D',#445,#446,#447) ;
#452=AXIS2_PLACEMENT_3D('Circle Axis2P3D',#450,#451,$) ;
#461=AXIS2_PLACEMENT_3D('Circle Axis2P3D',#459,#460,$) ;
#476=AXIS2_PLACEMENT_3D('Cone Axis2P3D',#473,#474,#475) ;
#498=AXIS2_PLACEMENT_3D('Cone Axis2P3D',#495,#496,#497) ;
#39=LINE('Line',#36,#38) ;
#55=LINE('Line',#52,#54) ;
#152=LINE('Line',#149,#151) ;
#159=LINE('Line',#156,#158) ;
#209=LINE('Line',#206,#208) ;
#214=LINE('Line',#211,#213) ;
#243=LINE('Line',#240,#242) ;
#250=LINE('Line',#247,#249) ;
#291=LINE('Line',#288,#290) ;
#307=LINE('Line',#304,#306) ;
#376=LINE('Line',#373,#375) ;
#381=LINE('Line',#378,#380) ;
#410=LINE('Line',#407,#409) ;
#417=LINE('Line',#414,#416) ;
#481=LINE('Line',#478,#480) ;
#486=LINE('Line',#483,#485) ;
#48=CIRCLE('generated circle',#47,19.) ;
#62=CIRCLE('generated circle',#61,19.) ;
#74=CIRCLE('generated circle',#73,19.) ;
#79=CIRCLE('generated circle',#78,19.) ;
#100=CIRCLE('generated circle',#99,17.45) ;
#109=CIRCLE('generated circle',#108,17.45) ;
#128=CIRCLE('generated circle',#127,10.85) ;
#137=CIRCLE('generated circle',#136,10.85) ;
#166=CIRCLE('generated circle',#165,10.05) ;
#183=CIRCLE('generated circle',#182,10.05) ;
#200=CIRCLE('generated circle',#199,10.05) ;
#226=CIRCLE('generated circle',#225,10.05) ;
#257=CIRCLE('generated circle',#256,10.85) ;
#274=CIRCLE('generated circle',#273,10.85) ;
#300=CIRCLE('generated circle',#299,14.975) ;
#314=CIRCLE('generated circle',#313,14.975) ;
#326=CIRCLE('generated circle',#325,14.975) ;
#331=CIRCLE('generated circle',#330,14.975) ;
#348=CIRCLE('generated circle',#347,14.175) ;
#357=CIRCLE('generated circle',#356,14.175) ;
#424=CIRCLE('generated circle',#423,17.45) ;
#436=CIRCLE('generated circle',#435,17.45) ;
#453=CIRCLE('generated circle',#452,16.65) ;
#462=CIRCLE('generated circle',#461,16.65) ;
#92=PLANE('',#91) ;
#120=PLANE('',#119) ;
#344=PLANE('',#343) ;
#449=PLANE('',#448) ;
#35=CYLINDRICAL_SURFACE('generated cylinder',#34,19.) ;
#196=CYLINDRICAL_SURFACE('generated cylinder',#195,10.05) ;
#287=CYLINDRICAL_SURFACE('generated cylinder',#286,14.975) ;
#406=CYLINDRICAL_SURFACE('generated cylinder',#405,17.45) ;
#148=CONICAL_SURFACE('Cone',#147,0.,0.785398163397) ;
#179=CONICAL_SURFACE('Cone',#178,0.,0.785398163397) ;
#239=CONICAL_SURFACE('Cone',#238,0.,0.785398163397) ;
#270=CONICAL_SURFACE('Cone',#269,0.,0.785398163397) ;
#372=CONICAL_SURFACE('Cone',#371,0.,0.785398163397) ;
#394=CONICAL_SURFACE('Cone',#393,0.,0.785398163397) ;
#477=CONICAL_SURFACE('Cone',#476,0.,0.785398163397) ;
#499=CONICAL_SURFACE('Cone',#498,0.,0.785398163397) ;
#114=FACE_BOUND('',#111,.T.) ;
#142=FACE_BOUND('',#139,.T.) ;
#366=FACE_BOUND('',#363,.T.) ;
#471=FACE_BOUND('',#468,.T.) ;
#44=EDGE_CURVE('',#41,#43,#39,.T.) ;
#51=EDGE_CURVE('',#50,#43,#48,.T.) ;
#58=EDGE_CURVE('',#57,#50,#55,.T.) ;
#63=EDGE_CURVE('',#57,#41,#62,.T.) ;
#75=EDGE_CURVE('',#43,#50,#74,.T.) ;
#80=EDGE_CURVE('',#41,#57,#79,.T.) ;
#105=EDGE_CURVE('',#102,#104,#100,.T.) ;
#110=EDGE_CURVE('',#104,#102,#109,.T.) ;
#133=EDGE_CURVE('',#130,#132,#128,.T.) ;
#138=EDGE_CURVE('',#132,#130,#137,.T.) ;
#155=EDGE_CURVE('',#154,#132,#152,.T.) ;
#162=EDGE_CURVE('',#161,#130,#159,.T.) ;
#167=EDGE_CURVE('',#154,#161,#166,.T.) ;
#184=EDGE_CURVE('',#161,#154,#183,.T.) ;
#205=EDGE_CURVE('',#202,#204,#200,.T.) ;
#210=EDGE_CURVE('',#161,#202,#209,.F.) ;
#215=EDGE_CURVE('',#154,#204,#214,.F.) ;
#227=EDGE_CURVE('',#204,#202,#226,.T.) ;
#246=EDGE_CURVE('',#245,#204,#243,.F.) ;
#253=EDGE_CURVE('',#252,#202,#250,.F.) ;
#258=EDGE_CURVE('',#245,#252,#257,.T.) ;
#275=EDGE_CURVE('',#252,#245,#274,.T.) ;
#296=EDGE_CURVE('',#293,#295,#291,.T.) ;
#303=EDGE_CURVE('',#302,#295,#300,.T.) ;
#310=EDGE_CURVE('',#309,#302,#307,.T.) ;
#315=EDGE_CURVE('',#309,#293,#314,.T.) ;
#327=EDGE_CURVE('',#295,#302,#326,.T.) ;
#332=EDGE_CURVE('',#293,#309,#331,.T.) ;
#353=EDGE_CURVE('',#350,#352,#348,.T.) ;
#358=EDGE_CURVE('',#352,#350,#357,.T.) ;
#377=EDGE_CURVE('',#293,#352,#376,.F.) ;
#382=EDGE_CURVE('',#309,#350,#381,.F.) ;
#413=EDGE_CURVE('',#412,#102,#410,.T.) ;
#420=EDGE_CURVE('',#419,#104,#417,.T.) ;
#425=EDGE_CURVE('',#419,#412,#424,.T.) ;
#437=EDGE_CURVE('',#412,#419,#436,.T.) ;
#458=EDGE_CURVE('',#455,#457,#453,.T.) ;
#463=EDGE_CURVE('',#457,#455,#462,.T.) ;
#482=EDGE_CURVE('',#412,#457,#481,.F.) ;
#487=EDGE_CURVE('',#419,#455,#486,.F.) ;
#30=CLOSED_SHELL('Closed Shell',(#70,#87,#115,#143,#174,#191,#222,#234,#265,#282,#322,#339,#367,#389,#401,#432,#444,#472,#494,#506)) ;
#65=ORIENTED_EDGE('',*,*,#44,.T.) ;
#66=ORIENTED_EDGE('',*,*,#51,.F.) ;
#67=ORIENTED_EDGE('',*,*,#58,.F.) ;
#68=ORIENTED_EDGE('',*,*,#63,.T.) ;
#82=ORIENTED_EDGE('',*,*,#58,.T.) ;
#83=ORIENTED_EDGE('',*,*,#75,.F.) ;
#84=ORIENTED_EDGE('',*,*,#44,.F.) ;
#85=ORIENTED_EDGE('',*,*,#80,.T.) ;
#94=ORIENTED_EDGE('',*,*,#63,.F.) ;
#95=ORIENTED_EDGE('',*,*,#80,.F.) ;
#112=ORIENTED_EDGE('',*,*,#105,.T.) ;
#113=ORIENTED_EDGE('',*,*,#110,.T.) ;
#122=ORIENTED_EDGE('',*,*,#75,.T.) ;
#123=ORIENTED_EDGE('',*,*,#51,.T.) ;
#140=ORIENTED_EDGE('',*,*,#133,.F.) ;
#141=ORIENTED_EDGE('',*,*,#138,.F.) ;
#169=ORIENTED_EDGE('',*,*,#155,.T.) ;
#170=ORIENTED_EDGE('',*,*,#138,.T.) ;
#171=ORIENTED_EDGE('',*,*,#162,.F.) ;
#172=ORIENTED_EDGE('',*,*,#167,.F.) ;
#186=ORIENTED_EDGE('',*,*,#162,.T.) ;
#187=ORIENTED_EDGE('',*,*,#133,.T.) ;
#188=ORIENTED_EDGE('',*,*,#155,.F.) ;
#189=ORIENTED_EDGE('',*,*,#184,.F.) ;
#217=ORIENTED_EDGE('',*,*,#205,.F.) ;
#218=ORIENTED_EDGE('',*,*,#210,.F.) ;
#219=ORIENTED_EDGE('',*,*,#184,.T.) ;
#220=ORIENTED_EDGE('',*,*,#215,.T.) ;
#229=ORIENTED_EDGE('',*,*,#227,.F.) ;
#230=ORIENTED_EDGE('',*,*,#215,.F.) ;
#231=ORIENTED_EDGE('',*,*,#167,.T.) ;
#232=ORIENTED_EDGE('',*,*,#210,.T.) ;
#260=ORIENTED_EDGE('',*,*,#246,.T.) ;
#261=ORIENTED_EDGE('',*,*,#227,.T.) ;
#262=ORIENTED_EDGE('',*,*,#253,.F.) ;
#263=ORIENTED_EDGE('',*,*,#258,.F.) ;
#277=ORIENTED_EDGE('',*,*,#253,.T.) ;
#278=ORIENTED_EDGE('',*,*,#205,.T.) ;
#279=ORIENTED_EDGE('',*,*,#246,.F.) ;
#280=ORIENTED_EDGE('',*,*,#275,.F.) ;
#317=ORIENTED_EDGE('',*,*,#296,.T.) ;
#318=ORIENTED_EDGE('',*,*,#303,.F.) ;
#319=ORIENTED_EDGE('',*,*,#310,.F.) ;
#320=ORIENTED_EDGE('',*,*,#315,.T.) ;
#334=ORIENTED_EDGE('',*,*,#310,.T.) ;
#335=ORIENTED_EDGE('',*,*,#327,.F.) ;
#336=ORIENTED_EDGE('',*,*,#296,.F.) ;
#337=ORIENTED_EDGE('',*,*,#332,.T.) ;
#360=ORIENTED_EDGE('',*,*,#353,.F.) ;
#361=ORIENTED_EDGE('',*,*,#358,.F.) ;
#364=ORIENTED_EDGE('',*,*,#258,.T.) ;
#365=ORIENTED_EDGE('',*,*,#275,.T.) ;
#384=ORIENTED_EDGE('',*,*,#377,.T.) ;
#385=ORIENTED_EDGE('',*,*,#358,.T.) ;
#386=ORIENTED_EDGE('',*,*,#382,.F.) ;
#387=ORIENTED_EDGE('',*,*,#332,.F.) ;
#396=ORIENTED_EDGE('',*,*,#382,.T.) ;
#397=ORIENTED_EDGE('',*,*,#353,.T.) ;
#398=ORIENTED_EDGE('',*,*,#377,.F.) ;
#399=ORIENTED_EDGE('',*,*,#315,.F.) ;
#427=ORIENTED_EDGE('',*,*,#413,.T.) ;
#428=ORIENTED_EDGE('',*,*,#110,.F.) ;
#429=ORIENTED_EDGE('',*,*,#420,.F.) ;
#430=ORIENTED_EDGE('',*,*,#425,.T.) ;
#439=ORIENTED_EDGE('',*,*,#420,.T.) ;
#440=ORIENTED_EDGE('',*,*,#105,.F.) ;
#441=ORIENTED_EDGE('',*,*,#413,.F.) ;
#442=ORIENTED_EDGE('',*,*,#437,.T.) ;
#465=ORIENTED_EDGE('',*,*,#458,.F.) ;
#466=ORIENTED_EDGE('',*,*,#463,.F.) ;
#469=ORIENTED_EDGE('',*,*,#327,.T.) ;
#470=ORIENTED_EDGE('',*,*,#303,.T.) ;
#489=ORIENTED_EDGE('',*,*,#482,.T.) ;
#490=ORIENTED_EDGE('',*,*,#463,.T.) ;
#491=ORIENTED_EDGE('',*,*,#487,.F.) ;
#492=ORIENTED_EDGE('',*,*,#437,.F.) ;
#501=ORIENTED_EDGE('',*,*,#487,.T.) ;
#502=ORIENTED_EDGE('',*,*,#458,.T.) ;
#503=ORIENTED_EDGE('',*,*,#482,.F.) ;
#504=ORIENTED_EDGE('',*,*,#425,.F.) ;
#64=EDGE_LOOP('',(#65,#66,#67,#68)) ;
#81=EDGE_LOOP('',(#82,#83,#84,#85)) ;
#93=EDGE_LOOP('',(#94,#95)) ;
#111=EDGE_LOOP('',(#112,#113)) ;
#121=EDGE_LOOP('',(#122,#123)) ;
#139=EDGE_LOOP('',(#140,#141)) ;
#168=EDGE_LOOP('',(#169,#170,#171,#172)) ;
#185=EDGE_LOOP('',(#186,#187,#188,#189)) ;
#216=EDGE_LOOP('',(#217,#218,#219,#220)) ;
#228=EDGE_LOOP('',(#229,#230,#231,#232)) ;
#259=EDGE_LOOP('',(#260,#261,#262,#263)) ;
#276=EDGE_LOOP('',(#277,#278,#279,#280)) ;
#316=EDGE_LOOP('',(#317,#318,#319,#320)) ;
#333=EDGE_LOOP('',(#334,#335,#336,#337)) ;
#359=EDGE_LOOP('',(#360,#361)) ;
#363=EDGE_LOOP('',(#364,#365)) ;
#383=EDGE_LOOP('',(#384,#385,#386,#387)) ;
#395=EDGE_LOOP('',(#396,#397,#398,#399)) ;
#426=EDGE_LOOP('',(#427,#428,#429,#430)) ;
#438=EDGE_LOOP('',(#439,#440,#441,#442)) ;
#464=EDGE_LOOP('',(#465,#466)) ;
#468=EDGE_LOOP('',(#469,#470)) ;
#488=EDGE_LOOP('',(#489,#490,#491,#492)) ;
#500=EDGE_LOOP('',(#501,#502,#503,#504)) ;
#21=MANIFOLD_SOLID_BREP('Corps principal',#30) ;
#41=VERTEX_POINT('',#40) ;
#43=VERTEX_POINT('',#42) ;
#50=VERTEX_POINT('',#49) ;
#57=VERTEX_POINT('',#56) ;
#102=VERTEX_POINT('',#101) ;
#104=VERTEX_POINT('',#103) ;
#130=VERTEX_POINT('',#129) ;
#132=VERTEX_POINT('',#131) ;
#154=VERTEX_POINT('',#153) ;
#161=VERTEX_POINT('',#160) ;
#202=VERTEX_POINT('',#201) ;
#204=VERTEX_POINT('',#203) ;
#245=VERTEX_POINT('',#244) ;
#252=VERTEX_POINT('',#251) ;
#293=VERTEX_POINT('',#292) ;
#295=VERTEX_POINT('',#294) ;
#302=VERTEX_POINT('',#301) ;
#309=VERTEX_POINT('',#308) ;
#350=VERTEX_POINT('',#349) ;
#352=VERTEX_POINT('',#351) ;
#412=VERTEX_POINT('',#411) ;
#419=VERTEX_POINT('',#418) ;
#455=VERTEX_POINT('',#454) ;
#457=VERTEX_POINT('',#456) ;
#507=ADVANCED_BREP_SHAPE_REPRESENTATION('NONE',(#21),#16) ;
#70=ADVANCED_FACE('Corps principal',(#69),#35,.T.) ;
#87=ADVANCED_FACE('Corps principal',(#86),#35,.T.) ;
#115=ADVANCED_FACE('Corps principal',(#96,#114),#92,.F.) ;
#143=ADVANCED_FACE('Corps principal',(#124,#142),#120,.T.) ;
#174=ADVANCED_FACE('Corps principal',(#173),#148,.F.) ;
#191=ADVANCED_FACE('Corps principal',(#190),#179,.F.) ;
#222=ADVANCED_FACE('Corps principal',(#221),#196,.F.) ;
#234=ADVANCED_FACE('Corps principal',(#233),#196,.F.) ;
#265=ADVANCED_FACE('Corps principal',(#264),#239,.F.) ;
#282=ADVANCED_FACE('Corps principal',(#281),#270,.F.) ;
#322=ADVANCED_FACE('Corps principal',(#321),#287,.T.) ;
#339=ADVANCED_FACE('Corps principal',(#338),#287,.T.) ;
#367=ADVANCED_FACE('Corps principal',(#362,#366),#344,.F.) ;
#389=ADVANCED_FACE('Corps principal',(#388),#372,.T.) ;
#401=ADVANCED_FACE('Corps principal',(#400),#394,.T.) ;
#432=ADVANCED_FACE('Corps principal',(#431),#406,.T.) ;
#444=ADVANCED_FACE('Corps principal',(#443),#406,.T.) ;
#472=ADVANCED_FACE('Corps principal',(#467,#471),#449,.F.) ;
#494=ADVANCED_FACE('Corps principal',(#493),#477,.T.) ;
#506=ADVANCED_FACE('Corps principal',(#505),#499,.T.) ;
#4=APPLICATION_PROTOCOL_DEFINITION('international standard','ap242_managed_model_based_3d_engineering',2014,#1) ;
#22=COLOUR_RGB('Colour',0.823529411765,0.823529411765,1.) ;
#69=FACE_OUTER_BOUND('',#64,.T.) ;
#86=FACE_OUTER_BOUND('',#81,.T.) ;
#96=FACE_OUTER_BOUND('',#93,.T.) ;
#124=FACE_OUTER_BOUND('',#121,.T.) ;
#173=FACE_OUTER_BOUND('',#168,.T.) ;
#190=FACE_OUTER_BOUND('',#185,.T.) ;
#221=FACE_OUTER_BOUND('',#216,.T.) ;
#233=FACE_OUTER_BOUND('',#228,.T.) ;
#264=FACE_OUTER_BOUND('',#259,.T.) ;
#281=FACE_OUTER_BOUND('',#276,.T.) ;
#321=FACE_OUTER_BOUND('',#316,.T.) ;
#338=FACE_OUTER_BOUND('',#333,.T.) ;
#362=FACE_OUTER_BOUND('',#359,.T.) ;
#388=FACE_OUTER_BOUND('',#383,.T.) ;
#400=FACE_OUTER_BOUND('',#395,.T.) ;
#431=FACE_OUTER_BOUND('',#426,.T.) ;
#443=FACE_OUTER_BOUND('',#438,.T.) ;
#467=FACE_OUTER_BOUND('',#464,.T.) ;
#493=FACE_OUTER_BOUND('',#488,.T.) ;
#505=FACE_OUTER_BOUND('',#500,.T.) ;
#9=PRODUCT_CATEGORY_RELATIONSHIP(' ',' ',#7,#8) ;
#6=PRODUCT_DEFINITION_FORMATION_WITH_SPECIFIED_SOURCE('',' ',#5,.NOT_KNOWN.) ;
#20=SHAPE_DEFINITION_REPRESENTATION(#11,#19) ;
#12=(LENGTH_UNIT()NAMED_UNIT(*)SI_UNIT(.MILLI.,.METRE.)) ;
#13=(NAMED_UNIT(*)PLANE_ANGLE_UNIT()SI_UNIT($,.RADIAN.)) ;
#14=(NAMED_UNIT(*)SI_UNIT($,.STERADIAN.)SOLID_ANGLE_UNIT()) ;
#16=(GEOMETRIC_REPRESENTATION_CONTEXT(3)GLOBAL_UNCERTAINTY_ASSIGNED_CONTEXT((#15))GLOBAL_UNIT_ASSIGNED_CONTEXT((#12,#13,#14))REPRESENTATION_CONTEXT(' ',' ')) ;
ENDSEC;
END-ISO-10303-21;
