  0
SECTION
  2
HEADER
  9
$ACADVER
  1
AC1015
  9
$ACADMAINTVER
 70
     6
  9
$DWGCODEPAGE
  3
ANSI_1252
  9
$INSBASE
 10
0.0
 20
0.0
 30
0.0
  9
$EXTMIN
 10
-179.8816196117
 20
-179.8816196117
 30
0.0
  9
$EXTMAX
 10
179.8816196117
 20
179.8816196117
 30
0.0
  9
$LIMMIN
 10
0.0
 20
0.0
  9
$LIMMAX
 10
420.0
 20
297.0
  9
$ORTHOMODE
 70
     0
  9
$REGENMODE
 70
     1
  9
$FILLMODE
 70
     1
  9
$QTEXTMODE
 70
     0
  9
$MIRRTEXT
 70
     1
  9
$LTSCALE
 40
1.0
  9
$ATTMODE
 70
     1
  9
$TEXTSIZE
 40
3.5
  9
$TRACEWID
 40
1.0
  9
$TEXTSTYLE
  7
Standard
  9
$CLAYER
  8
0
  9
$CELTYPE
  6
ByLayer
  9
$CECOLOR
 62
   256
  9
$CELTSCALE
 40
1.0
  9
$DISPSILH
 70
     0
  9
$DIMSCALE
 40
1.0
  9
$DIMASZ
 40
3.302
  9
$DIMEXO
 40
1.0
  9
$DIMDLI
 40
3.75
  9
$DIMRND
 40
0.0
  9
$DIMDLE
 40
0.0
  9
$DIMEXE
 40
1.0
  9
$DIMTP
 40
0.0
  9
$DIMTM
 40
0.0
  9
$DIMTXT
 40
3.5
  9
$DIMCEN
 40
2.5
  9
$DIMTSZ
 40
0.0
  9
$DIMTOL
 70
     0
  9
$DIMLIM
 70
     0
  9
$DIMTIH
 70
     1
  9
$DIMTOH
 70
     1
  9
$DIMSE1
 70
     0
  9
$DIMSE2
 70
     0
  9
$DIMTAD
 70
     1
  9
$DIMZIN
 70
     0
  9
$DIMBLK
  1

  9
$DIMASO
 70
     1
  9
$DIMSHO
 70
     1
  9
$DIMPOST
  1

  9
$DIMAPOST
  1

  9
$DIMALT
 70
     0
  9
$DIMALTD
 70
     3
  9
$DIMALTF
 40
0.0393700787
  9
$DIMLFAC
 40
1.0
  9
$DIMTOFL
 70
     1
  9
$DIMTVP
 40
0.0
  9
$DIMTIX
 70
     0
  9
$DIMSOXD
 70
     0
  9
$DIMSAH
 70
     0
  9
$DIMBLK1
  1

  9
$DIMBLK2
  1

  9
$DIMSTYLE
  2
ISO-25
  9
$DIMCLRD
 70
     0
  9
$DIMCLRE
 70
     0
  9
$DIMCLRT
 70
     0
  9
$DIMTFAC
 40
1.0
  9
$DIMGAP
 40
1.524
  9
$DIMJUST
 70
     0
  9
$DIMSD1
 70
     0
  9
$DIMSD2
 70
     0
  9
$DIMTOLJ
 70
     0
  9
$DIMTZIN
 70
     0
  9
$DIMALTZ
 70
     0
  9
$DIMALTTZ
 70
     0
  9
$DIMUPT
 70
     0
  9
$DIMDEC
 70
     2
  9
$DIMTDEC
 70
     2
  9
$DIMALTU
 70
     2
  9
$DIMALTTD
 70
     3
  9
$DIMTXSTY
  7
Standard
  9
$DIMAUNIT
 70
     0
  9
$DIMADEC
 70
     2
  9
$DIMALTRND
 40
0.0
  9
$DIMAZIN
 70
     0
  9
$DIMDSEP
 70
    44
  9
$DIMATFIT
 70
     3
  9
$DIMFRAC
 70
     0
  9
$DIMLDRBLK
  1

  9
$DIMLUNIT
 70
     2
  9
$DIMLWD
 70
    -2
  9
$DIMLWE
 70
    -2
  9
$DIMTMOVE
 70
     0
  9
$LUNITS
 70
     2
  9
$LUPREC
 70
     2
  9
$SKETCHINC
 40
1.0
  9
$FILLETRAD
 40
10.0
  9
$AUNITS
 70
     0
  9
$AUPREC
 70
     2
  9
$MENU
  1
.
  9
$ELEVATION
 40
0.0
  9
$PELEVATION
 40
0.0
  9
$THICKNESS
 40
0.0
  9
$LIMCHECK
 70
     0
  9
$CHAMFERA
 40
0.0
  9
$CHAMFERB
 40
0.0
  9
$CHAMFERC
 40
0.0
  9
$CHAMFERD
 40
0.0
  9
$SKPOLY
 70
     0
  9
$TDCREATE
 40
2459331.848651227
  9
$TDUCREATE
 40
2459331.765317894
  9
$TDUPDATE
 40
2459331.848678079
  9
$TDUUPDATE
 40
2459331.765344745
  9
$TDINDWG
 40
0.0000000116
  9
$TDUSRTIMER
 40
0.0000000116
  9
$USRTIMER
 70
     1
  9
$ANGBASE
 50
0.0
  9
$ANGDIR
 70
     0
  9
$PDMODE
 70
     0
  9
$PDSIZE
 40
-1.0
  9
$PLINEWID
 40
0.0
  9
$SPLFRAME
 70
     0
  9
$SPLINETYPE
 70
     6
  9
$SPLINESEGS
 70
     8
  9
$HANDSEED
  5
3C9
  9
$SURFTAB1
 70
     6
  9
$SURFTAB2
 70
     6
  9
$SURFTYPE
 70
     6
  9
$SURFU
 70
     6
  9
$SURFV
 70
     6
  9
$UCSBASE
  2

  9
$UCSNAME
  2

  9
$UCSORG
 10
0.0
 20
0.0
 30
0.0
  9
$UCSXDIR
 10
1.0
 20
0.0
 30
0.0
  9
$UCSYDIR
 10
0.0
 20
1.0
 30
0.0
  9
$UCSORTHOREF
  2

  9
$UCSORTHOVIEW
 70
     0
  9
$UCSORGTOP
 10
0.0
 20
0.0
 30
0.0
  9
$UCSORGBOTTOM
 10
0.0
 20
0.0
 30
0.0
  9
$UCSORGLEFT
 10
0.0
 20
0.0
 30
0.0
  9
$UCSORGRIGHT
 10
0.0
 20
0.0
 30
0.0
  9
$UCSORGFRONT
 10
0.0
 20
0.0
 30
0.0
  9
$UCSORGBACK
 10
0.0
 20
0.0
 30
0.0
  9
$PUCSBASE
  2

  9
$PUCSNAME
  2

  9
$PUCSORG
 10
0.0
 20
0.0
 30
0.0
  9
$PUCSXDIR
 10
1.0
 20
0.0
 30
0.0
  9
$PUCSYDIR
 10
0.0
 20
1.0
 30
0.0
  9
$PUCSORTHOREF
  2

  9
$PUCSORTHOVIEW
 70
     0
  9
$PUCSORGTOP
 10
0.0
 20
0.0
 30
0.0
  9
$PUCSORGBOTTOM
 10
0.0
 20
0.0
 30
0.0
  9
$PUCSORGLEFT
 10
0.0
 20
0.0
 30
0.0
  9
$PUCSORGRIGHT
 10
0.0
 20
0.0
 30
0.0
  9
$PUCSORGFRONT
 10
0.0
 20
0.0
 30
0.0
  9
$PUCSORGBACK
 10
0.0
 20
0.0
 30
0.0
  9
$USERI1
 70
     0
  9
$USERI2
 70
     0
  9
$USERI3
 70
     0
  9
$USERI4
 70
     0
  9
$USERI5
 70
     0
  9
$USERR1
 40
0.0
  9
$USERR2
 40
0.0
  9
$USERR3
 40
0.0
  9
$USERR4
 40
0.0
  9
$USERR5
 40
0.0
  9
$WORLDVIEW
 70
     1
  9
$SHADEDGE
 70
     3
  9
$SHADEDIF
 70
    70
  9
$TILEMODE
 70
     1
  9
$MAXACTVP
 70
    64
  9
$PINSBASE
 10
0.0
 20
0.0
 30
0.0
  9
$PLIMCHECK
 70
     0
  9
$PEXTMIN
 10
1.0000000000E+20
 20
1.0000000000E+20
 30
1.0000000000E+20
  9
$PEXTMAX
 10
-1.0000000000E+20
 20
-1.0000000000E+20
 30
-1.0000000000E+20
  9
$PLIMMIN
 10
0.0
 20
0.0
  9
$PLIMMAX
 10
420.0
 20
297.0
  9
$UNITMODE
 70
     0
  9
$VISRETAIN
 70
     1
  9
$PLINEGEN
 70
     0
  9
$PSLTSCALE
 70
     1
  9
$TREEDEPTH
 70
  3020
  9
$CMLSTYLE
  2
Standard
  9
$CMLJUST
 70
     0
  9
$CMLSCALE
 40
20.0
  9
$PROXYGRAPHICS
 70
     1
  9
$MEASUREMENT
 70
     1
  9
$CELWEIGHT
370
    -1
  9
$ENDCAPS
280
     0
  9
$JOINSTYLE
280
     0
  9
$LWDISPLAY
290
     1
  9
$INSUNITS
 70
     4
  9
$HYPERLINKBASE
  1

  9
$STYLESHEET
  1

  9
$XEDIT
290
     1
  9
$CEPSNTYPE
380
     0
  9
$PSTYLEMODE
290
     1
  9
$FINGERPRINTGUID
  2
{5D6A93D3-0016-42BB-8C4F-D83C26FC7731}
  9
$VERSIONGUID
  2
{FAEB1C32-E019-11D5-929B-00C0DF256EC4}
  9
$EXTNAMES
290
     1
  9
$PSVPSCALE
 40
0.0
  9
$OLESTARTUP
290
     0
  0
ENDSEC
  0
SECTION
  2
CLASSES
  0
CLASS
  1
ACDBDICTIONARYWDFLT
  2
AcDbDictionaryWithDefault
  3
ObjectDBX Classes
 90
        0
280
     0
281
     0
  0
CLASS
  1
VISUALSTYLE
  2
AcDbVisualStyle
  3
ObjectDBX Classes
 90
     4095
280
     0
281
     0
  0
CLASS
  1
MATERIAL
  2
AcDbMaterial
  3
ObjectDBX Classes
 90
     1153
280
     0
281
     0
  0
CLASS
  1
SCALE
  2
AcDbScale
  3
ObjectDBX Classes
 90
     1153
280
     0
281
     0
  0
CLASS
  1
TABLESTYLE
  2
AcDbTableStyle
  3
ObjectDBX Classes
 90
     4095
280
     0
281
     0
  0
CLASS
  1
MLEADERSTYLE
  2
AcDbMLeaderStyle
  3
ACDB_MLEADERSTYLE_CLASS
 90
     4095
280
     0
281
     0
  0
CLASS
  1
SUN
  2
AcDbSun
  3
SCENEOE
 90
     1153
280
     0
281
     0
  0
CLASS
  1
ACDBPLACEHOLDER
  2
AcDbPlaceHolder
  3
ObjectDBX Classes
 90
        0
280
     0
281
     0
  0
CLASS
  1
LAYOUT
  2
AcDbLayout
  3
ObjectDBX Classes
 90
        0
280
     0
281
     0
  0
ENDSEC
  0
SECTION
  2
TABLES
  0
TABLE
  2
VPORT
  5
8
330
0
100
AcDbSymbolTable
 70
     1
  0
VPORT
  5
29
330
8
100
AcDbSymbolTableRecord
100
AcDbViewportTableRecord
  2
*Active
 70
     0
 10
0.0
 20
0.0
 11
1.0
 21
1.0
 12
0.0
 22
0.0
 13
0.0
 23
0.0
 14
10.0
 24
10.0
 15
10.0
 25
10.0
 16
0.0
 26
0.0
 36
1.0
 17
0.0
 27
0.0
 37
0.0
 40
366.9585040078
 41
1.0
 42
50.0
 43
0.0
 44
0.0
 50
0.0
 51
0.0
 71
     0
 72
   100
 73
     1
 74
     3
 75
     0
 76
     0
 77
     0
 78
     0
281
     0
 65
     1
110
0.0
120
0.0
130
0.0
111
1.0
121
0.0
131
0.0
112
0.0
122
1.0
132
0.0
 79
     0
146
0.0
  0
ENDTAB
  0
TABLE
  2
LTYPE
  5
5
330
0
100
AcDbSymbolTable
 70
     6
  0
LTYPE
  5
14
330
5
100
AcDbSymbolTableRecord
100
AcDbLinetypeTableRecord
  2
ByBlock
 70
     0
  3

 72
    65
 73
     0
 40
0.0
  0
LTYPE
  5
15
330
5
100
AcDbSymbolTableRecord
100
AcDbLinetypeTableRecord
  2
ByLayer
 70
     0
  3

 72
    65
 73
     0
 40
0.0
  0
LTYPE
  5
16
330
5
100
AcDbSymbolTableRecord
100
AcDbLinetypeTableRecord
  2
Continuous
 70
     0
  3
Solid line
 72
    65
 73
     0
 40
0.0
  0
LTYPE
  5
6E
330
5
100
AcDbSymbolTableRecord
100
AcDbLinetypeTableRecord
  2
HIDDEN
 70
     0
  3
Hidden __ __ __ __ __ __ __ __ __ __ __ __ __ __
 72
    65
 73
     2
 40
1.905
 49
1.27
 74
     0
 49
-0.635
 74
     0
  0
LTYPE
  5
6F
330
5
100
AcDbSymbolTableRecord
100
AcDbLinetypeTableRecord
  2
PHANTOM
 70
     0
  3
Phantom ______  __  __  ______  __  __  ______
 72
    65
 73
     6
 40
12.7
 49
6.35
 74
     0
 49
-1.27
 74
     0
 49
1.27
 74
     0
 49
-1.27
 74
     0
 49
1.27
 74
     0
 49
-1.27
 74
     0
  0
LTYPE
  5
70
330
5
100
AcDbSymbolTableRecord
100
AcDbLinetypeTableRecord
  2
CENTER
 70
     0
  3
Center ____ _ ____ _ ____ _ ____ _ ____ _ ____
 72
    65
 73
     4
 40
10.16
 49
6.35
 74
     0
 49
-1.27
 74
     0
 49
1.27
 74
     0
 49
-1.27
 74
     0
  0
LTYPE
  5
71
330
5
100
AcDbSymbolTableRecord
100
AcDbLinetypeTableRecord
  2
CENTERX2
 70
     0
  3
Center (2x) ________  __  ________  __  _____
 72
    65
 73
     4
 40
20.32
 49
12.7
 74
     0
 49
-2.54
 74
     0
 49
2.54
 74
     0
 49
-2.54
 74
     0
  0
LTYPE
  5
72
330
5
100
AcDbSymbolTableRecord
100
AcDbLinetypeTableRecord
  2
DOT2
 70
     0
  3
Dot (.5x) ........................................
 72
    65
 73
     2
 40
0.635
 49
0.0
 74
     0
 49
-0.635
 74
     0
  0
ENDTAB
  0
TABLE
  2
LAYER
  5
2
330
0
100
AcDbSymbolTable
 70
     1
  0
LAYER
  5
10
330
2
100
AcDbSymbolTableRecord
100
AcDbLayerTableRecord
  2
0
 70
     0
 62
     7
  6
Continuous
370
    -3
390
F
  0
ENDTAB
  0
TABLE
  2
STYLE
  5
3
330
0
100
AcDbSymbolTable
 70
     1
  0
STYLE
  5
11
330
3
100
AcDbSymbolTableRecord
100
AcDbTextStyleTableRecord
  2
Standard
 70
     0
 40
0.0
 41
1.0
 50
0.0
 71
     0
 42
3.5
  3
txt
  4

  0
ENDTAB
  0
TABLE
  2
VIEW
  5
6
330
0
100
AcDbSymbolTable
 70
     0
  0
ENDTAB
  0
TABLE
  2
UCS
  5
7
330
0
100
AcDbSymbolTable
 70
     0
  0
ENDTAB
  0
TABLE
  2
APPID
  5
9
330
0
100
AcDbSymbolTable
 70
     1
  0
APPID
  5
12
330
9
100
AcDbSymbolTableRecord
100
AcDbRegAppTableRecord
  2
ACAD
 70
     0
  0
ENDTAB
  0
TABLE
  2
DIMSTYLE
  5
A
330
0
100
AcDbSymbolTable
 70
     1
100
AcDbDimStyleTable
  0
DIMSTYLE
105
27
330
A
100
AcDbSymbolTableRecord
100
AcDbDimStyleTableRecord
  2
ISO-25
 70
     0
 41
2.5
 42
0.625
 43
3.75
 44
1.25
 73
     0
 74
     0
 77
     1
 78
     8
140
2.5
141
2.5
143
0.0393700787
147
0.625
171
     3
172
     1
178
     0
271
     2
272
     2
274
     3
278
    44
283
     0
284
     8
340
11
  0
ENDTAB
  0
TABLE
  2
BLOCK_RECORD
  5
1
330
0
100
AcDbSymbolTable
 70
     1
  0
BLOCK_RECORD
  5
1F
330
1
100
AcDbSymbolTableRecord
100
AcDbBlockTableRecord
  2
*Model_Space
340
22
  0
BLOCK_RECORD
  5
1B
330
1
100
AcDbSymbolTableRecord
100
AcDbBlockTableRecord
  2
*Paper_Space
340
1E
  0
BLOCK_RECORD
  5
23
330
1
100
AcDbSymbolTableRecord
100
AcDbBlockTableRecord
  2
*Paper_Space0
340
26
  0
ENDTAB
  0
ENDSEC
  0
SECTION
  2
BLOCKS
  0
BLOCK
  5
20
330
1F
100
AcDbEntity
  8
0
100
AcDbBlockBegin
  2
*Model_Space
 70
     0
 10
0.0
 20
0.0
 30
0.0
  3
*Model_Space
  1

  0
ENDBLK
  5
21
330
1F
100
AcDbEntity
  8
0
100
AcDbBlockEnd
  0
BLOCK
  5
1C
330
1B
100
AcDbEntity
 67
     1
  8
0
100
AcDbBlockBegin
  2
*Paper_Space
 70
     0
 10
0.0
 20
0.0
 30
0.0
  3
*Paper_Space
  1

  0
ENDBLK
  5
1D
330
1B
100
AcDbEntity
 67
     1
  8
0
100
AcDbBlockEnd
  0
BLOCK
  5
24
330
23
100
AcDbEntity
  8
0
100
AcDbBlockBegin
  2
*Paper_Space0
 70
     0
 10
0.0
 20
0.0
 30
0.0
  3
*Paper_Space0
  1

  0
ENDBLK
  5
25
330
23
100
AcDbEntity
  8
0
100
AcDbBlockEnd
  0
ENDSEC
  0
SECTION
  2
ENTITIES
  0
CIRCLE
  5
73
330
1F
100
AcDbEntity
  8
0
  6
Continuous
 62
     7
370
    25
100
AcDbCircle
 10
-84.8528137424
 20
84.8528137424
 30
0.0
 40
35.00000000000001
  0
CIRCLE
  5
74
330
1F
100
AcDbEntity
  8
0
  6
Continuous
 62
     7
370
    25
100
AcDbCircle
 10
-120.0
 20
0.0
 30
0.0
 40
35.00000000000003
  0
CIRCLE
  5
75
330
1F
100
AcDbEntity
  8
0
  6
Continuous
 62
     7
370
    25
100
AcDbCircle
 10
-84.8528137424
 20
-84.8528137424
 30
0.0
 40
35.00000000000001
  0
CIRCLE
  5
76
330
1F
100
AcDbEntity
  8
0
  6
Continuous
 62
     7
370
    25
100
AcDbCircle
 10
0.0
 20
-120.0
 30
0.0
 40
35.00000000000003
  0
CIRCLE
  5
77
330
1F
100
AcDbEntity
  8
0
  6
Continuous
 62
     7
370
    25
100
AcDbCircle
 10
84.8528137424
 20
-84.8528137424
 30
0.0
 40
35.00000000000003
  0
CIRCLE
  5
78
330
1F
100
AcDbEntity
  8
0
  6
Continuous
 62
     7
370
    25
100
AcDbCircle
 10
120.0
 20
0.0
 30
0.0
 40
35.00000000000003
  0
CIRCLE
  5
79
330
1F
100
AcDbEntity
  8
0
  6
Continuous
 62
     7
370
    25
100
AcDbCircle
 10
84.8528137424
 20
84.8528137424
 30
0.0
 40
35.0
  0
CIRCLE
  5
7A
330
1F
100
AcDbEntity
  8
0
  6
Continuous
 62
     7
370
    25
100
AcDbCircle
 10
0.0
 20
120.0
 30
0.0
 40
34.99999999999999
  0
CIRCLE
  5
7B
330
1F
100
AcDbEntity
  8
0
  6
Continuous
 62
     7
370
    25
100
AcDbCircle
 10
-57.0633909777
 20
18.5410196625
 30
0.0
 40
4.500000000000007
  0
CIRCLE
  5
7C
330
1F
100
AcDbEntity
  8
0
  6
Continuous
 62
     7
370
    25
100
AcDbCircle
 10
-35.2671151375
 20
-48.5410196625
 30
0.0
 40
4.5
  0
CIRCLE
  5
7D
330
1F
100
AcDbEntity
  8
0
  6
Continuous
 62
     7
370
    25
100
AcDbCircle
 10
35.2671151375
 20
-48.5410196625
 30
0.0
 40
4.5
  0
CIRCLE
  5
7E
330
1F
100
AcDbEntity
  8
0
  6
Continuous
 62
     7
370
    25
100
AcDbCircle
 10
57.0633909777
 20
18.5410196625
 30
0.0
 40
4.499999999999993
  0
CIRCLE
  5
7F
330
1F
100
AcDbEntity
  8
0
  6
Continuous
 62
     7
370
    25
100
AcDbCircle
 10
0.0
 20
60.0
 30
0.0
 40
4.499999999999998
  0
CIRCLE
  5
80
330
1F
100
AcDbEntity
  8
0
  6
Continuous
 62
     7
370
    25
100
AcDbCircle
 10
0.0
 20
0.0
 30
0.0
 40
52.5
  0
ARC
  5
81
330
1F
100
AcDbEntity
  8
0
  6
Continuous
 62
     7
370
    25
100
AcDbCircle
 10
0.0
 20
0.0
 30
0.0
 40
179.9184971068484
100
AcDbArc
 50
60.3061744161
 51
60.550968441
  0
ARC
  5
82
330
1F
100
AcDbEntity
  8
0
  6
Continuous
 62
     7
370
    25
100
AcDbCircle
 10
87.9651226508
 20
155.8010455806
 30
0.0
 40
1.000000000000024
100
AcDbArc
 50
60.550968441
 51
136.7142857143
  0
LINE
  5
83
330
1F
100
AcDbEntity
  8
0
  6
Continuous
 62
     7
370
    25
100
AcDbLine
 10
87.2371789188
 20
156.4866824546
 30
0.0
 11
86.1865220553
 21
155.3711953691
 31
0.0
  0
ARC
  5
84
330
1F
100
AcDbEntity
  8
0
  6
Continuous
 62
     7
370
    25
100
AcDbCircle
 10
84.4758542851
 20
156.9824420231
 30
0.0
 40
2.350000000000001
100
AcDbArc
 50
166.7142857143
 51
316.7142857143
  0
LINE
  5
85
330
1F
100
AcDbEntity
  8
0
  6
Continuous
 62
     7
370
    25
100
AcDbLine
 10
82.1887492117
 20
157.5224886721
 30
0.0
 11
82.5409012034
 21
159.0138572574
 31
0.0
  0
ARC
  5
86
330
1F
100
AcDbEntity
  8
0
  6
Continuous
 62
     7
370
    25
100
AcDbCircle
 10
81.5676650019
 20
159.2436643421
 30
0.0
 40
1.000000000000017
100
AcDbArc
 50
346.7142857143
 51
62.8776029876
  0
ARC
  5
87
330
1F
100
AcDbEntity
  8
0
  6
Continuous
 62
     7
370
    25
100
AcDbCircle
 10
0.0
 20
0.0
 30
0.0
 40
179.9184971068484
100
AcDbArc
 50
62.8776029876
 51
63.1223970124
  0
ARC
  5
88
330
1F
100
AcDbEntity
  8
0
  6
Continuous
 62
     7
370
    25
100
AcDbCircle
 10
80.8865601472
 20
159.5907045994
 30
0.0
 40
0.9999999999999803
100
AcDbArc
 50
63.1223970124
 51
139.2857142857
  0
LINE
  5
89
330
1F
100
AcDbEntity
  8
0
  6
Continuous
 62
     7
370
    25
100
AcDbLine
 10
80.1285884241
 20
160.2429920106
 30
0.0
 11
79.129035641
 21
159.0814906045
 31
0.0
  0
ARC
  5
8A
330
1F
100
AcDbEntity
  8
0
  6
Continuous
 62
     7
370
    25
100
AcDbCircle
 10
77.3478020916
 20
160.614366021
 30
0.0
 40
2.350000000000011
100
AcDbArc
 50
169.2857142857
 51
319.2857142857
  0
LINE
  5
8B
330
1F
100
AcDbEntity
  8
0
  6
Continuous
 62
     7
370
    25
100
AcDbLine
 10
75.0387708795
 20
161.0512582979
 30
0.0
 11
75.323658279
 21
162.5569244136
 31
0.0
  0
ARC
  5
8C
330
1F
100
AcDbEntity
  8
0
  6
Continuous
 62
     7
370
    25
100
AcDbCircle
 10
74.3410918058
 20
162.7428360208
 30
0.0
 40
1.000000000000018
100
AcDbArc
 50
349.2857142857
 51
65.449031559
  0
ARC
  5
8D
330
1F
100
AcDbEntity
  8
0
  6
Continuous
 62
     7
370
    25
100
AcDbCircle
 10
0.0
 20
0.0
 30
0.0
 40
179.9184971068484
100
AcDbArc
 50
65.449031559
 51
65.6938255839
  0
ARC
  5
8E
330
1F
100
AcDbEntity
  8
0
  6
Continuous
 62
     7
370
    25
100
AcDbCircle
 10
73.6451028761
 20
163.0589691778
 30
0.0
 40
1.000000000000022
100
AcDbArc
 50
65.6938255839
 51
141.8571428571
  0
LINE
  5
8F
330
1F
100
AcDbEntity
  8
0
  6
Continuous
 62
     7
370
    25
100
AcDbLine
 10
72.858629616
 20
163.6765935063
 30
0.0
 11
71.9121938796
 21
162.4714168888
 31
0.0
  0
ARC
  5
90
330
1F
100
AcDbEntity
  8
0
  6
Continuous
 62
     7
370
    25
100
AcDbCircle
 10
70.0639817183
 20
163.9228340608
 30
0.0
 40
2.350000000000039
100
AcDbArc
 50
171.8571428571
 51
321.8571428571
  0
LINE
  5
91
330
1F
100
AcDbEntity
  8
0
  6
Continuous
 62
     7
370
    25
100
AcDbLine
 10
67.7376744491
 20
164.2556921225
 30
0.0
 11
67.9547235312
 21
165.7726235576
 31
0.0
  0
ARC
  5
92
330
1F
100
AcDbEntity
  8
0
  6
Continuous
 62
     7
370
    25
100
AcDbCircle
 10
66.9648055443
 20
165.914265286
 30
0.0
 40
1.000000000000001
100
AcDbArc
 50
351.8571428571
 51
68.0204601304
  0
ARC
  5
93
330
1F
100
AcDbEntity
  8
0
  6
Continuous
 62
     7
370
    25
100
AcDbCircle
 10
0.0
 20
0.0
 30
0.0
 40
179.9184971068484
100
AcDbArc
 50
68.0204601304
 51
68.2652541553
  0
ARC
  5
94
330
1F
100
AcDbEntity
  8
0
  6
Continuous
 62
     7
370
    25
100
AcDbCircle
 10
66.2553341687
 20
166.1988546927
 30
0.0
 40
1.000000000000012
100
AcDbArc
 50
68.2652541553
 51
144.4285714286
  0
LINE
  5
95
330
1F
100
AcDbEntity
  8
0
  6
Continuous
 62
     7
370
    25
100
AcDbLine
 10
65.4419432241
 20
166.7805721252
 30
0.0
 11
64.5505305299
 21
165.5341473616
 31
0.0
  0
ARC
  5
96
330
1F
100
AcDbEntity
  8
0
  6
Continuous
 62
     7
370
    25
100
AcDbCircle
 10
62.6390618102
 20
166.901183328
 30
0.0
 40
2.350000000000003
100
AcDbArc
 50
174.4285714286
 51
324.4285714286
  0
LINE
  5
97
330
1F
100
AcDbEntity
  8
0
  6
Continuous
 62
     7
370
    25
100
AcDbLine
 10
60.3001633571
 20
167.1293368429
 30
0.0
 11
60.4489370137
 21
168.6544786991
 31
0.0
  0
ARC
  5
98
330
1F
100
AcDbEntity
  8
0
  6
Continuous
 62
     7
370
    25
100
AcDbCircle
 10
59.4536610762
 20
168.7515653012
 30
0.0
 40
1.000000000000002
100
AcDbArc
 50
354.4285714286
 51
70.5918887019
  0
ARC
  5
99
330
1F
100
AcDbEntity
  8
0
  6
Continuous
 62
     7
370
    25
100
AcDbCircle
 10
0.0
 20
0.0
 30
0.0
 40
179.9184971068485
100
AcDbArc
 50
70.5918887019
 51
70.8366827267
  0
ARC
  5
9A
330
1F
100
AcDbEntity
  8
0
  6
Continuous
 62
     7
370
    25
100
AcDbCircle
 10
58.7321360356
 20
169.0040378324
 30
0.0
 40
1.000000000000008
100
AcDbArc
 50
70.8366827267
 51
147.0
  0
LINE
  5
9B
330
1F
100
AcDbEntity
  8
0
  6
Continuous
 62
     7
370
    25
100
AcDbLine
 10
57.8934654677
 20
169.5486768674
 30
0.0
 11
57.0588710024
 21
168.2635140913
 31
0.0
  0
ARC
  5
9C
330
1F
100
AcDbEntity
  8
0
  6
Continuous
 62
     7
370
    25
100
AcDbCircle
 10
55.0879951677
 20
169.5434158236
 30
0.0
 40
2.350000000000009
100
AcDbArc
 50
177.0
 51
327.0
  0
LINE
  5
9D
330
1F
100
AcDbEntity
  8
0
  6
Continuous
 62
     7
370
    25
100
AcDbLine
 10
52.741215761
 20
169.6664053208
 30
0.0
 11
52.8214143818
 21
171.1966861656
 31
0.0
  0
ARC
  5
9E
330
1F
100
AcDbEntity
  8
0
  6
Continuous
 62
     7
370
    25
100
AcDbCircle
 10
51.822784847
 20
171.2490221218
 30
0.0
 40
1.000000000000014
100
AcDbArc
 50
357.0
 51
73.1633172733
  0
ARC
  5
9F
330
1F
100
AcDbEntity
  8
0
  6
Continuous
 62
     7
370
    25
100
AcDbCircle
 10
0.0
 20
0.0
 30
0.0
 40
179.9184971068484
100
AcDbArc
 50
73.1633172733
 51
73.4081112981
  0
ARC
  5
A0
330
1F
100
AcDbEntity
  8
0
  6
Continuous
 62
     7
370
    25
100
AcDbCircle
 10
51.0906591968
 20
171.4688693314
 30
0.0
 40
1.000000000000009
100
AcDbArc
 50
73.4081112981
 51
149.5714285714
  0
LINE
  5
A1
330
1F
100
AcDbEntity
  8
0
  6
Continuous
 62
     7
370
    25
100
AcDbLine
 10
50.2283979764
 20
171.9753331384
 30
0.0
 11
49.4523025022
 21
170.6540204966
 31
0.0
  0
ARC
  5
A2
330
1F
100
AcDbEntity
  8
0
  6
Continuous
 62
     7
370
    25
100
AcDbCircle
 10
47.4259886342
 20
171.8442104431
 30
0.0
 40
2.350000000000005
100
AcDbArc
 50
179.5714285714
 51
329.5714285714
  0
LINE
  5
A3
330
1F
100
AcDbEntity
  8
0
  6
Continuous
 62
     7
370
    25
100
AcDbLine
 10
45.0760543753
 20
171.861788238
 30
0.0
 11
45.0875164509
 21
173.3941262894
 31
0.0
  0
ARC
  5
A4
330
1F
100
AcDbEntity
  8
0
  6
Continuous
 62
     7
370
    25
100
AcDbCircle
 10
44.0875444259
 20
173.4016062021
 30
0.0
 40
0.9999999999999984
100
AcDbArc
 50
359.5714285714
 51
75.7347458447
  0
ARC
  5
A5
330
1F
100
AcDbEntity
  8
0
  6
Continuous
 62
     7
370
    25
100
AcDbCircle
 10
0.0
 20
0.0
 30
0.0
 40
179.9184971068484
100
AcDbArc
 50
75.7347458447
 51
75.9795398696
  0
ARC
  5
A6
330
1F
100
AcDbEntity
  8
0
  6
Continuous
 62
     7
370
    25
100
AcDbCircle
 10
43.3462925697
 20
173.5883853472
 30
0.0
 40
0.9999999999999976
100
AcDbArc
 50
75.9795398696
 51
152.1428571429
  0
LINE
  5
A7
330
1F
100
AcDbEntity
  8
0
  6
Continuous
 62
     7
370
    25
100
AcDbLine
 10
42.4621771762
 20
174.0556539754
 30
0.0
 11
41.7461436459
 21
172.7008524157
 31
0.0
  0
ARC
  5
A8
330
1F
100
AcDbEntity
  8
0
  6
Continuous
 62
     7
370
    25
100
AcDbCircle
 10
39.6684724712
 20
173.7989336922
 30
0.0
 40
2.349999999999991
100
AcDbArc
 50
182.1428571429
 51
332.1428571429
  0
LINE
  5
A9
330
1F
100
AcDbEntity
  8
0
  6
Continuous
 62
     7
370
    25
100
AcDbLine
 10
37.320115815
 20
173.7110643856
 30
0.0
 11
37.2628182623
 21
175.2423737185
 31
0.0
  0
ARC
  5
AA
330
1F
100
AcDbEntity
  8
0
  6
Continuous
 62
     7
370
    25
100
AcDbCircle
 10
36.2635175575
 20
175.2049825243
 30
0.0
 40
1.000000000000015
100
AcDbArc
 50
2.1428571429
 51
78.3061744161
  0
ARC
  5
AB
330
1F
100
AcDbEntity
  8
0
  6
Continuous
 62
     7
370
    25
100
AcDbCircle
 10
0.0
 20
0.0
 30
0.0
 40
179.9184971068484
100
AcDbArc
 50
78.3061744161
 51
78.550968441
  0
ARC
  5
AC
330
1F
100
AcDbEntity
  8
0
  6
Continuous
 62
     7
370
    25
100
AcDbCircle
 10
35.514632278
 20
175.3583174564
 30
0.0
 40
1.000000000000003
100
AcDbArc
 50
78.550968441
 51
154.7142857143
  0
LINE
  5
AD
330
1F
100
AcDbEntity
  8
0
  6
Continuous
 62
     7
370
    25
100
AcDbLine
 10
34.6104432021
 20
175.7854498891
 30
0.0
 11
33.9559136121
 21
174.3998878016
 31
0.0
  0
ARC
  5
AE
330
1F
100
AcDbEntity
  8
0
  6
Continuous
 62
     7
370
    25
100
AcDbCircle
 10
31.8310692838
 20
175.4036490184
 30
0.0
 40
2.350000000000017
100
AcDbArc
 50
184.7142857143
 51
334.7142857143
  0
LINE
  5
AF
330
1F
100
AcDbEntity
  8
0
  6
Continuous
 62
     7
370
    25
100
AcDbLine
 10
29.489019508
 20
175.2105095674
 30
0.0
 11
29.3630777167
 21
176.7377063288
 31
0.0
  0
ARC
  5
B0
330
1F
100
AcDbEntity
  8
0
  6
Continuous
 62
     7
370
    25
100
AcDbCircle
 10
28.3664607908
 20
176.6555193284
 30
0.0
 40
0.999999999999999
100
AcDbArc
 50
4.7142857143
 51
80.8776029876
  0
ARC
  5
B1
330
1F
100
AcDbEntity
  8
0
  6
Continuous
 62
     7
370
    25
100
AcDbCircle
 10
0.0
 20
0.0
 30
0.0
 40
179.9184971068485
100
AcDbArc
 50
80.8776029876
 51
81.1223970124
  0
ARC
  5
B2
330
1F
100
AcDbEntity
  8
0
  6
Continuous
 62
     7
370
    25
100
AcDbCircle
 10
27.6114502433
 20
176.7751012514
 30
0.0
 40
1.000000000000019
100
AcDbArc
 50
81.1223970124
 51
157.2857142857
  0
LINE
  5
B3
330
1F
100
AcDbEntity
  8
0
  6
Continuous
 62
     7
370
    25
100
AcDbLine
 10
26.6890084015
 20
177.1612373007
 30
0.0
 11
26.0973008872
 21
175.7477050229
 31
0.0
  0
ARC
  5
B4
330
1F
100
AcDbEntity
  8
0
  6
Continuous
 62
     7
370
    25
100
AcDbCircle
 10
23.9295625591
 20
176.6551247388
 30
0.0
 40
2.350000000000021
100
AcDbArc
 50
187.2857142857
 51
337.2857142857
  0
LINE
  5
B5
330
1F
100
AcDbEntity
  8
0
  6
Continuous
 62
     7
370
    25
100
AcDbLine
 10
21.5985362402
 20
176.3571041005
 30
0.0
 11
21.4042038403
 21
177.8771127192
 31
0.0
  0
ARC
  5
B6
330
1F
100
AcDbEntity
  8
0
  6
Continuous
 62
     7
370
    25
100
AcDbCircle
 10
20.4122777472
 20
177.7502954263
 30
0.0
 40
0.9999999999999978
100
AcDbArc
 50
7.2857142857
 51
83.449031559
  0
ARC
  5
B7
330
1F
100
AcDbEntity
  8
0
  6
Continuous
 62
     7
370
    25
100
AcDbCircle
 10
0.0
 20
0.0
 30
0.0
 40
179.9184971068484
100
AcDbArc
 50
83.449031559
 51
83.6938255839
  0
ARC
  5
B8
330
1F
100
AcDbEntity
  8
0
  6
Continuous
 62
     7
370
    25
100
AcDbCircle
 10
19.6526624223
 20
177.8358835182
 30
0.0
 40
0.9999999999999921
100
AcDbArc
 50
83.6938255839
 51
159.8571428571
  0
LINE
  5
B9
330
1F
100
AcDbEntity
  8
0
  6
Continuous
 62
     7
370
    25
100
AcDbLine
 10
18.7138254898
 20
178.1802455574
 30
0.0
 11
18.1861316714
 21
176.7415897554
 31
0.0
  0
ARC
  5
BA
330
1F
100
AcDbEntity
  8
0
  6
Continuous
 62
     7
370
    25
100
AcDbCircle
 10
15.9798648799
 20
177.5508405476
 30
0.0
 40
2.349999999999994
100
AcDbArc
 50
189.8571428571
 51
339.8571428571
  0
LINE
  5
BB
330
1F
100
AcDbEntity
  8
0
  6
Continuous
 62
     7
370
    25
100
AcDbLine
 10
13.6645563948
 20
177.1485388959
 30
0.0
 11
13.4022247459
 21
178.658298277
 31
0.0
  0
ARC
  5
BC
330
1F
100
AcDbEntity
  8
0
  6
Continuous
 62
     7
370
    25
100
AcDbCircle
 10
12.4169870927
 20
178.4871060848
 30
0.0
 40
0.9999999999999979
100
AcDbArc
 50
9.8571428571
 51
86.0204601304
  0
ARC
  5
BD
330
1F
100
AcDbEntity
  8
0
  6
Continuous
 62
     7
370
    25
100
AcDbCircle
 10
0.0
 20
0.0
 30
0.0
 40
179.9184971068485
100
AcDbArc
 50
86.0204601304
 51
86.2652541553
  0
ARC
  5
BE
330
1F
100
AcDbEntity
  8
0
  6
Continuous
 62
     7
370
    25
100
AcDbCircle
 10
11.6542967547
 20
178.5385279824
 30
0.0
 40
1.000000000000003
100
AcDbArc
 50
86.2652541553
 51
162.4285714286
  0
LINE
  5
BF
330
1F
100
AcDbEntity
  8
0
  6
Continuous
 62
     7
370
    25
100
AcDbLine
 10
10.700955424
 20
178.8404225123
 30
0.0
 11
10.2383380067
 21
177.3795404473
 31
0.0
  0
ARC
  5
C0
330
1F
100
AcDbEntity
  8
0
  6
Continuous
 62
     7
370
    25
100
AcDbCircle
 10
7.9979858795
 20
178.0889925925
 30
0.0
 40
2.35000000000002
100
AcDbArc
 50
192.4285714286
 51
342.4285714286
  0
LINE
  5
C1
330
1F
100
AcDbEntity
  8
0
  6
Continuous
 62
     7
370
    25
100
AcDbLine
 10
5.7030579514
 20
177.5832201094
 30
0.0
 11
5.3732553545
 21
179.0796897983
 31
0.0
  0
ARC
  5
C2
330
1F
100
AcDbEntity
  8
0
  6
Continuous
 62
     7
370
    25
100
AcDbCircle
 10
4.3966902787
 20
178.8644674651
 30
0.0
 40
0.999999999999997
100
AcDbArc
 50
12.4285714286
 51
88.5918887019
  0
ARC
  5
C3
330
1F
100
AcDbEntity
  8
0
  6
Continuous
 62
     7
370
    25
100
AcDbCircle
 10
0.0
 20
0.0
 30
0.0
 40
179.9184971068484
100
AcDbArc
 50
88.5918887019
 51
88.8366827267
  0
ARC
  5
C4
330
1F
100
AcDbEntity
  8
0
  6
Continuous
 62
     7
370
    25
100
AcDbCircle
 10
3.6324608844
 20
178.8816196117
 30
0.0
 40
1.000000000000001
100
AcDbArc
 50
88.8366827267
 51
165.0
  0
LINE
  5
C5
330
1F
100
AcDbEntity
  8
0
  6
Continuous
 62
     7
370
    25
100
AcDbLine
 10
2.6665350581
 20
179.1404386568
 30
0.0
 11
2.2699256918
 21
177.6602723509
 31
0.0
  0
ARC
  5
C6
330
1F
100
AcDbEntity
  8
0
  6
Continuous
 62
     7
370
    25
100
AcDbCircle
 10
0.0
 20
178.2684971068
 30
0.0
 40
2.350000000000003
100
AcDbArc
 50
195.0
 51
345.0
  0
LINE
  5
C7
330
1F
100
AcDbEntity
  8
0
  6
Continuous
 62
     7
370
    25
100
AcDbLine
 10
-2.2699256918
 20
177.6602723509
 30
0.0
 11
-2.6665350581
 21
179.1404386568
 31
0.0
  0
ARC
  5
C8
330
1F
100
AcDbEntity
  8
0
  6
Continuous
 62
     7
370
    25
100
AcDbCircle
 10
-3.6324608844
 20
178.8816196117
 30
0.0
 40
0.9999999999999943
100
AcDbArc
 50
15.0
 51
91.1633172733
  0
ARC
  5
C9
330
1F
100
AcDbEntity
  8
0
  6
Continuous
 62
     7
370
    25
100
AcDbCircle
 10
0.0
 20
0.0
 30
0.0
 40
179.9184971068485
100
AcDbArc
 50
91.1633172733
 51
91.4081112981
  0
ARC
  5
CA
330
1F
100
AcDbEntity
  8
0
  6
Continuous
 62
     7
370
    25
100
AcDbCircle
 10
-4.3966902787
 20
178.8644674651
 30
0.0
 40
1.000000000000006
100
AcDbArc
 50
91.4081112981
 51
167.5714285714
  0
LINE
  5
CB
330
1F
100
AcDbEntity
  8
0
  6
Continuous
 62
     7
370
    25
100
AcDbLine
 10
-5.3732553545
 20
179.0796897983
 30
0.0
 11
-5.7030579514
 21
177.5832201094
 31
0.0
  0
ARC
  5
CC
330
1F
100
AcDbEntity
  8
0
  6
Continuous
 62
     7
370
    25
100
AcDbCircle
 10
-7.9979858795
 20
178.0889925925
 30
0.0
 40
2.35000000000002
100
AcDbArc
 50
197.5714285714
 51
347.5714285714
  0
LINE
  5
CD
330
1F
100
AcDbEntity
  8
0
  6
Continuous
 62
     7
370
    25
100
AcDbLine
 10
-10.2383380067
 20
177.3795404473
 30
0.0
 11
-10.700955424
 21
178.8404225123
 31
0.0
  0
ARC
  5
CE
330
1F
100
AcDbEntity
  8
0
  6
Continuous
 62
     7
370
    25
100
AcDbCircle
 10
-11.6542967547
 20
178.5385279824
 30
0.0
 40
0.9999999999999998
100
AcDbArc
 50
17.5714285714
 51
93.7347458447
  0
ARC
  5
CF
330
1F
100
AcDbEntity
  8
0
  6
Continuous
 62
     7
370
    25
100
AcDbCircle
 10
0.0
 20
0.0
 30
0.0
 40
179.9184971068485
100
AcDbArc
 50
93.7347458447
 51
93.9795398696
  0
ARC
  5
D0
330
1F
100
AcDbEntity
  8
0
  6
Continuous
 62
     7
370
    25
100
AcDbCircle
 10
-12.4169870927
 20
178.4871060848
 30
0.0
 40
1.000000000000005
100
AcDbArc
 50
93.9795398696
 51
170.1428571429
  0
LINE
  5
D1
330
1F
100
AcDbEntity
  8
0
  6
Continuous
 62
     7
370
    25
100
AcDbLine
 10
-13.4022247459
 20
178.658298277
 30
0.0
 11
-13.6645563948
 21
177.1485388959
 31
0.0
  0
ARC
  5
D2
330
1F
100
AcDbEntity
  8
0
  6
Continuous
 62
     7
370
    25
100
AcDbCircle
 10
-15.9798648799
 20
177.5508405476
 30
0.0
 40
2.350000000000001
100
AcDbArc
 50
200.1428571429
 51
350.1428571429
  0
LINE
  5
D3
330
1F
100
AcDbEntity
  8
0
  6
Continuous
 62
     7
370
    25
100
AcDbLine
 10
-18.1861316714
 20
176.7415897554
 30
0.0
 11
-18.7138254898
 21
178.1802455574
 31
0.0
  0
ARC
  5
D4
330
1F
100
AcDbEntity
  8
0
  6
Continuous
 62
     7
370
    25
100
AcDbCircle
 10
-19.6526624223
 20
177.8358835182
 30
0.0
 40
1.000000000000011
100
AcDbArc
 50
20.1428571429
 51
96.3061744161
  0
ARC
  5
D5
330
1F
100
AcDbEntity
  8
0
  6
Continuous
 62
     7
370
    25
100
AcDbCircle
 10
0.0
 20
0.0
 30
0.0
 40
179.9184971068485
100
AcDbArc
 50
96.3061744161
 51
96.550968441
  0
ARC
  5
D6
330
1F
100
AcDbEntity
  8
0
  6
Continuous
 62
     7
370
    25
100
AcDbCircle
 10
-20.4122777472
 20
177.7502954263
 30
0.0
 40
1.000000000000008
100
AcDbArc
 50
96.550968441
 51
172.7142857143
  0
LINE
  5
D7
330
1F
100
AcDbEntity
  8
0
  6
Continuous
 62
     7
370
    25
100
AcDbLine
 10
-21.4042038403
 20
177.8771127192
 30
0.0
 11
-21.5985362402
 21
176.3571041005
 31
0.0
  0
ARC
  5
D8
330
1F
100
AcDbEntity
  8
0
  6
Continuous
 62
     7
370
    25
100
AcDbCircle
 10
-23.9295625591
 20
176.6551247388
 30
0.0
 40
2.350000000000013
100
AcDbArc
 50
202.7142857143
 51
352.7142857143
  0
LINE
  5
D9
330
1F
100
AcDbEntity
  8
0
  6
Continuous
 62
     7
370
    25
100
AcDbLine
 10
-26.0973008872
 20
175.7477050229
 30
0.0
 11
-26.6890084015
 21
177.1612373007
 31
0.0
  0
ARC
  5
DA
330
1F
100
AcDbEntity
  8
0
  6
Continuous
 62
     7
370
    25
100
AcDbCircle
 10
-27.6114502433
 20
176.7751012514
 30
0.0
 40
1.000000000000006
100
AcDbArc
 50
22.7142857143
 51
98.8776029876
  0
ARC
  5
DB
330
1F
100
AcDbEntity
  8
0
  6
Continuous
 62
     7
370
    25
100
AcDbCircle
 10
0.0
 20
0.0
 30
0.0
 40
179.9184971068485
100
AcDbArc
 50
98.8776029876
 51
99.1223970124
  0
ARC
  5
DC
330
1F
100
AcDbEntity
  8
0
  6
Continuous
 62
     7
370
    25
100
AcDbCircle
 10
-28.3664607908
 20
176.6555193284
 30
0.0
 40
1.000000000000002
100
AcDbArc
 50
99.1223970124
 51
175.2857142857
  0
LINE
  5
DD
330
1F
100
AcDbEntity
  8
0
  6
Continuous
 62
     7
370
    25
100
AcDbLine
 10
-29.3630777167
 20
176.7377063288
 30
0.0
 11
-29.489019508
 21
175.2105095674
 31
0.0
  0
ARC
  5
DE
330
1F
100
AcDbEntity
  8
0
  6
Continuous
 62
     7
370
    25
100
AcDbCircle
 10
-31.8310692838
 20
175.4036490184
 30
0.0
 40
2.35000000000001
100
AcDbArc
 50
205.2857142857
 51
355.2857142857
  0
LINE
  5
DF
330
1F
100
AcDbEntity
  8
0
  6
Continuous
 62
     7
370
    25
100
AcDbLine
 10
-33.9559136121
 20
174.3998878016
 30
0.0
 11
-34.6104432021
 21
175.7854498891
 31
0.0
  0
ARC
  5
E0
330
1F
100
AcDbEntity
  8
0
  6
Continuous
 62
     7
370
    25
100
AcDbCircle
 10
-35.514632278
 20
175.3583174564
 30
0.0
 40
0.9999999999999962
100
AcDbArc
 50
25.2857142857
 51
101.449031559
  0
ARC
  5
E1
330
1F
100
AcDbEntity
  8
0
  6
Continuous
 62
     7
370
    25
100
AcDbCircle
 10
0.0
 20
0.0
 30
0.0
 40
179.9184971068485
100
AcDbArc
 50
101.449031559
 51
101.6938255839
  0
ARC
  5
E2
330
1F
100
AcDbEntity
  8
0
  6
Continuous
 62
     7
370
    25
100
AcDbCircle
 10
-36.2635175575
 20
175.2049825243
 30
0.0
 40
1.000000000000012
100
AcDbArc
 50
101.6938255839
 51
177.8571428571
  0
LINE
  5
E3
330
1F
100
AcDbEntity
  8
0
  6
Continuous
 62
     7
370
    25
100
AcDbLine
 10
-37.2628182623
 20
175.2423737185
 30
0.0
 11
-37.320115815
 21
173.7110643856
 31
0.0
  0
ARC
  5
E4
330
1F
100
AcDbEntity
  8
0
  6
Continuous
 62
     7
370
    25
100
AcDbCircle
 10
-39.6684724712
 20
173.7989336922
 30
0.0
 40
2.350000000000018
100
AcDbArc
 50
207.8571428571
 51
357.8571428571
  0
LINE
  5
E5
330
1F
100
AcDbEntity
  8
0
  6
Continuous
 62
     7
370
    25
100
AcDbLine
 10
-41.7461436459
 20
172.7008524157
 30
0.0
 11
-42.4621771762
 21
174.0556539754
 31
0.0
  0
ARC
  5
E6
330
1F
100
AcDbEntity
  8
0
  6
Continuous
 62
     7
370
    25
100
AcDbCircle
 10
-43.3462925697
 20
173.5883853472
 30
0.0
 40
1.000000000000004
100
AcDbArc
 50
27.8571428571
 51
104.0204601304
  0
ARC
  5
E7
330
1F
100
AcDbEntity
  8
0
  6
Continuous
 62
     7
370
    25
100
AcDbCircle
 10
0.0
 20
0.0
 30
0.0
 40
179.9184971068484
100
AcDbArc
 50
104.0204601304
 51
104.2652541553
  0
ARC
  5
E8
330
1F
100
AcDbEntity
  8
0
  6
Continuous
 62
     7
370
    25
100
AcDbCircle
 10
-44.0875444259
 20
173.4016062021
 30
0.0
 40
1.000000000000013
100
AcDbArc
 50
104.2652541553
 51
180.4285714286
  0
LINE
  5
E9
330
1F
100
AcDbEntity
  8
0
  6
Continuous
 62
     7
370
    25
100
AcDbLine
 10
-45.0875164509
 20
173.3941262894
 30
0.0
 11
-45.0760543753
 21
171.861788238
 31
0.0
  0
ARC
  5
EA
330
1F
100
AcDbEntity
  8
0
  6
Continuous
 62
     7
370
    25
100
AcDbCircle
 10
-47.4259886342
 20
171.8442104431
 30
0.0
 40
2.349999999999997
100
AcDbArc
 50
210.4285714286
 51
0.4285714286
  0
LINE
  5
EB
330
1F
100
AcDbEntity
  8
0
  6
Continuous
 62
     7
370
    25
100
AcDbLine
 10
-49.4523025022
 20
170.6540204966
 30
0.0
 11
-50.2283979764
 21
171.9753331384
 31
0.0
  0
ARC
  5
EC
330
1F
100
AcDbEntity
  8
0
  6
Continuous
 62
     7
370
    25
100
AcDbCircle
 10
-51.0906591968
 20
171.4688693314
 30
0.0
 40
0.9999999999999971
100
AcDbArc
 50
30.4285714286
 51
106.5918887019
  0
ARC
  5
ED
330
1F
100
AcDbEntity
  8
0
  6
Continuous
 62
     7
370
    25
100
AcDbCircle
 10
0.0
 20
0.0
 30
0.0
 40
179.9184971068485
100
AcDbArc
 50
106.5918887019
 51
106.8366827267
  0
ARC
  5
EE
330
1F
100
AcDbEntity
  8
0
  6
Continuous
 62
     7
370
    25
100
AcDbCircle
 10
-51.822784847
 20
171.2490221218
 30
0.0
 40
1.000000000000003
100
AcDbArc
 50
106.8366827267
 51
183.0
  0
LINE
  5
EF
330
1F
100
AcDbEntity
  8
0
  6
Continuous
 62
     7
370
    25
100
AcDbLine
 10
-52.8214143818
 20
171.1966861656
 30
0.0
 11
-52.741215761
 21
169.6664053208
 31
0.0
  0
ARC
  5
F0
330
1F
100
AcDbEntity
  8
0
  6
Continuous
 62
     7
370
    25
100
AcDbCircle
 10
-55.0879951677
 20
169.5434158236
 30
0.0
 40
2.350000000000009
100
AcDbArc
 50
213.0
 51
3.0
  0
LINE
  5
F1
330
1F
100
AcDbEntity
  8
0
  6
Continuous
 62
     7
370
    25
100
AcDbLine
 10
-57.0588710024
 20
168.2635140913
 30
0.0
 11
-57.8934654677
 21
169.5486768674
 31
0.0
  0
ARC
  5
F2
330
1F
100
AcDbEntity
  8
0
  6
Continuous
 62
     7
370
    25
100
AcDbCircle
 10
-58.7321360356
 20
169.0040378324
 30
0.0
 40
1.000000000000015
100
AcDbArc
 50
33.0
 51
109.1633172733
  0
ARC
  5
F3
330
1F
100
AcDbEntity
  8
0
  6
Continuous
 62
     7
370
    25
100
AcDbCircle
 10
0.0
 20
0.0
 30
0.0
 40
179.9184971068484
100
AcDbArc
 50
109.1633172733
 51
109.4081112981
  0
ARC
  5
F4
330
1F
100
AcDbEntity
  8
0
  6
Continuous
 62
     7
370
    25
100
AcDbCircle
 10
-59.4536610762
 20
168.7515653012
 30
0.0
 40
1.000000000000005
100
AcDbArc
 50
109.4081112981
 51
185.5714285714
  0
LINE
  5
F5
330
1F
100
AcDbEntity
  8
0
  6
Continuous
 62
     7
370
    25
100
AcDbLine
 10
-60.4489370137
 20
168.6544786991
 30
0.0
 11
-60.3001633571
 21
167.1293368429
 31
0.0
  0
ARC
  5
F6
330
1F
100
AcDbEntity
  8
0
  6
Continuous
 62
     7
370
    25
100
AcDbCircle
 10
-62.6390618102
 20
166.901183328
 30
0.0
 40
2.350000000000003
100
AcDbArc
 50
215.5714285714
 51
5.5714285714
  0
LINE
  5
F7
330
1F
100
AcDbEntity
  8
0
  6
Continuous
 62
     7
370
    25
100
AcDbLine
 10
-64.5505305299
 20
165.5341473616
 30
0.0
 11
-65.4419432241
 21
166.7805721252
 31
0.0
  0
ARC
  5
F8
330
1F
100
AcDbEntity
  8
0
  6
Continuous
 62
     7
370
    25
100
AcDbCircle
 10
-66.2553341687
 20
166.1988546927
 30
0.0
 40
1.000000000000001
100
AcDbArc
 50
35.5714285714
 51
111.7347458447
  0
ARC
  5
F9
330
1F
100
AcDbEntity
  8
0
  6
Continuous
 62
     7
370
    25
100
AcDbCircle
 10
0.0
 20
0.0
 30
0.0
 40
179.9184971068485
100
AcDbArc
 50
111.7347458447
 51
111.9795398696
  0
ARC
  5
FA
330
1F
100
AcDbEntity
  8
0
  6
Continuous
 62
     7
370
    25
100
AcDbCircle
 10
-66.9648055443
 20
165.914265286
 30
0.0
 40
1.000000000000005
100
AcDbArc
 50
111.9795398696
 51
188.1428571429
  0
LINE
  5
FB
330
1F
100
AcDbEntity
  8
0
  6
Continuous
 62
     7
370
    25
100
AcDbLine
 10
-67.9547235312
 20
165.7726235576
 30
0.0
 11
-67.7376744491
 21
164.2556921225
 31
0.0
  0
ARC
  5
FC
330
1F
100
AcDbEntity
  8
0
  6
Continuous
 62
     7
370
    25
100
AcDbCircle
 10
-70.0639817183
 20
163.9228340608
 30
0.0
 40
2.350000000000039
100
AcDbArc
 50
218.1428571429
 51
8.1428571429
  0
LINE
  5
FD
330
1F
100
AcDbEntity
  8
0
  6
Continuous
 62
     7
370
    25
100
AcDbLine
 10
-71.9121938796
 20
162.4714168888
 30
0.0
 11
-72.858629616
 21
163.6765935063
 31
0.0
  0
ARC
  5
FE
330
1F
100
AcDbEntity
  8
0
  6
Continuous
 62
     7
370
    25
100
AcDbCircle
 10
-73.6451028761
 20
163.0589691778
 30
0.0
 40
1.000000000000004
100
AcDbArc
 50
38.1428571429
 51
114.3061744161
  0
ARC
  5
FF
330
1F
100
AcDbEntity
  8
0
  6
Continuous
 62
     7
370
    25
100
AcDbCircle
 10
0.0
 20
0.0
 30
0.0
 40
179.9184971068484
100
AcDbArc
 50
114.3061744161
 51
114.550968441
  0
ARC
  5
100
330
1F
100
AcDbEntity
  8
0
  6
Continuous
 62
     7
370
    25
100
AcDbCircle
 10
-74.3410918058
 20
162.7428360208
 30
0.0
 40
1.000000000000004
100
AcDbArc
 50
114.550968441
 51
190.7142857143
  0
LINE
  5
101
330
1F
100
AcDbEntity
  8
0
  6
Continuous
 62
     7
370
    25
100
AcDbLine
 10
-75.323658279
 20
162.5569244136
 30
0.0
 11
-75.0387708795
 21
161.0512582979
 31
0.0
  0
ARC
  5
102
330
1F
100
AcDbEntity
  8
0
  6
Continuous
 62
     7
370
    25
100
AcDbCircle
 10
-77.3478020916
 20
160.614366021
 30
0.0
 40
2.350000000000017
100
AcDbArc
 50
220.7142857143
 51
10.7142857143
  0
LINE
  5
103
330
1F
100
AcDbEntity
  8
0
  6
Continuous
 62
     7
370
    25
100
AcDbLine
 10
-79.129035641
 20
159.0814906045
 30
0.0
 11
-80.1285884241
 21
160.2429920106
 31
0.0
  0
ARC
  5
104
330
1F
100
AcDbEntity
  8
0
  6
Continuous
 62
     7
370
    25
100
AcDbCircle
 10
-80.8865601472
 20
159.5907045994
 30
0.0
 40
0.9999999999999866
100
AcDbArc
 50
40.7142857143
 51
116.8776029876
  0
ARC
  5
105
330
1F
100
AcDbEntity
  8
0
  6
Continuous
 62
     7
370
    25
100
AcDbCircle
 10
0.0
 20
0.0
 30
0.0
 40
179.9184971068485
100
AcDbArc
 50
116.8776029876
 51
117.1223970124
  0
ARC
  5
106
330
1F
100
AcDbEntity
  8
0
  6
Continuous
 62
     7
370
    25
100
AcDbCircle
 10
-81.5676650019
 20
159.2436643421
 30
0.0
 40
1.000000000000015
100
AcDbArc
 50
117.1223970124
 51
193.2857142857
  0
LINE
  5
107
330
1F
100
AcDbEntity
  8
0
  6
Continuous
 62
     7
370
    25
100
AcDbLine
 10
-82.5409012034
 20
159.0138572574
 30
0.0
 11
-82.1887492117
 21
157.5224886721
 31
0.0
  0
ARC
  5
108
330
1F
100
AcDbEntity
  8
0
  6
Continuous
 62
     7
370
    25
100
AcDbCircle
 10
-84.4758542851
 20
156.9824420231
 30
0.0
 40
2.350000000000035
100
AcDbArc
 50
223.2857142857
 51
13.2857142857
  0
LINE
  5
109
330
1F
100
AcDbEntity
  8
0
  6
Continuous
 62
     7
370
    25
100
AcDbLine
 10
-86.1865220553
 20
155.3711953691
 30
0.0
 11
-87.2371789188
 21
156.4866824546
 31
0.0
  0
ARC
  5
10A
330
1F
100
AcDbEntity
  8
0
  6
Continuous
 62
     7
370
    25
100
AcDbCircle
 10
-87.9651226508
 20
155.8010455806
 30
0.0
 40
1.000000000000014
100
AcDbArc
 50
43.2857142857
 51
119.449031559
  0
ARC
  5
10B
330
1F
100
AcDbEntity
  8
0
  6
Continuous
 62
     7
370
    25
100
AcDbCircle
 10
0.0
 20
0.0
 30
0.0
 40
179.9184971068484
100
AcDbArc
 50
119.449031559
 51
119.6938255839
  0
ARC
  5
10C
330
1F
100
AcDbEntity
  8
0
  6
Continuous
 62
     7
370
    25
100
AcDbCircle
 10
-88.629971776
 20
155.423797116
 30
0.0
 40
1.000000000000012
100
AcDbArc
 50
119.6938255839
 51
195.8571428571
  0
LINE
  5
10D
330
1F
100
AcDbEntity
  8
0
  6
Continuous
 62
     7
370
    25
100
AcDbLine
 10
-89.5919177375
 20
155.1505573547
 30
0.0
 11
-89.1732103408
 21
153.6764897177
 31
0.0
  0
ARC
  5
10E
330
1F
100
AcDbEntity
  8
0
  6
Continuous
 62
     7
370
    25
100
AcDbCircle
 10
-91.4337833503
 20
153.0343762786
 30
0.0
 40
2.350000000000009
100
AcDbArc
 50
225.8571428571
 51
15.8571428571
  0
LINE
  5
10F
330
1F
100
AcDbEntity
  8
0
  6
Continuous
 62
     7
370
    25
100
AcDbLine
 10
-93.0704402842
 20
151.3480032235
 30
0.0
 11
-94.170085345
 21
152.4152295457
 31
0.0
  0
ARC
  5
110
330
1F
100
AcDbEntity
  8
0
  6
Continuous
 62
     7
370
    25
100
AcDbCircle
 10
-94.866535104
 20
151.6976239904
 30
0.0
 40
1.000000000000026
100
AcDbArc
 50
45.8571428571
 51
122.0204601304
  0
ARC
  5
111
330
1F
100
AcDbEntity
  8
0
  6
Continuous
 62
     7
370
    25
100
AcDbCircle
 10
0.0
 20
0.0
 30
0.0
 40
179.9184971068485
100
AcDbArc
 50
122.0204601304
 51
122.2652541553
  0
ARC
  5
112
330
1F
100
AcDbEntity
  8
0
  6
Continuous
 62
     7
370
    25
100
AcDbCircle
 10
-95.513789582
 20
151.2909270467
 30
0.0
 40
1.000000000000003
100
AcDbArc
 50
122.2652541553
 51
198.4285714286
  0
LINE
  5
113
330
1F
100
AcDbEntity
  8
0
  6
Continuous
 62
     7
370
    25
100
AcDbLine
 10
-96.4625080724
 20
150.9748048773
 30
0.0
 11
-95.9780884918
 21
149.5210067646
 31
0.0
  0
ARC
  5
114
330
1F
100
AcDbEntity
  8
0
  6
Continuous
 62
     7
370
    25
100
AcDbCircle
 10
-98.2075769442
 20
148.7781196665
 30
0.0
 40
2.350000000000014
100
AcDbArc
 50
228.4285714286
 51
18.4285714286
  0
LINE
  5
115
330
1F
100
AcDbEntity
  8
0
  6
Continuous
 62
     7
370
    25
100
AcDbLine
 10
-99.7669270323
 20
147.0200163411
 30
0.0
 11
-100.9133457516
 21
148.0368326484
 31
0.0
  0
ARC
  5
116
330
1F
100
AcDbEntity
  8
0
  6
Continuous
 62
     7
370
    25
100
AcDbCircle
 10
-101.5768989806
 20
147.2887035738
 30
0.0
 40
0.9999999999999987
100
AcDbArc
 50
48.4285714286
 51
124.5918887019
  0
ARC
  5
117
330
1F
100
AcDbEntity
  8
0
  6
Continuous
 62
     7
370
    25
100
AcDbCircle
 10
0.0
 20
0.0
 30
0.0
 40
179.9184971068484
100
AcDbArc
 50
124.5918887019
 51
124.8366827267
  0
ARC
  5
118
330
1F
100
AcDbEntity
  8
0
  6
Continuous
 62
     7
370
    25
100
AcDbCircle
 10
-102.2052553271
 20
146.8533771845
 30
0.0
 40
1.000000000000003
100
AcDbArc
 50
124.8366827267
 51
201.0
  0
LINE
  5
119
330
1F
100
AcDbEntity
  8
0
  6
Continuous
 62
     7
370
    25
100
AcDbLine
 10
-103.1388357535
 20
146.495009235
 30
0.0
 11
-102.5896795455
 21
145.0644084026
 31
0.0
  0
ARC
  5
11A
330
1F
100
AcDbEntity
  8
0
  6
Continuous
 62
     7
370
    25
100
AcDbCircle
 10
-104.7835935477
 20
144.2222437211
 30
0.0
 40
2.350000000000014
100
AcDbArc
 50
231.0
 51
21.0
  0
LINE
  5
11B
330
1F
100
AcDbEntity
  8
0
  6
Continuous
 62
     7
370
    25
100
AcDbLine
 10
-106.2624964667
 20
142.3959507117
 30
0.0
 11
-107.4533801098
 21
143.3603092712
 31
0.0
  0
ARC
  5
11C
330
1F
100
AcDbEntity
  8
0
  6
Continuous
 62
     7
370
    25
100
AcDbCircle
 10
-108.0827005008
 20
142.5831633098
 30
0.0
 40
0.9999999999999617
100
AcDbArc
 50
51.0
 51
127.1633172733
  0
ARC
  5
11D
330
1F
100
AcDbEntity
  8
0
  6
Continuous
 62
     7
370
    25
100
AcDbCircle
 10
0.0
 20
0.0
 30
0.0
 40
179.9184971068485
100
AcDbArc
 50
127.1633172733
 51
127.4081112981
  0
ARC
  5
11E
330
1F
100
AcDbEntity
  8
0
  6
Continuous
 62
     7
370
    25
100
AcDbCircle
 10
-108.6908932896
 20
142.1200841644
 30
0.0
 40
0.9999999999999888
100
AcDbArc
 50
127.4081112981
 51
203.5714285714
  0
LINE
  5
11F
330
1F
100
AcDbEntity
  8
0
  6
Continuous
 62
     7
370
    25
100
AcDbLine
 10
-109.6074555455
 20
141.72019214
 30
0.0
 11
-108.9946686375
 21
140.3156696275
 31
0.0
  0
ARC
  5
120
330
1F
100
AcDbEntity
  8
0
  6
Continuous
 62
     7
370
    25
100
AcDbCircle
 10
-111.1485899388
 20
139.3759233704
 30
0.0
 40
2.350000000000015
100
AcDbArc
 50
233.5714285714
 51
23.5714285714
  0
LINE
  5
121
330
1F
100
AcDbEntity
  8
0
  6
Continuous
 62
     7
370
    25
100
AcDbLine
 10
-112.5440673749
 20
137.4851185879
 30
0.0
 11
-113.7770176605
 21
138.39507731
 31
0.0
  0
ARC
  5
122
330
1F
100
AcDbEntity
  8
0
  6
Continuous
 62
     7
370
    25
100
AcDbCircle
 10
-114.3708378461
 20
137.5904795302
 30
0.0
 40
1.000000000000004
100
AcDbArc
 50
53.5714285714
 51
129.7347458447
  0
ARC
  5
123
330
1F
100
AcDbEntity
  8
0
  6
Continuous
 62
     7
370
    25
100
AcDbCircle
 10
0.0
 20
0.0
 30
0.0
 40
179.9184971068484
100
AcDbArc
 50
129.7347458447
 51
129.9795398696
  0
ARC
  5
124
330
1F
100
AcDbEntity
  8
0
  6
Continuous
 62
     7
370
    25
100
AcDbCircle
 10
-114.9576422579
 20
137.1005802084
 30
0.0
 40
1.000000000000012
100
AcDbArc
 50
129.9795398696
 51
206.1428571429
  0
LINE
  5
125
330
1F
100
AcDbEntity
  8
0
  6
Continuous
 62
     7
370
    25
100
AcDbLine
 10
-115.8553405088
 20
136.6599694386
 30
0.0
 11
-115.1801569722
 21
135.2843537675
 31
0.0
  0
ARC
  5
126
330
1F
100
AcDbEntity
  8
0
  6
Continuous
 62
     7
370
    25
100
AcDbCircle
 10
-117.2897478617
 20
134.2489184585
 30
0.0
 40
2.350000000000003
100
AcDbArc
 50
236.1428571429
 51
26.1428571429
  0
LINE
  5
127
330
1F
100
AcDbEntity
  8
0
  6
Continuous
 62
     7
370
    25
100
AcDbLine
 10
-118.5989895091
 20
132.2974097322
 30
0.0
 11
-119.8715234395
 21
133.151136081
 31
0.0
  0
ARC
  5
128
330
1F
100
AcDbEntity
  8
0
  6
Continuous
 62
     7
370
    25
100
AcDbCircle
 10
-120.4286475448
 20
132.3207068358
 30
0.0
 40
1.000000000000022
100
AcDbArc
 50
56.1428571429
 51
132.3061744161
  0
ARC
  5
129
330
1F
100
AcDbEntity
  8
0
  6
Continuous
 62
     7
370
    25
100
AcDbCircle
 10
0.0
 20
0.0
 30
0.0
 40
179.9184971068485
100
AcDbArc
 50
132.3061744161
 51
132.550968441
  0
ARC
  5
12A
330
1F
100
AcDbEntity
  8
0
  6
Continuous
 62
     7
370
    25
100
AcDbCircle
 10
-120.9928818336
 20
131.8049739296
 30
0.0
 40
1.000000000000013
100
AcDbArc
 50
132.550968441
 51
208.7142857143
  0
LINE
  5
12B
330
1F
100
AcDbEntity
  8
0
  6
Continuous
 62
     7
370
    25
100
AcDbLine
 10
-121.8699082346
 20
131.3245317458
 30
0.0
 11
-121.1336877992
 21
129.9805932229
 31
0.0
  0
ARC
  5
12C
330
1F
100
AcDbEntity
  8
0
  6
Continuous
 62
     7
370
    25
100
AcDbCircle
 10
-123.1946998416
 20
128.8515540911
 30
0.0
 40
2.350000000000019
100
AcDbArc
 50
238.7142857143
 51
28.7142857143
  0
LINE
  5
12D
330
1F
100
AcDbEntity
  8
0
  6
Continuous
 62
     7
370
    25
100
AcDbLine
 10
-124.4150690618
 20
126.8432714998
 30
0.0
 11
-125.724623923
 21
127.639046184
 31
0.0
  0
ARC
  5
12E
330
1F
100
AcDbEntity
  8
0
  6
Continuous
 62
     7
370
    25
100
AcDbCircle
 10
-126.2439299742
 20
126.7844578473
 30
0.0
 40
0.9999999999999899
100
AcDbArc
 50
58.7142857143
 51
134.8776029876
  0
ARC
  5
12F
330
1F
100
AcDbEntity
  8
0
  6
Continuous
 62
     7
370
    25
100
AcDbCircle
 10
0.0
 20
0.0
 30
0.0
 40
179.9184971068484
100
AcDbArc
 50
134.8776029876
 51
135.1223970124
  0
ARC
  5
130
330
1F
100
AcDbEntity
  8
0
  6
Continuous
 62
     7
370
    25
100
AcDbCircle
 10
-126.7844578473
 20
126.2439299742
 30
0.0
 40
1.000000000000028
100
AcDbArc
 50
135.1223970124
 51
211.2857142857
  0
LINE
  5
131
330
1F
100
AcDbEntity
  8
0
  6
Continuous
 62
     7
370
    25
100
AcDbLine
 10
-127.639046184
 20
125.724623923
 30
0.0
 11
-126.8432714998
 21
124.4150690618
 31
0.0
  0
ARC
  5
132
330
1F
100
AcDbEntity
  8
0
  6
Continuous
 62
     7
370
    25
100
AcDbCircle
 10
-128.8515540911
 20
123.1946998416
 30
0.0
 40
2.349999999999989
100
AcDbArc
 50
241.2857142857
 51
31.2857142857
  0
LINE
  5
133
330
1F
100
AcDbEntity
  8
0
  6
Continuous
 62
     7
370
    25
100
AcDbLine
 10
-129.9805932229
 20
121.1336877992
 30
0.0
 11
-131.3245317458
 21
121.8699082346
 31
0.0
  0
ARC
  5
134
330
1F
100
AcDbEntity
  8
0
  6
Continuous
 62
     7
370
    25
100
AcDbCircle
 10
-131.8049739296
 20
120.9928818336
 30
0.0
 40
1.000000000000002
100
AcDbArc
 50
61.2857142857
 51
137.449031559
  0
ARC
  5
135
330
1F
100
AcDbEntity
  8
0
  6
Continuous
 62
     7
370
    25
100
AcDbCircle
 10
0.0
 20
0.0
 30
0.0
 40
179.9184971068484
100
AcDbArc
 50
137.449031559
 51
137.6938255839
  0
ARC
  5
136
330
1F
100
AcDbEntity
  8
0
  6
Continuous
 62
     7
370
    25
100
AcDbCircle
 10
-132.3207068358
 20
120.4286475448
 30
0.0
 40
1.000000000000006
100
AcDbArc
 50
137.6938255839
 51
213.8571428571
  0
LINE
  5
137
330
1F
100
AcDbEntity
  8
0
  6
Continuous
 62
     7
370
    25
100
AcDbLine
 10
-133.151136081
 20
119.8715234395
 30
0.0
 11
-132.2974097322
 21
118.5989895091
 31
0.0
  0
ARC
  5
138
330
1F
100
AcDbEntity
  8
0
  6
Continuous
 62
     7
370
    25
100
AcDbCircle
 10
-134.2489184585
 20
117.2897478617
 30
0.0
 40
2.350000000000016
100
AcDbArc
 50
243.8571428571
 51
33.8571428571
  0
LINE
  5
139
330
1F
100
AcDbEntity
  8
0
  6
Continuous
 62
     7
370
    25
100
AcDbLine
 10
-135.2843537675
 20
115.1801569722
 30
0.0
 11
-136.6599694386
 21
115.8553405088
 31
0.0
  0
ARC
  5
13A
330
1F
100
AcDbEntity
  8
0
  6
Continuous
 62
     7
370
    25
100
AcDbCircle
 10
-137.1005802084
 20
114.9576422579
 30
0.0
 40
0.9999999999999991
100
AcDbArc
 50
63.8571428571
 51
140.0204601304
  0
ARC
  5
13B
330
1F
100
AcDbEntity
  8
0
  6
Continuous
 62
     7
370
    25
100
AcDbCircle
 10
0.0
 20
0.0
 30
0.0
 40
179.9184971068484
100
AcDbArc
 50
140.0204601304
 51
140.2652541553
  0
ARC
  5
13C
330
1F
100
AcDbEntity
  8
0
  6
Continuous
 62
     7
370
    25
100
AcDbCircle
 10
-137.5904795302
 20
114.3708378461
 30
0.0
 40
1.000000000000012
100
AcDbArc
 50
140.2652541553
 51
216.4285714286
  0
LINE
  5
13D
330
1F
100
AcDbEntity
  8
0
  6
Continuous
 62
     7
370
    25
100
AcDbLine
 10
-138.39507731
 20
113.7770176605
 30
0.0
 11
-137.4851185879
 21
112.5440673749
 31
0.0
  0
ARC
  5
13E
330
1F
100
AcDbEntity
  8
0
  6
Continuous
 62
     7
370
    25
100
AcDbCircle
 10
-139.3759233704
 20
111.1485899388
 30
0.0
 40
2.350000000000013
100
AcDbArc
 50
246.4285714286
 51
36.4285714286
  0
LINE
  5
13F
330
1F
100
AcDbEntity
  8
0
  6
Continuous
 62
     7
370
    25
100
AcDbLine
 10
-140.3156696275
 20
108.9946686375
 30
0.0
 11
-141.72019214
 21
109.6074555455
 31
0.0
  0
ARC
  5
140
330
1F
100
AcDbEntity
  8
0
  6
Continuous
 62
     7
370
    25
100
AcDbCircle
 10
-142.1200841644
 20
108.6908932896
 30
0.0
 40
1.0
100
AcDbArc
 50
66.4285714286
 51
142.5918887019
  0
ARC
  5
141
330
1F
100
AcDbEntity
  8
0
  6
Continuous
 62
     7
370
    25
100
AcDbCircle
 10
0.0
 20
0.0
 30
0.0
 40
179.9184971068484
100
AcDbArc
 50
142.5918887019
 51
142.8366827267
  0
ARC
  5
142
330
1F
100
AcDbEntity
  8
0
  6
Continuous
 62
     7
370
    25
100
AcDbCircle
 10
-142.5831633098
 20
108.0827005008
 30
0.0
 40
0.9999999999999922
100
AcDbArc
 50
142.8366827267
 51
219.0
  0
LINE
  5
143
330
1F
100
AcDbEntity
  8
0
  6
Continuous
 62
     7
370
    25
100
AcDbLine
 10
-143.3603092712
 20
107.4533801098
 30
0.0
 11
-142.3959507117
 21
106.2624964667
 31
0.0
  0
ARC
  5
144
330
1F
100
AcDbEntity
  8
0
  6
Continuous
 62
     7
370
    25
100
AcDbCircle
 10
-144.2222437211
 20
104.7835935477
 30
0.0
 40
2.350000000000029
100
AcDbArc
 50
249.0
 51
39.0
  0
LINE
  5
145
330
1F
100
AcDbEntity
  8
0
  6
Continuous
 62
     7
370
    25
100
AcDbLine
 10
-145.0644084026
 20
102.5896795455
 30
0.0
 11
-146.495009235
 21
103.1388357535
 31
0.0
  0
ARC
  5
146
330
1F
100
AcDbEntity
  8
0
  6
Continuous
 62
     7
370
    25
100
AcDbCircle
 10
-146.8533771845
 20
102.2052553271
 30
0.0
 40
0.9999999999999932
100
AcDbArc
 50
69.0
 51
145.1633172733
  0
ARC
  5
147
330
1F
100
AcDbEntity
  8
0
  6
Continuous
 62
     7
370
    25
100
AcDbCircle
 10
0.0
 20
0.0
 30
0.0
 40
179.9184971068484
100
AcDbArc
 50
145.1633172733
 51
145.4081112981
  0
ARC
  5
148
330
1F
100
AcDbEntity
  8
0
  6
Continuous
 62
     7
370
    25
100
AcDbCircle
 10
-147.2887035738
 20
101.5768989806
 30
0.0
 40
0.9999999999999963
100
AcDbArc
 50
145.4081112981
 51
221.5714285714
  0
LINE
  5
149
330
1F
100
AcDbEntity
  8
0
  6
Continuous
 62
     7
370
    25
100
AcDbLine
 10
-148.0368326484
 20
100.9133457516
 30
0.0
 11
-147.0200163411
 21
99.7669270323
 31
0.0
  0
ARC
  5
14A
330
1F
100
AcDbEntity
  8
0
  6
Continuous
 62
     7
370
    25
100
AcDbCircle
 10
-148.7781196665
 20
98.2075769442
 30
0.0
 40
2.350000000000014
100
AcDbArc
 50
251.5714285714
 51
41.5714285714
  0
LINE
  5
14B
330
1F
100
AcDbEntity
  8
0
  6
Continuous
 62
     7
370
    25
100
AcDbLine
 10
-149.5210067646
 20
95.9780884918
 30
0.0
 11
-150.9748048773
 21
96.4625080724
 31
0.0
  0
ARC
  5
14C
330
1F
100
AcDbEntity
  8
0
  6
Continuous
 62
     7
370
    25
100
AcDbCircle
 10
-151.2909270467
 20
95.513789582
 30
0.0
 40
0.9999999999999939
100
AcDbArc
 50
71.5714285714
 51
147.7347458447
  0
ARC
  5
14D
330
1F
100
AcDbEntity
  8
0
  6
Continuous
 62
     7
370
    25
100
AcDbCircle
 10
0.0
 20
0.0
 30
0.0
 40
179.9184971068484
100
AcDbArc
 50
147.7347458447
 51
147.9795398696
  0
ARC
  5
14E
330
1F
100
AcDbEntity
  8
0
  6
Continuous
 62
     7
370
    25
100
AcDbCircle
 10
-151.6976239904
 20
94.866535104
 30
0.0
 40
1.000000000000005
100
AcDbArc
 50
147.9795398696
 51
224.1428571429
  0
LINE
  5
14F
330
1F
100
AcDbEntity
  8
0
  6
Continuous
 62
     7
370
    25
100
AcDbLine
 10
-152.4152295457
 20
94.170085345
 30
0.0
 11
-151.3480032235
 21
93.0704402842
 31
0.0
  0
ARC
  5
150
330
1F
100
AcDbEntity
  8
0
  6
Continuous
 62
     7
370
    25
100
AcDbCircle
 10
-153.0343762786
 20
91.4337833503
 30
0.0
 40
2.350000000000049
100
AcDbArc
 50
254.1428571429
 51
44.1428571429
  0
LINE
  5
151
330
1F
100
AcDbEntity
  8
0
  6
Continuous
 62
     7
370
    25
100
AcDbLine
 10
-153.6764897177
 20
89.1732103408
 30
0.0
 11
-155.1505573547
 21
89.5919177375
 31
0.0
  0
ARC
  5
152
330
1F
100
AcDbEntity
  8
0
  6
Continuous
 62
     7
370
    25
100
AcDbCircle
 10
-155.423797116
 20
88.629971776
 30
0.0
 40
1.000000000000004
100
AcDbArc
 50
74.1428571429
 51
150.3061744161
  0
ARC
  5
153
330
1F
100
AcDbEntity
  8
0
  6
Continuous
 62
     7
370
    25
100
AcDbCircle
 10
0.0
 20
0.0
 30
0.0
 40
179.9184971068484
100
AcDbArc
 50
150.3061744161
 51
150.550968441
  0
ARC
  5
154
330
1F
100
AcDbEntity
  8
0
  6
Continuous
 62
     7
370
    25
100
AcDbCircle
 10
-155.8010455806
 20
87.9651226508
 30
0.0
 40
0.9999999999999852
100
AcDbArc
 50
150.550968441
 51
226.7142857143
  0
LINE
  5
155
330
1F
100
AcDbEntity
  8
0
  6
Continuous
 62
     7
370
    25
100
AcDbLine
 10
-156.4866824546
 20
87.2371789188
 30
0.0
 11
-155.3711953691
 21
86.1865220553
 31
0.0
  0
ARC
  5
156
330
1F
100
AcDbEntity
  8
0
  6
Continuous
 62
     7
370
    25
100
AcDbCircle
 10
-156.9824420231
 20
84.4758542851
 30
0.0
 40
2.350000000000007
100
AcDbArc
 50
256.7142857143
 51
46.7142857143
  0
LINE
  5
157
330
1F
100
AcDbEntity
  8
0
  6
Continuous
 62
     7
370
    25
100
AcDbLine
 10
-157.5224886721
 20
82.1887492117
 30
0.0
 11
-159.0138572574
 21
82.5409012034
 31
0.0
  0
ARC
  5
158
330
1F
100
AcDbEntity
  8
0
  6
Continuous
 62
     7
370
    25
100
AcDbCircle
 10
-159.2436643421
 20
81.5676650019
 30
0.0
 40
1.000000000000003
100
AcDbArc
 50
76.7142857143
 51
152.8776029876
  0
ARC
  5
159
330
1F
100
AcDbEntity
  8
0
  6
Continuous
 62
     7
370
    25
100
AcDbCircle
 10
0.0
 20
0.0
 30
0.0
 40
179.9184971068485
100
AcDbArc
 50
152.8776029876
 51
153.1223970124
  0
ARC
  5
15A
330
1F
100
AcDbEntity
  8
0
  6
Continuous
 62
     7
370
    25
100
AcDbCircle
 10
-159.5907045994
 20
80.8865601472
 30
0.0
 40
0.9999999999999973
100
AcDbArc
 50
153.1223970124
 51
229.2857142857
  0
LINE
  5
15B
330
1F
100
AcDbEntity
  8
0
  6
Continuous
 62
     7
370
    25
100
AcDbLine
 10
-160.2429920106
 20
80.1285884241
 30
0.0
 11
-159.0814906045
 21
79.129035641
 31
0.0
  0
ARC
  5
15C
330
1F
100
AcDbEntity
  8
0
  6
Continuous
 62
     7
370
    25
100
AcDbCircle
 10
-160.614366021
 20
77.3478020916
 30
0.0
 40
2.350000000000021
100
AcDbArc
 50
259.2857142857
 51
49.2857142857
  0
LINE
  5
15D
330
1F
100
AcDbEntity
  8
0
  6
Continuous
 62
     7
370
    25
100
AcDbLine
 10
-161.0512582979
 20
75.0387708795
 30
0.0
 11
-162.5569244136
 21
75.323658279
 31
0.0
  0
ARC
  5
15E
330
1F
100
AcDbEntity
  8
0
  6
Continuous
 62
     7
370
    25
100
AcDbCircle
 10
-162.7428360208
 20
74.3410918058
 30
0.0
 40
0.9999999999999988
100
AcDbArc
 50
79.2857142857
 51
155.449031559
  0
ARC
  5
15F
330
1F
100
AcDbEntity
  8
0
  6
Continuous
 62
     7
370
    25
100
AcDbCircle
 10
0.0
 20
0.0
 30
0.0
 40
179.9184971068484
100
AcDbArc
 50
155.449031559
 51
155.6938255839
  0
ARC
  5
160
330
1F
100
AcDbEntity
  8
0
  6
Continuous
 62
     7
370
    25
100
AcDbCircle
 10
-163.0589691778
 20
73.6451028761
 30
0.0
 40
1.000000000000015
100
AcDbArc
 50
155.6938255839
 51
231.8571428571
  0
LINE
  5
161
330
1F
100
AcDbEntity
  8
0
  6
Continuous
 62
     7
370
    25
100
AcDbLine
 10
-163.6765935063
 20
72.858629616
 30
0.0
 11
-162.4714168888
 21
71.9121938796
 31
0.0
  0
ARC
  5
162
330
1F
100
AcDbEntity
  8
0
  6
Continuous
 62
     7
370
    25
100
AcDbCircle
 10
-163.9228340608
 20
70.0639817183
 30
0.0
 40
2.35
100
AcDbArc
 50
261.8571428571
 51
51.8571428571
  0
LINE
  5
163
330
1F
100
AcDbEntity
  8
0
  6
Continuous
 62
     7
370
    25
100
AcDbLine
 10
-164.2556921225
 20
67.7376744491
 30
0.0
 11
-165.7726235576
 21
67.9547235312
 31
0.0
  0
ARC
  5
164
330
1F
100
AcDbEntity
  8
0
  6
Continuous
 62
     7
370
    25
100
AcDbCircle
 10
-165.914265286
 20
66.9648055443
 30
0.0
 40
0.999999999999995
100
AcDbArc
 50
81.8571428571
 51
158.0204601304
  0
ARC
  5
165
330
1F
100
AcDbEntity
  8
0
  6
Continuous
 62
     7
370
    25
100
AcDbCircle
 10
0.0
 20
0.0
 30
0.0
 40
179.9184971068485
100
AcDbArc
 50
158.0204601304
 51
158.2652541553
  0
ARC
  5
166
330
1F
100
AcDbEntity
  8
0
  6
Continuous
 62
     7
370
    25
100
AcDbCircle
 10
-166.1988546927
 20
66.2553341687
 30
0.0
 40
1.000000000000012
100
AcDbArc
 50
158.2652541553
 51
234.4285714286
  0
LINE
  5
167
330
1F
100
AcDbEntity
  8
0
  6
Continuous
 62
     7
370
    25
100
AcDbLine
 10
-166.7805721252
 20
65.4419432241
 30
0.0
 11
-165.5341473616
 21
64.5505305299
 31
0.0
  0
ARC
  5
168
330
1F
100
AcDbEntity
  8
0
  6
Continuous
 62
     7
370
    25
100
AcDbCircle
 10
-166.901183328
 20
62.6390618102
 30
0.0
 40
2.350000000000003
100
AcDbArc
 50
264.4285714286
 51
54.4285714286
  0
LINE
  5
169
330
1F
100
AcDbEntity
  8
0
  6
Continuous
 62
     7
370
    25
100
AcDbLine
 10
-167.1293368429
 20
60.3001633571
 30
0.0
 11
-168.6544786991
 21
60.4489370137
 31
0.0
  0
ARC
  5
16A
330
1F
100
AcDbEntity
  8
0
  6
Continuous
 62
     7
370
    25
100
AcDbCircle
 10
-168.7515653012
 20
59.4536610762
 30
0.0
 40
1.000000000000002
100
AcDbArc
 50
84.4285714286
 51
160.5918887019
  0
ARC
  5
16B
330
1F
100
AcDbEntity
  8
0
  6
Continuous
 62
     7
370
    25
100
AcDbCircle
 10
0.0
 20
0.0
 30
0.0
 40
179.9184971068485
100
AcDbArc
 50
160.5918887019
 51
160.8366827267
  0
ARC
  5
16C
330
1F
100
AcDbEntity
  8
0
  6
Continuous
 62
     7
370
    25
100
AcDbCircle
 10
-169.0040378324
 20
58.7321360356
 30
0.0
 40
1.000000000000011
100
AcDbArc
 50
160.8366827267
 51
237.0
  0
LINE
  5
16D
330
1F
100
AcDbEntity
  8
0
  6
Continuous
 62
     7
370
    25
100
AcDbLine
 10
-169.5486768674
 20
57.8934654677
 30
0.0
 11
-168.2635140913
 21
57.0588710024
 31
0.0
  0
ARC
  5
16E
330
1F
100
AcDbEntity
  8
0
  6
Continuous
 62
     7
370
    25
100
AcDbCircle
 10
-169.5434158236
 20
55.0879951677
 30
0.0
 40
2.350000000000003
100
AcDbArc
 50
267.0
 51
57.0
  0
LINE
  5
16F
330
1F
100
AcDbEntity
  8
0
  6
Continuous
 62
     7
370
    25
100
AcDbLine
 10
-169.6664053208
 20
52.741215761
 30
0.0
 11
-171.1966861656
 21
52.8214143818
 31
0.0
  0
ARC
  5
170
330
1F
100
AcDbEntity
  8
0
  6
Continuous
 62
     7
370
    25
100
AcDbCircle
 10
-171.2490221218
 20
51.822784847
 30
0.0
 40
0.9999999999999959
100
AcDbArc
 50
87.0
 51
163.1633172733
  0
ARC
  5
171
330
1F
100
AcDbEntity
  8
0
  6
Continuous
 62
     7
370
    25
100
AcDbCircle
 10
0.0
 20
0.0
 30
0.0
 40
179.9184971068485
100
AcDbArc
 50
163.1633172733
 51
163.4081112981
  0
ARC
  5
172
330
1F
100
AcDbEntity
  8
0
  6
Continuous
 62
     7
370
    25
100
AcDbCircle
 10
-171.4688693314
 20
51.0906591968
 30
0.0
 40
1.000000000000018
100
AcDbArc
 50
163.4081112981
 51
239.5714285714
  0
LINE
  5
173
330
1F
100
AcDbEntity
  8
0
  6
Continuous
 62
     7
370
    25
100
AcDbLine
 10
-171.9753331384
 20
50.2283979764
 30
0.0
 11
-170.6540204966
 21
49.4523025022
 31
0.0
  0
ARC
  5
174
330
1F
100
AcDbEntity
  8
0
  6
Continuous
 62
     7
370
    25
100
AcDbCircle
 10
-171.8442104431
 20
47.4259886342
 30
0.0
 40
2.350000000000005
100
AcDbArc
 50
269.5714285714
 51
59.5714285714
  0
LINE
  5
175
330
1F
100
AcDbEntity
  8
0
  6
Continuous
 62
     7
370
    25
100
AcDbLine
 10
-171.861788238
 20
45.0760543753
 30
0.0
 11
-173.3941262894
 21
45.0875164509
 31
0.0
  0
ARC
  5
176
330
1F
100
AcDbEntity
  8
0
  6
Continuous
 62
     7
370
    25
100
AcDbCircle
 10
-173.4016062021
 20
44.0875444259
 30
0.0
 40
1.000000000000006
100
AcDbArc
 50
89.5714285714
 51
165.7347458447
  0
ARC
  5
177
330
1F
100
AcDbEntity
  8
0
  6
Continuous
 62
     7
370
    25
100
AcDbCircle
 10
0.0
 20
0.0
 30
0.0
 40
179.9184971068484
100
AcDbArc
 50
165.7347458447
 51
165.9795398696
  0
ARC
  5
178
330
1F
100
AcDbEntity
  8
0
  6
Continuous
 62
     7
370
    25
100
AcDbCircle
 10
-173.5883853472
 20
43.3462925697
 30
0.0
 40
1.000000000000004
100
AcDbArc
 50
165.9795398696
 51
242.1428571429
  0
LINE
  5
179
330
1F
100
AcDbEntity
  8
0
  6
Continuous
 62
     7
370
    25
100
AcDbLine
 10
-174.0556539754
 20
42.4621771762
 30
0.0
 11
-172.7008524157
 21
41.7461436459
 31
0.0
  0
ARC
  5
17A
330
1F
100
AcDbEntity
  8
0
  6
Continuous
 62
     7
370
    25
100
AcDbCircle
 10
-173.7989336922
 20
39.6684724712
 30
0.0
 40
2.350000000000004
100
AcDbArc
 50
272.1428571429
 51
62.1428571429
  0
LINE
  5
17B
330
1F
100
AcDbEntity
  8
0
  6
Continuous
 62
     7
370
    25
100
AcDbLine
 10
-173.7110643856
 20
37.320115815
 30
0.0
 11
-175.2423737185
 21
37.2628182623
 31
0.0
  0
ARC
  5
17C
330
1F
100
AcDbEntity
  8
0
  6
Continuous
 62
     7
370
    25
100
AcDbCircle
 10
-175.2049825243
 20
36.2635175575
 30
0.0
 40
0.9999999999999978
100
AcDbArc
 50
92.1428571429
 51
168.3061744161
  0
ARC
  5
17D
330
1F
100
AcDbEntity
  8
0
  6
Continuous
 62
     7
370
    25
100
AcDbCircle
 10
0.0
 20
0.0
 30
0.0
 40
179.9184971068484
100
AcDbArc
 50
168.3061744161
 51
168.550968441
  0
ARC
  5
17E
330
1F
100
AcDbEntity
  8
0
  6
Continuous
 62
     7
370
    25
100
AcDbCircle
 10
-175.3583174564
 20
35.514632278
 30
0.0
 40
1.000000000000015
100
AcDbArc
 50
168.550968441
 51
244.7142857143
  0
LINE
  5
17F
330
1F
100
AcDbEntity
  8
0
  6
Continuous
 62
     7
370
    25
100
AcDbLine
 10
-175.7854498891
 20
34.6104432021
 30
0.0
 11
-174.3998878016
 21
33.9559136121
 31
0.0
  0
ARC
  5
180
330
1F
100
AcDbEntity
  8
0
  6
Continuous
 62
     7
370
    25
100
AcDbCircle
 10
-175.4036490184
 20
31.8310692838
 30
0.0
 40
2.350000000000005
100
AcDbArc
 50
274.7142857143
 51
64.7142857143
  0
LINE
  5
181
330
1F
100
AcDbEntity
  8
0
  6
Continuous
 62
     7
370
    25
100
AcDbLine
 10
-175.2105095674
 20
29.489019508
 30
0.0
 11
-176.7377063288
 21
29.3630777167
 31
0.0
  0
ARC
  5
182
330
1F
100
AcDbEntity
  8
0
  6
Continuous
 62
     7
370
    25
100
AcDbCircle
 10
-176.6555193284
 20
28.3664607908
 30
0.0
 40
1.000000000000017
100
AcDbArc
 50
94.7142857143
 51
170.8776029876
  0
ARC
  5
183
330
1F
100
AcDbEntity
  8
0
  6
Continuous
 62
     7
370
    25
100
AcDbCircle
 10
0.0
 20
0.0
 30
0.0
 40
179.9184971068485
100
AcDbArc
 50
170.8776029876
 51
171.1223970124
  0
ARC
  5
184
330
1F
100
AcDbEntity
  8
0
  6
Continuous
 62
     7
370
    25
100
AcDbCircle
 10
-176.7751012514
 20
27.6114502433
 30
0.0
 40
0.9999999999999868
100
AcDbArc
 50
171.1223970124
 51
247.2857142857
  0
LINE
  5
185
330
1F
100
AcDbEntity
  8
0
  6
Continuous
 62
     7
370
    25
100
AcDbLine
 10
-177.1612373007
 20
26.6890084015
 30
0.0
 11
-175.7477050229
 21
26.0973008872
 31
0.0
  0
ARC
  5
186
330
1F
100
AcDbEntity
  8
0
  6
Continuous
 62
     7
370
    25
100
AcDbCircle
 10
-176.6551247388
 20
23.9295625591
 30
0.0
 40
2.350000000000003
100
AcDbArc
 50
277.2857142857
 51
67.2857142857
  0
LINE
  5
187
330
1F
100
AcDbEntity
  8
0
  6
Continuous
 62
     7
370
    25
100
AcDbLine
 10
-176.3571041005
 20
21.5985362402
 30
0.0
 11
-177.8771127192
 21
21.4042038403
 31
0.0
  0
ARC
  5
188
330
1F
100
AcDbEntity
  8
0
  6
Continuous
 62
     7
370
    25
100
AcDbCircle
 10
-177.7502954263
 20
20.4122777472
 30
0.0
 40
0.9999999999999978
100
AcDbArc
 50
97.2857142857
 51
173.449031559
  0
ARC
  5
189
330
1F
100
AcDbEntity
  8
0
  6
Continuous
 62
     7
370
    25
100
AcDbCircle
 10
0.0
 20
0.0
 30
0.0
 40
179.9184971068484
100
AcDbArc
 50
173.449031559
 51
173.6938255839
  0
ARC
  5
18A
330
1F
100
AcDbEntity
  8
0
  6
Continuous
 62
     7
370
    25
100
AcDbCircle
 10
-177.8358835182
 20
19.6526624223
 30
0.0
 40
1.000000000000002
100
AcDbArc
 50
173.6938255839
 51
249.8571428571
  0
LINE
  5
18B
330
1F
100
AcDbEntity
  8
0
  6
Continuous
 62
     7
370
    25
100
AcDbLine
 10
-178.1802455574
 20
18.7138254898
 30
0.0
 11
-176.7415897554
 21
18.1861316714
 31
0.0
  0
ARC
  5
18C
330
1F
100
AcDbEntity
  8
0
  6
Continuous
 62
     7
370
    25
100
AcDbCircle
 10
-177.5508405476
 20
15.9798648799
 30
0.0
 40
2.350000000000006
100
AcDbArc
 50
279.8571428571
 51
69.8571428571
  0
LINE
  5
18D
330
1F
100
AcDbEntity
  8
0
  6
Continuous
 62
     7
370
    25
100
AcDbLine
 10
-177.1485388959
 20
13.6645563948
 30
0.0
 11
-178.658298277
 21
13.4022247459
 31
0.0
  0
ARC
  5
18E
330
1F
100
AcDbEntity
  8
0
  6
Continuous
 62
     7
370
    25
100
AcDbCircle
 10
-178.4871060848
 20
12.4169870927
 30
0.0
 40
1.000000000000005
100
AcDbArc
 50
99.8571428571
 51
176.0204601304
  0
ARC
  5
18F
330
1F
100
AcDbEntity
  8
0
  6
Continuous
 62
     7
370
    25
100
AcDbCircle
 10
0.0
 20
0.0
 30
0.0
 40
179.9184971068485
100
AcDbArc
 50
176.0204601304
 51
176.2652541553
  0
ARC
  5
190
330
1F
100
AcDbEntity
  8
0
  6
Continuous
 62
     7
370
    25
100
AcDbCircle
 10
-178.5385279824
 20
11.6542967547
 30
0.0
 40
1.000000000000001
100
AcDbArc
 50
176.2652541553
 51
252.4285714286
  0
LINE
  5
191
330
1F
100
AcDbEntity
  8
0
  6
Continuous
 62
     7
370
    25
100
AcDbLine
 10
-178.8404225123
 20
10.700955424
 30
0.0
 11
-177.3795404473
 21
10.2383380067
 31
0.0
  0
ARC
  5
192
330
1F
100
AcDbEntity
  8
0
  6
Continuous
 62
     7
370
    25
100
AcDbCircle
 10
-178.0889925925
 20
7.9979858795
 30
0.0
 40
2.350000000000002
100
AcDbArc
 50
282.4285714286
 51
72.4285714286
  0
LINE
  5
193
330
1F
100
AcDbEntity
  8
0
  6
Continuous
 62
     7
370
    25
100
AcDbLine
 10
-177.5832201094
 20
5.7030579514
 30
0.0
 11
-179.0796897983
 21
5.3732553545
 31
0.0
  0
ARC
  5
194
330
1F
100
AcDbEntity
  8
0
  6
Continuous
 62
     7
370
    25
100
AcDbCircle
 10
-178.8644674651
 20
4.3966902787
 30
0.0
 40
0.9999999999999974
100
AcDbArc
 50
102.4285714286
 51
178.5918887019
  0
ARC
  5
195
330
1F
100
AcDbEntity
  8
0
  6
Continuous
 62
     7
370
    25
100
AcDbCircle
 10
0.0
 20
0.0
 30
0.0
 40
179.9184971068484
100
AcDbArc
 50
178.5918887019
 51
178.8366827267
  0
ARC
  5
196
330
1F
100
AcDbEntity
  8
0
  6
Continuous
 62
     7
370
    25
100
AcDbCircle
 10
-178.8816196117
 20
3.6324608844
 30
0.0
 40
1.000000000000002
100
AcDbArc
 50
178.8366827267
 51
255.0
  0
LINE
  5
197
330
1F
100
AcDbEntity
  8
0
  6
Continuous
 62
     7
370
    25
100
AcDbLine
 10
-179.1404386568
 20
2.6665350581
 30
0.0
 11
-177.6602723509
 21
2.2699256918
 31
0.0
  0
ARC
  5
198
330
1F
100
AcDbEntity
  8
0
  6
Continuous
 62
     7
370
    25
100
AcDbCircle
 10
-178.2684971068
 20
0.0
 30
0.0
 40
2.350000000000008
100
AcDbArc
 50
285.0
 51
75.0
  0
LINE
  5
199
330
1F
100
AcDbEntity
  8
0
  6
Continuous
 62
     7
370
    25
100
AcDbLine
 10
-177.6602723509
 20
-2.2699256918
 30
0.0
 11
-179.1404386568
 21
-2.6665350581
 31
0.0
  0
ARC
  5
19A
330
1F
100
AcDbEntity
  8
0
  6
Continuous
 62
     7
370
    25
100
AcDbCircle
 10
-178.8816196117
 20
-3.6324608844
 30
0.0
 40
0.9999999999999939
100
AcDbArc
 50
105.0
 51
181.1633172733
  0
ARC
  5
19B
330
1F
100
AcDbEntity
  8
0
  6
Continuous
 62
     7
370
    25
100
AcDbCircle
 10
0.0
 20
0.0
 30
0.0
 40
179.9184971068485
100
AcDbArc
 50
181.1633172733
 51
181.4081112981
  0
ARC
  5
19C
330
1F
100
AcDbEntity
  8
0
  6
Continuous
 62
     7
370
    25
100
AcDbCircle
 10
-178.8644674651
 20
-4.3966902787
 30
0.0
 40
1.000000000000002
100
AcDbArc
 50
181.4081112981
 51
257.5714285714
  0
LINE
  5
19D
330
1F
100
AcDbEntity
  8
0
  6
Continuous
 62
     7
370
    25
100
AcDbLine
 10
-179.0796897983
 20
-5.3732553545
 30
0.0
 11
-177.5832201094
 21
-5.7030579514
 31
0.0
  0
ARC
  5
19E
330
1F
100
AcDbEntity
  8
0
  6
Continuous
 62
     7
370
    25
100
AcDbCircle
 10
-178.0889925925
 20
-7.9979858795
 30
0.0
 40
2.350000000000005
100
AcDbArc
 50
287.5714285714
 51
77.5714285714
  0
LINE
  5
19F
330
1F
100
AcDbEntity
  8
0
  6
Continuous
 62
     7
370
    25
100
AcDbLine
 10
-177.3795404473
 20
-10.2383380067
 30
0.0
 11
-178.8404225123
 21
-10.700955424
 31
0.0
  0
ARC
  5
1A0
330
1F
100
AcDbEntity
  8
0
  6
Continuous
 62
     7
370
    25
100
AcDbCircle
 10
-178.5385279824
 20
-11.6542967547
 30
0.0
 40
1.000000000000001
100
AcDbArc
 50
107.5714285714
 51
183.7347458447
  0
ARC
  5
1A1
330
1F
100
AcDbEntity
  8
0
  6
Continuous
 62
     7
370
    25
100
AcDbCircle
 10
0.0
 20
0.0
 30
0.0
 40
179.9184971068484
100
AcDbArc
 50
183.7347458447
 51
183.9795398696
  0
ARC
  5
1A2
330
1F
100
AcDbEntity
  8
0
  6
Continuous
 62
     7
370
    25
100
AcDbCircle
 10
-178.4871060848
 20
-12.4169870927
 30
0.0
 40
1.000000000000002
100
AcDbArc
 50
183.9795398696
 51
260.1428571429
  0
LINE
  5
1A3
330
1F
100
AcDbEntity
  8
0
  6
Continuous
 62
     7
370
    25
100
AcDbLine
 10
-178.658298277
 20
-13.4022247459
 30
0.0
 11
-177.1485388959
 21
-13.6645563948
 31
0.0
  0
ARC
  5
1A4
330
1F
100
AcDbEntity
  8
0
  6
Continuous
 62
     7
370
    25
100
AcDbCircle
 10
-177.5508405476
 20
-15.9798648799
 30
0.0
 40
2.350000000000011
100
AcDbArc
 50
290.1428571429
 51
80.1428571429
  0
LINE
  5
1A5
330
1F
100
AcDbEntity
  8
0
  6
Continuous
 62
     7
370
    25
100
AcDbLine
 10
-176.7415897554
 20
-18.1861316714
 30
0.0
 11
-178.1802455574
 21
-18.7138254898
 31
0.0
  0
ARC
  5
1A6
330
1F
100
AcDbEntity
  8
0
  6
Continuous
 62
     7
370
    25
100
AcDbCircle
 10
-177.8358835182
 20
-19.6526624223
 30
0.0
 40
1.000000000000002
100
AcDbArc
 50
110.1428571429
 51
186.3061744161
  0
ARC
  5
1A7
330
1F
100
AcDbEntity
  8
0
  6
Continuous
 62
     7
370
    25
100
AcDbCircle
 10
0.0
 20
0.0
 30
0.0
 40
179.9184971068485
100
AcDbArc
 50
186.3061744161
 51
186.550968441
  0
ARC
  5
1A8
330
1F
100
AcDbEntity
  8
0
  6
Continuous
 62
     7
370
    25
100
AcDbCircle
 10
-177.7502954263
 20
-20.4122777472
 30
0.0
 40
1.000000000000001
100
AcDbArc
 50
186.550968441
 51
262.7142857143
  0
LINE
  5
1A9
330
1F
100
AcDbEntity
  8
0
  6
Continuous
 62
     7
370
    25
100
AcDbLine
 10
-177.8771127192
 20
-21.4042038403
 30
0.0
 11
-176.3571041005
 21
-21.5985362402
 31
0.0
  0
ARC
  5
1AA
330
1F
100
AcDbEntity
  8
0
  6
Continuous
 62
     7
370
    25
100
AcDbCircle
 10
-176.6551247388
 20
-23.9295625591
 30
0.0
 40
2.350000000000003
100
AcDbArc
 50
292.7142857143
 51
82.7142857143
  0
LINE
  5
1AB
330
1F
100
AcDbEntity
  8
0
  6
Continuous
 62
     7
370
    25
100
AcDbLine
 10
-175.7477050229
 20
-26.0973008872
 30
0.0
 11
-177.1612373007
 21
-26.6890084015
 31
0.0
  0
ARC
  5
1AC
330
1F
100
AcDbEntity
  8
0
  6
Continuous
 62
     7
370
    25
100
AcDbCircle
 10
-176.7751012514
 20
-27.6114502433
 30
0.0
 40
0.9999999999999836
100
AcDbArc
 50
112.7142857143
 51
188.8776029876
  0
ARC
  5
1AD
330
1F
100
AcDbEntity
  8
0
  6
Continuous
 62
     7
370
    25
100
AcDbCircle
 10
0.0
 20
0.0
 30
0.0
 40
179.9184971068485
100
AcDbArc
 50
188.8776029876
 51
189.1223970124
  0
ARC
  5
1AE
330
1F
100
AcDbEntity
  8
0
  6
Continuous
 62
     7
370
    25
100
AcDbCircle
 10
-176.6555193284
 20
-28.3664607908
 30
0.0
 40
1.000000000000017
100
AcDbArc
 50
189.1223970124
 51
265.2857142857
  0
LINE
  5
1AF
330
1F
100
AcDbEntity
  8
0
  6
Continuous
 62
     7
370
    25
100
AcDbLine
 10
-176.7377063288
 20
-29.3630777167
 30
0.0
 11
-175.2105095674
 21
-29.489019508
 31
0.0
  0
ARC
  5
1B0
330
1F
100
AcDbEntity
  8
0
  6
Continuous
 62
     7
370
    25
100
AcDbCircle
 10
-175.4036490184
 20
-31.8310692838
 30
0.0
 40
2.350000000000017
100
AcDbArc
 50
295.2857142857
 51
85.2857142857
  0
LINE
  5
1B1
330
1F
100
AcDbEntity
  8
0
  6
Continuous
 62
     7
370
    25
100
AcDbLine
 10
-174.3998878016
 20
-33.9559136121
 30
0.0
 11
-175.7854498891
 21
-34.6104432021
 31
0.0
  0
ARC
  5
1B2
330
1F
100
AcDbEntity
  8
0
  6
Continuous
 62
     7
370
    25
100
AcDbCircle
 10
-175.3583174564
 20
-35.514632278
 30
0.0
 40
0.999999999999988
100
AcDbArc
 50
115.2857142857
 51
191.449031559
  0
ARC
  5
1B3
330
1F
100
AcDbEntity
  8
0
  6
Continuous
 62
     7
370
    25
100
AcDbCircle
 10
0.0
 20
0.0
 30
0.0
 40
179.9184971068485
100
AcDbArc
 50
191.449031559
 51
191.6938255839
  0
ARC
  5
1B4
330
1F
100
AcDbEntity
  8
0
  6
Continuous
 62
     7
370
    25
100
AcDbCircle
 10
-175.2049825243
 20
-36.2635175575
 30
0.0
 40
1.000000000000005
100
AcDbArc
 50
191.6938255839
 51
267.8571428571
  0
LINE
  5
1B5
330
1F
100
AcDbEntity
  8
0
  6
Continuous
 62
     7
370
    25
100
AcDbLine
 10
-175.2423737185
 20
-37.2628182623
 30
0.0
 11
-173.7110643856
 21
-37.320115815
 31
0.0
  0
ARC
  5
1B6
330
1F
100
AcDbEntity
  8
0
  6
Continuous
 62
     7
370
    25
100
AcDbCircle
 10
-173.7989336922
 20
-39.6684724712
 30
0.0
 40
2.350000000000024
100
AcDbArc
 50
297.8571428571
 51
87.8571428571
  0
LINE
  5
1B7
330
1F
100
AcDbEntity
  8
0
  6
Continuous
 62
     7
370
    25
100
AcDbLine
 10
-172.7008524157
 20
-41.7461436459
 30
0.0
 11
-174.0556539754
 21
-42.4621771762
 31
0.0
  0
ARC
  5
1B8
330
1F
100
AcDbEntity
  8
0
  6
Continuous
 62
     7
370
    25
100
AcDbCircle
 10
-173.5883853472
 20
-43.3462925697
 30
0.0
 40
0.9999999999999982
100
AcDbArc
 50
117.8571428571
 51
194.0204601304
  0
ARC
  5
1B9
330
1F
100
AcDbEntity
  8
0
  6
Continuous
 62
     7
370
    25
100
AcDbCircle
 10
0.0
 20
0.0
 30
0.0
 40
179.9184971068484
100
AcDbArc
 50
194.0204601304
 51
194.2652541553
  0
ARC
  5
1BA
330
1F
100
AcDbEntity
  8
0
  6
Continuous
 62
     7
370
    25
100
AcDbCircle
 10
-173.4016062021
 20
-44.0875444259
 30
0.0
 40
1.000000000000006
100
AcDbArc
 50
194.2652541553
 51
270.4285714286
  0
LINE
  5
1BB
330
1F
100
AcDbEntity
  8
0
  6
Continuous
 62
     7
370
    25
100
AcDbLine
 10
-173.3941262894
 20
-45.0875164509
 30
0.0
 11
-171.861788238
 21
-45.0760543753
 31
0.0
  0
ARC
  5
1BC
330
1F
100
AcDbEntity
  8
0
  6
Continuous
 62
     7
370
    25
100
AcDbCircle
 10
-171.8442104431
 20
-47.4259886342
 30
0.0
 40
2.350000000000012
100
AcDbArc
 50
300.4285714286
 51
90.4285714286
  0
LINE
  5
1BD
330
1F
100
AcDbEntity
  8
0
  6
Continuous
 62
     7
370
    25
100
AcDbLine
 10
-170.6540204966
 20
-49.4523025022
 30
0.0
 11
-171.9753331384
 21
-50.2283979764
 31
0.0
  0
ARC
  5
1BE
330
1F
100
AcDbEntity
  8
0
  6
Continuous
 62
     7
370
    25
100
AcDbCircle
 10
-171.4688693314
 20
-51.0906591968
 30
0.0
 40
1.000000000000005
100
AcDbArc
 50
120.4285714286
 51
196.5918887019
  0
ARC
  5
1BF
330
1F
100
AcDbEntity
  8
0
  6
Continuous
 62
     7
370
    25
100
AcDbCircle
 10
0.0
 20
0.0
 30
0.0
 40
179.9184971068485
100
AcDbArc
 50
196.5918887019
 51
196.8366827267
  0
ARC
  5
1C0
330
1F
100
AcDbEntity
  8
0
  6
Continuous
 62
     7
370
    25
100
AcDbCircle
 10
-171.2490221218
 20
-51.822784847
 30
0.0
 40
1.000000000000012
100
AcDbArc
 50
196.8366827267
 51
273.0
  0
LINE
  5
1C1
330
1F
100
AcDbEntity
  8
0
  6
Continuous
 62
     7
370
    25
100
AcDbLine
 10
-171.1966861656
 20
-52.8214143818
 30
0.0
 11
-169.6664053208
 21
-52.741215761
 31
0.0
  0
ARC
  5
1C2
330
1F
100
AcDbEntity
  8
0
  6
Continuous
 62
     7
370
    25
100
AcDbCircle
 10
-169.5434158236
 20
-55.0879951677
 30
0.0
 40
2.349999999999997
100
AcDbArc
 50
303.0
 51
93.0
  0
LINE
  5
1C3
330
1F
100
AcDbEntity
  8
0
  6
Continuous
 62
     7
370
    25
100
AcDbLine
 10
-168.2635140913
 20
-57.0588710024
 30
0.0
 11
-169.5486768674
 21
-57.8934654677
 31
0.0
  0
ARC
  5
1C4
330
1F
100
AcDbEntity
  8
0
  6
Continuous
 62
     7
370
    25
100
AcDbCircle
 10
-169.0040378324
 20
-58.7321360356
 30
0.0
 40
0.9999999999999992
100
AcDbArc
 50
123.0
 51
199.1633172733
  0
ARC
  5
1C5
330
1F
100
AcDbEntity
  8
0
  6
Continuous
 62
     7
370
    25
100
AcDbCircle
 10
0.0
 20
0.0
 30
0.0
 40
179.9184971068485
100
AcDbArc
 50
199.1633172733
 51
199.4081112981
  0
ARC
  5
1C6
330
1F
100
AcDbEntity
  8
0
  6
Continuous
 62
     7
370
    25
100
AcDbCircle
 10
-168.7515653012
 20
-59.4536610762
 30
0.0
 40
1.000000000000002
100
AcDbArc
 50
199.4081112981
 51
275.5714285714
  0
LINE
  5
1C7
330
1F
100
AcDbEntity
  8
0
  6
Continuous
 62
     7
370
    25
100
AcDbLine
 10
-168.6544786991
 20
-60.4489370137
 30
0.0
 11
-167.1293368429
 21
-60.3001633571
 31
0.0
  0
ARC
  5
1C8
330
1F
100
AcDbEntity
  8
0
  6
Continuous
 62
     7
370
    25
100
AcDbCircle
 10
-166.901183328
 20
-62.6390618102
 30
0.0
 40
2.350000000000014
100
AcDbArc
 50
305.5714285714
 51
95.5714285714
  0
LINE
  5
1C9
330
1F
100
AcDbEntity
  8
0
  6
Continuous
 62
     7
370
    25
100
AcDbLine
 10
-165.5341473616
 20
-64.5505305299
 30
0.0
 11
-166.7805721252
 21
-65.4419432241
 31
0.0
  0
ARC
  5
1CA
330
1F
100
AcDbEntity
  8
0
  6
Continuous
 62
     7
370
    25
100
AcDbCircle
 10
-166.1988546927
 20
-66.2553341687
 30
0.0
 40
1.000000000000001
100
AcDbArc
 50
125.5714285714
 51
201.7347458447
  0
ARC
  5
1CB
330
1F
100
AcDbEntity
  8
0
  6
Continuous
 62
     7
370
    25
100
AcDbCircle
 10
0.0
 20
0.0
 30
0.0
 40
179.9184971068485
100
AcDbArc
 50
201.7347458447
 51
201.9795398696
  0
ARC
  5
1CC
330
1F
100
AcDbEntity
  8
0
  6
Continuous
 62
     7
370
    25
100
AcDbCircle
 10
-165.914265286
 20
-66.9648055443
 30
0.0
 40
0.999999999999995
100
AcDbArc
 50
201.9795398696
 51
278.1428571429
  0
LINE
  5
1CD
330
1F
100
AcDbEntity
  8
0
  6
Continuous
 62
     7
370
    25
100
AcDbLine
 10
-165.7726235576
 20
-67.9547235312
 30
0.0
 11
-164.2556921225
 21
-67.7376744491
 31
0.0
  0
ARC
  5
1CE
330
1F
100
AcDbEntity
  8
0
  6
Continuous
 62
     7
370
    25
100
AcDbCircle
 10
-163.9228340608
 20
-70.0639817183
 30
0.0
 40
2.350000000000017
100
AcDbArc
 50
308.1428571429
 51
98.1428571429
  0
LINE
  5
1CF
330
1F
100
AcDbEntity
  8
0
  6
Continuous
 62
     7
370
    25
100
AcDbLine
 10
-162.4714168888
 20
-71.9121938796
 30
0.0
 11
-163.6765935063
 21
-72.858629616
 31
0.0
  0
ARC
  5
1D0
330
1F
100
AcDbEntity
  8
0
  6
Continuous
 62
     7
370
    25
100
AcDbCircle
 10
-163.0589691778
 20
-73.6451028761
 30
0.0
 40
0.9999999999999931
100
AcDbArc
 50
128.1428571429
 51
204.3061744161
  0
ARC
  5
1D1
330
1F
100
AcDbEntity
  8
0
  6
Continuous
 62
     7
370
    25
100
AcDbCircle
 10
0.0
 20
0.0
 30
0.0
 40
179.9184971068485
100
AcDbArc
 50
204.3061744161
 51
204.550968441
  0
ARC
  5
1D2
330
1F
100
AcDbEntity
  8
0
  6
Continuous
 62
     7
370
    25
100
AcDbCircle
 10
-162.7428360208
 20
-74.3410918058
 30
0.0
 40
1.000000000000014
100
AcDbArc
 50
204.550968441
 51
280.7142857143
  0
LINE
  5
1D3
330
1F
100
AcDbEntity
  8
0
  6
Continuous
 62
     7
370
    25
100
AcDbLine
 10
-162.5569244136
 20
-75.323658279
 30
0.0
 11
-161.0512582979
 21
-75.0387708795
 31
0.0
  0
ARC
  5
1D4
330
1F
100
AcDbEntity
  8
0
  6
Continuous
 62
     7
370
    25
100
AcDbCircle
 10
-160.614366021
 20
-77.3478020916
 30
0.0
 40
2.35000000000002
100
AcDbArc
 50
310.7142857143
 51
100.7142857143
  0
LINE
  5
1D5
330
1F
100
AcDbEntity
  8
0
  6
Continuous
 62
     7
370
    25
100
AcDbLine
 10
-159.0814906045
 20
-79.129035641
 30
0.0
 11
-160.2429920106
 21
-80.1285884241
 31
0.0
  0
ARC
  5
1D6
330
1F
100
AcDbEntity
  8
0
  6
Continuous
 62
     7
370
    25
100
AcDbCircle
 10
-159.5907045994
 20
-80.8865601472
 30
0.0
 40
1.000000000000016
100
AcDbArc
 50
130.7142857143
 51
206.8776029876
  0
ARC
  5
1D7
330
1F
100
AcDbEntity
  8
0
  6
Continuous
 62
     7
370
    25
100
AcDbCircle
 10
0.0
 20
0.0
 30
0.0
 40
179.9184971068485
100
AcDbArc
 50
206.8776029876
 51
207.1223970124
  0
ARC
  5
1D8
330
1F
100
AcDbEntity
  8
0
  6
Continuous
 62
     7
370
    25
100
AcDbCircle
 10
-159.2436643421
 20
-81.5676650019
 30
0.0
 40
1.00000000000001
100
AcDbArc
 50
207.1223970124
 51
283.2857142857
  0
LINE
  5
1D9
330
1F
100
AcDbEntity
  8
0
  6
Continuous
 62
     7
370
    25
100
AcDbLine
 10
-159.0138572574
 20
-82.5409012034
 30
0.0
 11
-157.5224886721
 21
-82.1887492117
 31
0.0
  0
ARC
  5
1DA
330
1F
100
AcDbEntity
  8
0
  6
Continuous
 62
     7
370
    25
100
AcDbCircle
 10
-156.9824420231
 20
-84.4758542851
 30
0.0
 40
2.350000000000031
100
AcDbArc
 50
313.2857142857
 51
103.2857142857
  0
LINE
  5
1DB
330
1F
100
AcDbEntity
  8
0
  6
Continuous
 62
     7
370
    25
100
AcDbLine
 10
-155.3711953691
 20
-86.1865220553
 30
0.0
 11
-156.4866824546
 21
-87.2371789188
 31
0.0
  0
ARC
  5
1DC
330
1F
100
AcDbEntity
  8
0
  6
Continuous
 62
     7
370
    25
100
AcDbCircle
 10
-155.8010455806
 20
-87.9651226508
 30
0.0
 40
1.000000000000014
100
AcDbArc
 50
133.2857142857
 51
209.449031559
  0
ARC
  5
1DD
330
1F
100
AcDbEntity
  8
0
  6
Continuous
 62
     7
370
    25
100
AcDbCircle
 10
0.0
 20
0.0
 30
0.0
 40
179.9184971068485
100
AcDbArc
 50
209.449031559
 51
209.6938255839
  0
ARC
  5
1DE
330
1F
100
AcDbEntity
  8
0
  6
Continuous
 62
     7
370
    25
100
AcDbCircle
 10
-155.423797116
 20
-88.629971776
 30
0.0
 40
1.000000000000004
100
AcDbArc
 50
209.6938255839
 51
285.8571428571
  0
LINE
  5
1DF
330
1F
100
AcDbEntity
  8
0
  6
Continuous
 62
     7
370
    25
100
AcDbLine
 10
-155.1505573547
 20
-89.5919177375
 30
0.0
 11
-153.6764897177
 21
-89.1732103408
 31
0.0
  0
ARC
  5
1E0
330
1F
100
AcDbEntity
  8
0
  6
Continuous
 62
     7
370
    25
100
AcDbCircle
 10
-153.0343762786
 20
-91.4337833503
 30
0.0
 40
2.350000000000008
100
AcDbArc
 50
315.8571428571
 51
105.8571428571
  0
LINE
  5
1E1
330
1F
100
AcDbEntity
  8
0
  6
Continuous
 62
     7
370
    25
100
AcDbLine
 10
-151.3480032235
 20
-93.0704402842
 30
0.0
 11
-152.4152295457
 21
-94.170085345
 31
0.0
  0
ARC
  5
1E2
330
1F
100
AcDbEntity
  8
0
  6
Continuous
 62
     7
370
    25
100
AcDbCircle
 10
-151.6976239904
 20
-94.8665351041
 30
0.0
 40
0.9999999999999751
100
AcDbArc
 50
135.8571428571
 51
212.0204601304
  0
ARC
  5
1E3
330
1F
100
AcDbEntity
  8
0
  6
Continuous
 62
     7
370
    25
100
AcDbCircle
 10
0.0
 20
0.0
 30
0.0
 40
179.9184971068485
100
AcDbArc
 50
212.0204601304
 51
212.2652541553
  0
ARC
  5
1E4
330
1F
100
AcDbEntity
  8
0
  6
Continuous
 62
     7
370
    25
100
AcDbCircle
 10
-151.2909270467
 20
-95.513789582
 30
0.0
 40
1.000000000000003
100
AcDbArc
 50
212.2652541553
 51
288.4285714286
  0
LINE
  5
1E5
330
1F
100
AcDbEntity
  8
0
  6
Continuous
 62
     7
370
    25
100
AcDbLine
 10
-150.9748048773
 20
-96.4625080724
 30
0.0
 11
-149.5210067646
 21
-95.9780884918
 31
0.0
  0
ARC
  5
1E6
330
1F
100
AcDbEntity
  8
0
  6
Continuous
 62
     7
370
    25
100
AcDbCircle
 10
-148.7781196665
 20
-98.2075769442
 30
0.0
 40
2.350000000000005
100
AcDbArc
 50
318.4285714286
 51
108.4285714286
  0
LINE
  5
1E7
330
1F
100
AcDbEntity
  8
0
  6
Continuous
 62
     7
370
    25
100
AcDbLine
 10
-147.0200163411
 20
-99.7669270323
 30
0.0
 11
-148.0368326484
 21
-100.9133457516
 31
0.0
  0
ARC
  5
1E8
330
1F
100
AcDbEntity
  8
0
  6
Continuous
 62
     7
370
    25
100
AcDbCircle
 10
-147.2887035738
 20
-101.5768989806
 30
0.0
 40
1.000000000000008
100
AcDbArc
 50
138.4285714286
 51
214.5918887019
  0
ARC
  5
1E9
330
1F
100
AcDbEntity
  8
0
  6
Continuous
 62
     7
370
    25
100
AcDbCircle
 10
0.0
 20
0.0
 30
0.0
 40
179.9184971068484
100
AcDbArc
 50
214.5918887019
 51
214.8366827267
  0
ARC
  5
1EA
330
1F
100
AcDbEntity
  8
0
  6
Continuous
 62
     7
370
    25
100
AcDbCircle
 10
-146.8533771845
 20
-102.2052553271
 30
0.0
 40
1.000000000000003
100
AcDbArc
 50
214.8366827267
 51
291.0
  0
LINE
  5
1EB
330
1F
100
AcDbEntity
  8
0
  6
Continuous
 62
     7
370
    25
100
AcDbLine
 10
-146.495009235
 20
-103.1388357535
 30
0.0
 11
-145.0644084026
 21
-102.5896795455
 31
0.0
  0
ARC
  5
1EC
330
1F
100
AcDbEntity
  8
0
  6
Continuous
 62
     7
370
    25
100
AcDbCircle
 10
-144.2222437211
 20
-104.7835935477
 30
0.0
 40
2.350000000000016
100
AcDbArc
 50
321.0
 51
111.0
  0
LINE
  5
1ED
330
1F
100
AcDbEntity
  8
0
  6
Continuous
 62
     7
370
    25
100
AcDbLine
 10
-142.3959507117
 20
-106.2624964667
 30
0.0
 11
-143.3603092712
 21
-107.4533801098
 31
0.0
  0
ARC
  5
1EE
330
1F
100
AcDbEntity
  8
0
  6
Continuous
 62
     7
370
    25
100
AcDbCircle
 10
-142.5831633098
 20
-108.0827005008
 30
0.0
 40
0.9999999999999758
100
AcDbArc
 50
141.0
 51
217.1633172733
  0
ARC
  5
1EF
330
1F
100
AcDbEntity
  8
0
  6
Continuous
 62
     7
370
    25
100
AcDbCircle
 10
0.0
 20
0.0
 30
0.0
 40
179.9184971068485
100
AcDbArc
 50
217.1633172733
 51
217.4081112981
  0
ARC
  5
1F0
330
1F
100
AcDbEntity
  8
0
  6
Continuous
 62
     7
370
    25
100
AcDbCircle
 10
-142.1200841644
 20
-108.6908932896
 30
0.0
 40
1.000000000000024
100
AcDbArc
 50
217.4081112981
 51
293.5714285714
  0
LINE
  5
1F1
330
1F
100
AcDbEntity
  8
0
  6
Continuous
 62
     7
370
    25
100
AcDbLine
 10
-141.72019214
 20
-109.6074555455
 30
0.0
 11
-140.3156696275
 21
-108.9946686375
 31
0.0
  0
ARC
  5
1F2
330
1F
100
AcDbEntity
  8
0
  6
Continuous
 62
     7
370
    25
100
AcDbCircle
 10
-139.3759233704
 20
-111.1485899388
 30
0.0
 40
2.350000000000003
100
AcDbArc
 50
323.5714285714
 51
113.5714285714
  0
LINE
  5
1F3
330
1F
100
AcDbEntity
  8
0
  6
Continuous
 62
     7
370
    25
100
AcDbLine
 10
-137.4851185879
 20
-112.5440673749
 30
0.0
 11
-138.39507731
 21
-113.7770176605
 31
0.0
  0
ARC
  5
1F4
330
1F
100
AcDbEntity
  8
0
  6
Continuous
 62
     7
370
    25
100
AcDbCircle
 10
-137.5904795302
 20
-114.3708378461
 30
0.0
 40
0.9999999999999812
100
AcDbArc
 50
143.5714285714
 51
219.7347458447
  0
ARC
  5
1F5
330
1F
100
AcDbEntity
  8
0
  6
Continuous
 62
     7
370
    25
100
AcDbCircle
 10
0.0
 20
0.0
 30
0.0
 40
179.9184971068485
100
AcDbArc
 50
219.7347458447
 51
219.9795398696
  0
ARC
  5
1F6
330
1F
100
AcDbEntity
  8
0
  6
Continuous
 62
     7
370
    25
100
AcDbCircle
 10
-137.1005802084
 20
-114.9576422579
 30
0.0
 40
0.9999999999999991
100
AcDbArc
 50
219.9795398696
 51
296.1428571429
  0
LINE
  5
1F7
330
1F
100
AcDbEntity
  8
0
  6
Continuous
 62
     7
370
    25
100
AcDbLine
 10
-136.6599694386
 20
-115.8553405088
 30
0.0
 11
-135.2843537675
 21
-115.1801569722
 31
0.0
  0
ARC
  5
1F8
330
1F
100
AcDbEntity
  8
0
  6
Continuous
 62
     7
370
    25
100
AcDbCircle
 10
-134.2489184585
 20
-117.2897478617
 30
0.0
 40
2.350000000000029
100
AcDbArc
 50
326.1428571429
 51
116.1428571429
  0
LINE
  5
1F9
330
1F
100
AcDbEntity
  8
0
  6
Continuous
 62
     7
370
    25
100
AcDbLine
 10
-132.2974097322
 20
-118.5989895091
 30
0.0
 11
-133.151136081
 21
-119.8715234395
 31
0.0
  0
ARC
  5
1FA
330
1F
100
AcDbEntity
  8
0
  6
Continuous
 62
     7
370
    25
100
AcDbCircle
 10
-132.3207068358
 20
-120.4286475448
 30
0.0
 40
1.000000000000038
100
AcDbArc
 50
146.1428571429
 51
222.3061744161
  0
ARC
  5
1FB
330
1F
100
AcDbEntity
  8
0
  6
Continuous
 62
     7
370
    25
100
AcDbCircle
 10
0.0
 20
0.0
 30
0.0
 40
179.9184971068485
100
AcDbArc
 50
222.3061744161
 51
222.550968441
  0
ARC
  5
1FC
330
1F
100
AcDbEntity
  8
0
  6
Continuous
 62
     7
370
    25
100
AcDbCircle
 10
-131.8049739296
 20
-120.9928818336
 30
0.0
 40
0.9999999999999991
100
AcDbArc
 50
222.550968441
 51
298.7142857143
  0
LINE
  5
1FD
330
1F
100
AcDbEntity
  8
0
  6
Continuous
 62
     7
370
    25
100
AcDbLine
 10
-131.3245317458
 20
-121.8699082346
 30
0.0
 11
-129.9805932229
 21
-121.1336877992
 31
0.0
  0
ARC
  5
1FE
330
1F
100
AcDbEntity
  8
0
  6
Continuous
 62
     7
370
    25
100
AcDbCircle
 10
-128.8515540911
 20
-123.1946998416
 30
0.0
 40
2.349999999999995
100
AcDbArc
 50
328.7142857143
 51
118.7142857143
  0
LINE
  5
1FF
330
1F
100
AcDbEntity
  8
0
  6
Continuous
 62
     7
370
    25
100
AcDbLine
 10
-126.8432714998
 20
-124.4150690618
 30
0.0
 11
-127.639046184
 21
-125.724623923
 31
0.0
  0
ARC
  5
200
330
1F
100
AcDbEntity
  8
0
  6
Continuous
 62
     7
370
    25
100
AcDbCircle
 10
-126.7844578473
 20
-126.2439299742
 30
0.0
 40
0.99999999999999
100
AcDbArc
 50
148.7142857143
 51
224.8776029876
  0
ARC
  5
201
330
1F
100
AcDbEntity
  8
0
  6
Continuous
 62
     7
370
    25
100
AcDbCircle
 10
0.0
 20
0.0
 30
0.0
 40
179.9184971068485
100
AcDbArc
 50
224.8776029876
 51
225.1223970124
  0
ARC
  5
202
330
1F
100
AcDbEntity
  8
0
  6
Continuous
 62
     7
370
    25
100
AcDbCircle
 10
-126.2439299742
 20
-126.7844578473
 30
0.0
 40
1.000000000000008
100
AcDbArc
 50
225.1223970124
 51
301.2857142857
  0
LINE
  5
203
330
1F
100
AcDbEntity
  8
0
  6
Continuous
 62
     7
370
    25
100
AcDbLine
 10
-125.724623923
 20
-127.639046184
 30
0.0
 11
-124.4150690618
 21
-126.8432714998
 31
0.0
  0
ARC
  5
204
330
1F
100
AcDbEntity
  8
0
  6
Continuous
 62
     7
370
    25
100
AcDbCircle
 10
-123.1946998416
 20
-128.8515540911
 30
0.0
 40
2.350000000000002
100
AcDbArc
 50
331.2857142857
 51
121.2857142857
  0
LINE
  5
205
330
1F
100
AcDbEntity
  8
0
  6
Continuous
 62
     7
370
    25
100
AcDbLine
 10
-121.1336877992
 20
-129.9805932229
 30
0.0
 11
-121.8699082346
 21
-131.3245317458
 31
0.0
  0
ARC
  5
206
330
1F
100
AcDbEntity
  8
0
  6
Continuous
 62
     7
370
    25
100
AcDbCircle
 10
-120.9928818336
 20
-131.8049739296
 30
0.0
 40
1.000000000000012
100
AcDbArc
 50
151.2857142857
 51
227.449031559
  0
ARC
  5
207
330
1F
100
AcDbEntity
  8
0
  6
Continuous
 62
     7
370
    25
100
AcDbCircle
 10
0.0
 20
0.0
 30
0.0
 40
179.9184971068484
100
AcDbArc
 50
227.449031559
 51
227.6938255839
  0
ARC
  5
208
330
1F
100
AcDbEntity
  8
0
  6
Continuous
 62
     7
370
    25
100
AcDbCircle
 10
-120.4286475448
 20
-132.3207068358
 30
0.0
 40
1.000000000000022
100
AcDbArc
 50
227.6938255839
 51
303.8571428571
  0
LINE
  5
209
330
1F
100
AcDbEntity
  8
0
  6
Continuous
 62
     7
370
    25
100
AcDbLine
 10
-119.8715234395
 20
-133.151136081
 30
0.0
 11
-118.5989895091
 21
-132.2974097322
 31
0.0
  0
ARC
  5
20A
330
1F
100
AcDbEntity
  8
0
  6
Continuous
 62
     7
370
    25
100
AcDbCircle
 10
-117.2897478617
 20
-134.2489184585
 30
0.0
 40
2.350000000000003
100
AcDbArc
 50
333.8571428571
 51
123.8571428571
  0
LINE
  5
20B
330
1F
100
AcDbEntity
  8
0
  6
Continuous
 62
     7
370
    25
100
AcDbLine
 10
-115.1801569722
 20
-135.2843537675
 30
0.0
 11
-115.8553405088
 21
-136.6599694386
 31
0.0
  0
ARC
  5
20C
330
1F
100
AcDbEntity
  8
0
  6
Continuous
 62
     7
370
    25
100
AcDbCircle
 10
-114.9576422579
 20
-137.1005802084
 30
0.0
 40
1.000000000000008
100
AcDbArc
 50
153.8571428571
 51
230.0204601304
  0
ARC
  5
20D
330
1F
100
AcDbEntity
  8
0
  6
Continuous
 62
     7
370
    25
100
AcDbCircle
 10
0.0
 20
0.0
 30
0.0
 40
179.9184971068484
100
AcDbArc
 50
230.0204601304
 51
230.2652541553
  0
ARC
  5
20E
330
1F
100
AcDbEntity
  8
0
  6
Continuous
 62
     7
370
    25
100
AcDbCircle
 10
-114.3708378461
 20
-137.5904795302
 30
0.0
 40
0.9999999999999812
100
AcDbArc
 50
230.2652541553
 51
306.4285714286
  0
LINE
  5
20F
330
1F
100
AcDbEntity
  8
0
  6
Continuous
 62
     7
370
    25
100
AcDbLine
 10
-113.7770176605
 20
-138.39507731
 30
0.0
 11
-112.5440673749
 21
-137.4851185879
 31
0.0
  0
ARC
  5
210
330
1F
100
AcDbEntity
  8
0
  6
Continuous
 62
     7
370
    25
100
AcDbCircle
 10
-111.1485899388
 20
-139.3759233704
 30
0.0
 40
2.350000000000001
100
AcDbArc
 50
336.4285714286
 51
126.4285714286
  0
LINE
  5
211
330
1F
100
AcDbEntity
  8
0
  6
Continuous
 62
     7
370
    25
100
AcDbLine
 10
-108.9946686375
 20
-140.3156696275
 30
0.0
 11
-109.6074555455
 21
-141.72019214
 31
0.0
  0
ARC
  5
212
330
1F
100
AcDbEntity
  8
0
  6
Continuous
 62
     7
370
    25
100
AcDbCircle
 10
-108.6908932896
 20
-142.1200841644
 30
0.0
 40
1.0
100
AcDbArc
 50
156.4285714286
 51
232.5918887019
  0
ARC
  5
213
330
1F
100
AcDbEntity
  8
0
  6
Continuous
 62
     7
370
    25
100
AcDbCircle
 10
0.0
 20
0.0
 30
0.0
 40
179.9184971068485
100
AcDbArc
 50
232.5918887019
 51
232.8366827267
  0
ARC
  5
214
330
1F
100
AcDbEntity
  8
0
  6
Continuous
 62
     7
370
    25
100
AcDbCircle
 10
-108.0827005008
 20
-142.5831633098
 30
0.0
 40
1.000000000000032
100
AcDbArc
 50
232.8366827267
 51
309.0
  0
LINE
  5
215
330
1F
100
AcDbEntity
  8
0
  6
Continuous
 62
     7
370
    25
100
AcDbLine
 10
-107.4533801098
 20
-143.3603092712
 30
0.0
 11
-106.2624964667
 21
-142.3959507117
 31
0.0
  0
ARC
  5
216
330
1F
100
AcDbEntity
  8
0
  6
Continuous
 62
     7
370
    25
100
AcDbCircle
 10
-104.7835935477
 20
-144.2222437211
 30
0.0
 40
2.350000000000004
100
AcDbArc
 50
339.0
 51
129.0
  0
LINE
  5
217
330
1F
100
AcDbEntity
  8
0
  6
Continuous
 62
     7
370
    25
100
AcDbLine
 10
-102.5896795455
 20
-145.0644084026
 30
0.0
 11
-103.1388357535
 21
-146.495009235
 31
0.0
  0
ARC
  5
218
330
1F
100
AcDbEntity
  8
0
  6
Continuous
 62
     7
370
    25
100
AcDbCircle
 10
-102.205255327
 20
-146.8533771845
 30
0.0
 40
1.000000000000003
100
AcDbArc
 50
159.0
 51
235.1633172733
  0
ARC
  5
219
330
1F
100
AcDbEntity
  8
0
  6
Continuous
 62
     7
370
    25
100
AcDbCircle
 10
0.0
 20
0.0
 30
0.0
 40
179.9184971068485
100
AcDbArc
 50
235.1633172733
 51
235.4081112981
  0
ARC
  5
21A
330
1F
100
AcDbEntity
  8
0
  6
Continuous
 62
     7
370
    25
100
AcDbCircle
 10
-101.5768989806
 20
-147.2887035738
 30
0.0
 40
0.9999999999999964
100
AcDbArc
 50
235.4081112981
 51
311.5714285714
  0
LINE
  5
21B
330
1F
100
AcDbEntity
  8
0
  6
Continuous
 62
     7
370
    25
100
AcDbLine
 10
-100.9133457516
 20
-148.0368326484
 30
0.0
 11
-99.7669270323
 21
-147.0200163411
 31
0.0
  0
ARC
  5
21C
330
1F
100
AcDbEntity
  8
0
  6
Continuous
 62
     7
370
    25
100
AcDbCircle
 10
-98.2075769442
 20
-148.7781196665
 30
0.0
 40
2.350000000000014
100
AcDbArc
 50
341.5714285714
 51
131.5714285714
  0
LINE
  5
21D
330
1F
100
AcDbEntity
  8
0
  6
Continuous
 62
     7
370
    25
100
AcDbLine
 10
-95.9780884918
 20
-149.5210067646
 30
0.0
 11
-96.4625080724
 21
-150.9748048773
 31
0.0
  0
ARC
  5
21E
330
1F
100
AcDbEntity
  8
0
  6
Continuous
 62
     7
370
    25
100
AcDbCircle
 10
-95.513789582
 20
-151.2909270467
 30
0.0
 40
0.9999999999999889
100
AcDbArc
 50
161.5714285714
 51
237.7347458447
  0
ARC
  5
21F
330
1F
100
AcDbEntity
  8
0
  6
Continuous
 62
     7
370
    25
100
AcDbCircle
 10
0.0
 20
0.0
 30
0.0
 40
179.9184971068485
100
AcDbArc
 50
237.7347458447
 51
237.9795398696
  0
ARC
  5
220
330
1F
100
AcDbEntity
  8
0
  6
Continuous
 62
     7
370
    25
100
AcDbCircle
 10
-94.866535104
 20
-151.6976239904
 30
0.0
 40
1.000000000000015
100
AcDbArc
 50
237.9795398696
 51
314.1428571429
  0
LINE
  5
221
330
1F
100
AcDbEntity
  8
0
  6
Continuous
 62
     7
370
    25
100
AcDbLine
 10
-94.170085345
 20
-152.4152295457
 30
0.0
 11
-93.0704402842
 21
-151.3480032235
 31
0.0
  0
ARC
  5
222
330
1F
100
AcDbEntity
  8
0
  6
Continuous
 62
     7
370
    25
100
AcDbCircle
 10
-91.4337833503
 20
-153.0343762786
 30
0.0
 40
2.350000000000029
100
AcDbArc
 50
344.1428571429
 51
134.1428571429
  0
LINE
  5
223
330
1F
100
AcDbEntity
  8
0
  6
Continuous
 62
     7
370
    25
100
AcDbLine
 10
-89.1732103408
 20
-153.6764897177
 30
0.0
 11
-89.5919177375
 21
-155.1505573547
 31
0.0
  0
ARC
  5
224
330
1F
100
AcDbEntity
  8
0
  6
Continuous
 62
     7
370
    25
100
AcDbCircle
 10
-88.629971776
 20
-155.423797116
 30
0.0
 40
1.000000000000004
100
AcDbArc
 50
164.1428571429
 51
240.3061744161
  0
ARC
  5
225
330
1F
100
AcDbEntity
  8
0
  6
Continuous
 62
     7
370
    25
100
AcDbCircle
 10
0.0
 20
0.0
 30
0.0
 40
179.9184971068484
100
AcDbArc
 50
240.3061744161
 51
240.550968441
  0
ARC
  5
226
330
1F
100
AcDbEntity
  8
0
  6
Continuous
 62
     7
370
    25
100
AcDbCircle
 10
-87.9651226508
 20
-155.8010455806
 30
0.0
 40
1.000000000000005
100
AcDbArc
 50
240.550968441
 51
316.7142857143
  0
LINE
  5
227
330
1F
100
AcDbEntity
  8
0
  6
Continuous
 62
     7
370
    25
100
AcDbLine
 10
-87.2371789188
 20
-156.4866824546
 30
0.0
 11
-86.1865220553
 21
-155.3711953691
 31
0.0
  0
ARC
  5
228
330
1F
100
AcDbEntity
  8
0
  6
Continuous
 62
     7
370
    25
100
AcDbCircle
 10
-84.4758542851
 20
-156.9824420231
 30
0.0
 40
2.350000000000001
100
AcDbArc
 50
346.7142857143
 51
136.7142857143
  0
LINE
  5
229
330
1F
100
AcDbEntity
  8
0
  6
Continuous
 62
     7
370
    25
100
AcDbLine
 10
-82.1887492117
 20
-157.5224886721
 30
0.0
 11
-82.5409012034
 21
-159.0138572574
 31
0.0
  0
ARC
  5
22A
330
1F
100
AcDbEntity
  8
0
  6
Continuous
 62
     7
370
    25
100
AcDbCircle
 10
-81.5676650019
 20
-159.2436643421
 30
0.0
 40
0.9999999999999964
100
AcDbArc
 50
166.7142857143
 51
242.8776029876
  0
ARC
  5
22B
330
1F
100
AcDbEntity
  8
0
  6
Continuous
 62
     7
370
    25
100
AcDbCircle
 10
0.0
 20
0.0
 30
0.0
 40
179.9184971068485
100
AcDbArc
 50
242.8776029876
 51
243.1223970124
  0
ARC
  5
22C
330
1F
100
AcDbEntity
  8
0
  6
Continuous
 62
     7
370
    25
100
AcDbCircle
 10
-80.8865601472
 20
-159.5907045994
 30
0.0
 40
1.000000000000034
100
AcDbArc
 50
243.1223970124
 51
319.2857142857
  0
LINE
  5
22D
330
1F
100
AcDbEntity
  8
0
  6
Continuous
 62
     7
370
    25
100
AcDbLine
 10
-80.1285884241
 20
-160.2429920106
 30
0.0
 11
-79.129035641
 21
-159.0814906045
 31
0.0
  0
ARC
  5
22E
330
1F
100
AcDbEntity
  8
0
  6
Continuous
 62
     7
370
    25
100
AcDbCircle
 10
-77.3478020916
 20
-160.614366021
 30
0.0
 40
2.35000000000001
100
AcDbArc
 50
349.2857142857
 51
139.2857142857
  0
LINE
  5
22F
330
1F
100
AcDbEntity
  8
0
  6
Continuous
 62
     7
370
    25
100
AcDbLine
 10
-75.0387708795
 20
-161.0512582979
 30
0.0
 11
-75.323658279
 21
-162.5569244136
 31
0.0
  0
ARC
  5
230
330
1F
100
AcDbEntity
  8
0
  6
Continuous
 62
     7
370
    25
100
AcDbCircle
 10
-74.3410918058
 20
-162.7428360208
 30
0.0
 40
0.999999999999988
100
AcDbArc
 50
169.2857142857
 51
245.449031559
  0
ARC
  5
231
330
1F
100
AcDbEntity
  8
0
  6
Continuous
 62
     7
370
    25
100
AcDbCircle
 10
0.0
 20
0.0
 30
0.0
 40
179.9184971068484
100
AcDbArc
 50
245.449031559
 51
245.6938255839
  0
ARC
  5
232
330
1F
100
AcDbEntity
  8
0
  6
Continuous
 62
     7
370
    25
100
AcDbCircle
 10
-73.6451028761
 20
-163.0589691778
 30
0.0
 40
1.000000000000004
100
AcDbArc
 50
245.6938255839
 51
321.8571428571
  0
LINE
  5
233
330
1F
100
AcDbEntity
  8
0
  6
Continuous
 62
     7
370
    25
100
AcDbLine
 10
-72.858629616
 20
-163.6765935063
 30
0.0
 11
-71.9121938796
 21
-162.4714168888
 31
0.0
  0
ARC
  5
234
330
1F
100
AcDbEntity
  8
0
  6
Continuous
 62
     7
370
    25
100
AcDbCircle
 10
-70.0639817183
 20
-163.9228340608
 30
0.0
 40
2.350000000000028
100
AcDbArc
 50
351.8571428571
 51
141.8571428571
  0
LINE
  5
235
330
1F
100
AcDbEntity
  8
0
  6
Continuous
 62
     7
370
    25
100
AcDbLine
 10
-67.7376744491
 20
-164.2556921225
 30
0.0
 11
-67.9547235312
 21
-165.7726235576
 31
0.0
  0
ARC
  5
236
330
1F
100
AcDbEntity
  8
0
  6
Continuous
 62
     7
370
    25
100
AcDbCircle
 10
-66.9648055443
 20
-165.914265286
 30
0.0
 40
0.9999999999999909
100
AcDbArc
 50
171.8571428571
 51
248.0204601304
  0
ARC
  5
237
330
1F
100
AcDbEntity
  8
0
  6
Continuous
 62
     7
370
    25
100
AcDbCircle
 10
0.0
 20
0.0
 30
0.0
 40
179.9184971068485
100
AcDbArc
 50
248.0204601304
 51
248.2652541553
  0
ARC
  5
238
330
1F
100
AcDbEntity
  8
0
  6
Continuous
 62
     7
370
    25
100
AcDbCircle
 10
-66.2553341687
 20
-166.1988546927
 30
0.0
 40
1.000000000000012
100
AcDbArc
 50
248.2652541553
 51
324.4285714286
  0
LINE
  5
239
330
1F
100
AcDbEntity
  8
0
  6
Continuous
 62
     7
370
    25
100
AcDbLine
 10
-65.4419432241
 20
-166.7805721252
 30
0.0
 11
-64.5505305299
 21
-165.5341473616
 31
0.0
  0
ARC
  5
23A
330
1F
100
AcDbEntity
  8
0
  6
Continuous
 62
     7
370
    25
100
AcDbCircle
 10
-62.6390618102
 20
-166.901183328
 30
0.0
 40
2.350000000000014
100
AcDbArc
 50
354.4285714286
 51
144.4285714286
  0
LINE
  5
23B
330
1F
100
AcDbEntity
  8
0
  6
Continuous
 62
     7
370
    25
100
AcDbLine
 10
-60.3001633571
 20
-167.1293368429
 30
0.0
 11
-60.4489370137
 21
-168.6544786991
 31
0.0
  0
ARC
  5
23C
330
1F
100
AcDbEntity
  8
0
  6
Continuous
 62
     7
370
    25
100
AcDbCircle
 10
-59.4536610762
 20
-168.7515653012
 30
0.0
 40
0.9999999999999953
100
AcDbArc
 50
174.4285714286
 51
250.5918887019
  0
ARC
  5
23D
330
1F
100
AcDbEntity
  8
0
  6
Continuous
 62
     7
370
    25
100
AcDbCircle
 10
0.0
 20
0.0
 30
0.0
 40
179.9184971068484
100
AcDbArc
 50
250.5918887019
 51
250.8366827267
  0
ARC
  5
23E
330
1F
100
AcDbEntity
  8
0
  6
Continuous
 62
     7
370
    25
100
AcDbCircle
 10
-58.7321360356
 20
-169.0040378324
 30
0.0
 40
0.9999999999999802
100
AcDbArc
 50
250.8366827267
 51
327.0
  0
LINE
  5
23F
330
1F
100
AcDbEntity
  8
0
  6
Continuous
 62
     7
370
    25
100
AcDbLine
 10
-57.8934654677
 20
-169.5486768674
 30
0.0
 11
-57.0588710024
 21
-168.2635140913
 31
0.0
  0
ARC
  5
240
330
1F
100
AcDbEntity
  8
0
  6
Continuous
 62
     7
370
    25
100
AcDbCircle
 10
-55.0879951677
 20
-169.5434158236
 30
0.0
 40
2.350000000000009
100
AcDbArc
 50
357.0
 51
147.0
  0
LINE
  5
241
330
1F
100
AcDbEntity
  8
0
  6
Continuous
 62
     7
370
    25
100
AcDbLine
 10
-52.741215761
 20
-169.6664053208
 30
0.0
 11
-52.8214143818
 21
-171.1966861656
 31
0.0
  0
ARC
  5
242
330
1F
100
AcDbEntity
  8
0
  6
Continuous
 62
     7
370
    25
100
AcDbCircle
 10
-51.822784847
 20
-171.2490221218
 30
0.0
 40
0.9999999999999902
100
AcDbArc
 50
177.0
 51
253.1633172733
  0
ARC
  5
243
330
1F
100
AcDbEntity
  8
0
  6
Continuous
 62
     7
370
    25
100
AcDbCircle
 10
0.0
 20
0.0
 30
0.0
 40
179.9184971068484
100
AcDbArc
 50
253.1633172733
 51
253.4081112981
  0
ARC
  5
244
330
1F
100
AcDbEntity
  8
0
  6
Continuous
 62
     7
370
    25
100
AcDbCircle
 10
-51.0906591968
 20
-171.4688693314
 30
0.0
 40
1.000000000000003
100
AcDbArc
 50
253.4081112981
 51
329.5714285714
  0
LINE
  5
245
330
1F
100
AcDbEntity
  8
0
  6
Continuous
 62
     7
370
    25
100
AcDbLine
 10
-50.2283979764
 20
-171.9753331384
 30
0.0
 11
-49.4523025022
 21
-170.6540204966
 31
0.0
  0
ARC
  5
246
330
1F
100
AcDbEntity
  8
0
  6
Continuous
 62
     7
370
    25
100
AcDbCircle
 10
-47.4259886342
 20
-171.8442104431
 30
0.0
 40
2.350000000000005
100
AcDbArc
 50
359.5714285714
 51
149.5714285714
  0
LINE
  5
247
330
1F
100
AcDbEntity
  8
0
  6
Continuous
 62
     7
370
    25
100
AcDbLine
 10
-45.0760543753
 20
-171.861788238
 30
0.0
 11
-45.0875164509
 21
-173.3941262894
 31
0.0
  0
ARC
  5
248
330
1F
100
AcDbEntity
  8
0
  6
Continuous
 62
     7
370
    25
100
AcDbCircle
 10
-44.0875444259
 20
-173.4016062021
 30
0.0
 40
0.9999999999999987
100
AcDbArc
 50
179.5714285714
 51
255.7347458447
  0
ARC
  5
249
330
1F
100
AcDbEntity
  8
0
  6
Continuous
 62
     7
370
    25
100
AcDbCircle
 10
0.0
 20
0.0
 30
0.0
 40
179.9184971068484
100
AcDbArc
 50
255.7347458447
 51
255.9795398696
  0
ARC
  5
24A
330
1F
100
AcDbEntity
  8
0
  6
Continuous
 62
     7
370
    25
100
AcDbCircle
 10
-43.3462925697
 20
-173.5883853472
 30
0.0
 40
0.9999999999999976
100
AcDbArc
 50
255.9795398696
 51
332.1428571429
  0
LINE
  5
24B
330
1F
100
AcDbEntity
  8
0
  6
Continuous
 62
     7
370
    25
100
AcDbLine
 10
-42.4621771762
 20
-174.0556539754
 30
0.0
 11
-41.7461436459
 21
-172.7008524157
 31
0.0
  0
ARC
  5
24C
330
1F
100
AcDbEntity
  8
0
  6
Continuous
 62
     7
370
    25
100
AcDbCircle
 10
-39.6684724712
 20
-173.7989336922
 30
0.0
 40
2.349999999999997
100
AcDbArc
 50
2.1428571429
 51
152.1428571429
  0
LINE
  5
24D
330
1F
100
AcDbEntity
  8
0
  6
Continuous
 62
     7
370
    25
100
AcDbLine
 10
-37.320115815
 20
-173.7110643856
 30
0.0
 11
-37.2628182623
 21
-175.2423737185
 31
0.0
  0
ARC
  5
24E
330
1F
100
AcDbEntity
  8
0
  6
Continuous
 62
     7
370
    25
100
AcDbCircle
 10
-36.2635175575
 20
-175.2049825243
 30
0.0
 40
0.9999999999999918
100
AcDbArc
 50
182.1428571429
 51
258.3061744161
  0
ARC
  5
24F
330
1F
100
AcDbEntity
  8
0
  6
Continuous
 62
     7
370
    25
100
AcDbCircle
 10
0.0
 20
0.0
 30
0.0
 40
179.9184971068485
100
AcDbArc
 50
258.3061744161
 51
258.550968441
  0
ARC
  5
250
330
1F
100
AcDbEntity
  8
0
  6
Continuous
 62
     7
370
    25
100
AcDbCircle
 10
-35.514632278
 20
-175.3583174564
 30
0.0
 40
1.000000000000009
100
AcDbArc
 50
258.550968441
 51
334.7142857143
  0
LINE
  5
251
330
1F
100
AcDbEntity
  8
0
  6
Continuous
 62
     7
370
    25
100
AcDbLine
 10
-34.6104432021
 20
-175.7854498891
 30
0.0
 11
-33.9559136121
 21
-174.3998878016
 31
0.0
  0
ARC
  5
252
330
1F
100
AcDbEntity
  8
0
  6
Continuous
 62
     7
370
    25
100
AcDbCircle
 10
-31.8310692838
 20
-175.4036490184
 30
0.0
 40
2.350000000000017
100
AcDbArc
 50
4.7142857143
 51
154.7142857143
  0
LINE
  5
253
330
1F
100
AcDbEntity
  8
0
  6
Continuous
 62
     7
370
    25
100
AcDbLine
 10
-29.489019508
 20
-175.2105095674
 30
0.0
 11
-29.3630777167
 21
-176.7377063288
 31
0.0
  0
ARC
  5
254
330
1F
100
AcDbEntity
  8
0
  6
Continuous
 62
     7
370
    25
100
AcDbCircle
 10
-28.3664607908
 20
-176.6555193284
 30
0.0
 40
0.9999999999999954
100
AcDbArc
 50
184.7142857143
 51
260.8776029876
  0
ARC
  5
255
330
1F
100
AcDbEntity
  8
0
  6
Continuous
 62
     7
370
    25
100
AcDbCircle
 10
0.0
 20
0.0
 30
0.0
 40
179.9184971068485
100
AcDbArc
 50
260.8776029876
 51
261.1223970124
  0
ARC
  5
256
330
1F
100
AcDbEntity
  8
0
  6
Continuous
 62
     7
370
    25
100
AcDbCircle
 10
-27.6114502433
 20
-176.7751012514
 30
0.0
 40
1.000000000000008
100
AcDbArc
 50
261.1223970124
 51
337.2857142857
  0
LINE
  5
257
330
1F
100
AcDbEntity
  8
0
  6
Continuous
 62
     7
370
    25
100
AcDbLine
 10
-26.6890084015
 20
-177.1612373007
 30
0.0
 11
-26.0973008872
 21
-175.7477050229
 31
0.0
  0
ARC
  5
258
330
1F
100
AcDbEntity
  8
0
  6
Continuous
 62
     7
370
    25
100
AcDbCircle
 10
-23.9295625591
 20
-176.6551247388
 30
0.0
 40
2.350000000000013
100
AcDbArc
 50
7.2857142857
 51
157.2857142857
  0
LINE
  5
259
330
1F
100
AcDbEntity
  8
0
  6
Continuous
 62
     7
370
    25
100
AcDbLine
 10
-21.5985362402
 20
-176.3571041005
 30
0.0
 11
-21.4042038403
 21
-177.8771127192
 31
0.0
  0
ARC
  5
25A
330
1F
100
AcDbEntity
  8
0
  6
Continuous
 62
     7
370
    25
100
AcDbCircle
 10
-20.4122777472
 20
-177.7502954263
 30
0.0
 40
1.000000000000005
100
AcDbArc
 50
187.2857142857
 51
263.449031559
  0
ARC
  5
25B
330
1F
100
AcDbEntity
  8
0
  6
Continuous
 62
     7
370
    25
100
AcDbCircle
 10
0.0
 20
0.0
 30
0.0
 40
179.9184971068485
100
AcDbArc
 50
263.449031559
 51
263.6938255839
  0
ARC
  5
25C
330
1F
100
AcDbEntity
  8
0
  6
Continuous
 62
     7
370
    25
100
AcDbCircle
 10
-19.6526624223
 20
-177.8358835182
 30
0.0
 40
1.000000000000022
100
AcDbArc
 50
263.6938255839
 51
339.8571428571
  0
LINE
  5
25D
330
1F
100
AcDbEntity
  8
0
  6
Continuous
 62
     7
370
    25
100
AcDbLine
 10
-18.7138254898
 20
-178.1802455574
 30
0.0
 11
-18.1861316714
 21
-176.7415897554
 31
0.0
  0
ARC
  5
25E
330
1F
100
AcDbEntity
  8
0
  6
Continuous
 62
     7
370
    25
100
AcDbCircle
 10
-15.9798648799
 20
-177.5508405476
 30
0.0
 40
2.350000000000004
100
AcDbArc
 50
9.8571428571
 51
159.8571428571
  0
LINE
  5
25F
330
1F
100
AcDbEntity
  8
0
  6
Continuous
 62
     7
370
    25
100
AcDbLine
 10
-13.6645563948
 20
-177.1485388959
 30
0.0
 11
-13.4022247459
 21
-178.658298277
 31
0.0
  0
ARC
  5
260
330
1F
100
AcDbEntity
  8
0
  6
Continuous
 62
     7
370
    25
100
AcDbCircle
 10
-12.4169870927
 20
-178.4871060848
 30
0.0
 40
1.000000000000004
100
AcDbArc
 50
189.8571428571
 51
266.0204601304
  0
ARC
  5
261
330
1F
100
AcDbEntity
  8
0
  6
Continuous
 62
     7
370
    25
100
AcDbCircle
 10
0.0
 20
0.0
 30
0.0
 40
179.9184971068484
100
AcDbArc
 50
266.0204601304
 51
266.2652541553
  0
ARC
  5
262
330
1F
100
AcDbEntity
  8
0
  6
Continuous
 62
     7
370
    25
100
AcDbCircle
 10
-11.6542967547
 20
-178.5385279824
 30
0.0
 40
1.00000000000001
100
AcDbArc
 50
266.2652541553
 51
342.4285714286
  0
LINE
  5
263
330
1F
100
AcDbEntity
  8
0
  6
Continuous
 62
     7
370
    25
100
AcDbLine
 10
-10.700955424
 20
-178.8404225123
 30
0.0
 11
-10.2383380067
 21
-177.3795404473
 31
0.0
  0
ARC
  5
264
330
1F
100
AcDbEntity
  8
0
  6
Continuous
 62
     7
370
    25
100
AcDbCircle
 10
-7.9979858795
 20
-178.0889925925
 30
0.0
 40
2.35000000000002
100
AcDbArc
 50
12.4285714286
 51
162.4285714286
  0
LINE
  5
265
330
1F
100
AcDbEntity
  8
0
  6
Continuous
 62
     7
370
    25
100
AcDbLine
 10
-5.7030579514
 20
-177.5832201094
 30
0.0
 11
-5.3732553545
 21
-179.0796897983
 31
0.0
  0
ARC
  5
266
330
1F
100
AcDbEntity
  8
0
  6
Continuous
 62
     7
370
    25
100
AcDbCircle
 10
-4.3966902787
 20
-178.8644674651
 30
0.0
 40
0.9999999999999991
100
AcDbArc
 50
192.4285714286
 51
268.5918887019
  0
ARC
  5
267
330
1F
100
AcDbEntity
  8
0
  6
Continuous
 62
     7
370
    25
100
AcDbCircle
 10
0.0
 20
0.0
 30
0.0
 40
179.9184971068485
100
AcDbArc
 50
268.5918887019
 51
268.8366827267
  0
ARC
  5
268
330
1F
100
AcDbEntity
  8
0
  6
Continuous
 62
     7
370
    25
100
AcDbCircle
 10
-3.6324608844
 20
-178.8816196117
 30
0.0
 40
1.000000000000001
100
AcDbArc
 50
268.8366827267
 51
345.0
  0
LINE
  5
269
330
1F
100
AcDbEntity
  8
0
  6
Continuous
 62
     7
370
    25
100
AcDbLine
 10
-2.6665350581
 20
-179.1404386568
 30
0.0
 11
-2.2699256918
 21
-177.6602723509
 31
0.0
  0
ARC
  5
26A
330
1F
100
AcDbEntity
  8
0
  6
Continuous
 62
     7
370
    25
100
AcDbCircle
 10
0.0
 20
-178.2684971068
 30
0.0
 40
2.350000000000004
100
AcDbArc
 50
15.0
 51
165.0
  0
LINE
  5
26B
330
1F
100
AcDbEntity
  8
0
  6
Continuous
 62
     7
370
    25
100
AcDbLine
 10
2.2699256918
 20
-177.6602723509
 30
0.0
 11
2.6665350581
 21
-179.1404386568
 31
0.0
  0
ARC
  5
26C
330
1F
100
AcDbEntity
  8
0
  6
Continuous
 62
     7
370
    25
100
AcDbCircle
 10
3.6324608844
 20
-178.8816196117
 30
0.0
 40
0.9999999999999943
100
AcDbArc
 50
195.0
 51
271.1633172733
  0
ARC
  5
26D
330
1F
100
AcDbEntity
  8
0
  6
Continuous
 62
     7
370
    25
100
AcDbCircle
 10
0.0
 20
0.0
 30
0.0
 40
179.9184971068484
100
AcDbArc
 50
271.1633172733
 51
271.4081112981
  0
ARC
  5
26E
330
1F
100
AcDbEntity
  8
0
  6
Continuous
 62
     7
370
    25
100
AcDbCircle
 10
4.3966902787
 20
-178.8644674651
 30
0.0
 40
1.000000000000002
100
AcDbArc
 50
271.4081112981
 51
347.5714285714
  0
LINE
  5
26F
330
1F
100
AcDbEntity
  8
0
  6
Continuous
 62
     7
370
    25
100
AcDbLine
 10
5.3732553545
 20
-179.0796897983
 30
0.0
 11
5.7030579514
 21
-177.5832201094
 31
0.0
  0
ARC
  5
270
330
1F
100
AcDbEntity
  8
0
  6
Continuous
 62
     7
370
    25
100
AcDbCircle
 10
7.9979858795
 20
-178.0889925925
 30
0.0
 40
2.350000000000009
100
AcDbArc
 50
17.5714285714
 51
167.5714285714
  0
LINE
  5
271
330
1F
100
AcDbEntity
  8
0
  6
Continuous
 62
     7
370
    25
100
AcDbLine
 10
10.2383380067
 20
-177.3795404473
 30
0.0
 11
10.700955424
 21
-178.8404225123
 31
0.0
  0
ARC
  5
272
330
1F
100
AcDbEntity
  8
0
  6
Continuous
 62
     7
370
    25
100
AcDbCircle
 10
11.6542967547
 20
-178.5385279824
 30
0.0
 40
0.9999999999999912
100
AcDbArc
 50
197.5714285714
 51
273.7347458447
  0
ARC
  5
273
330
1F
100
AcDbEntity
  8
0
  6
Continuous
 62
     7
370
    25
100
AcDbCircle
 10
0.0
 20
0.0
 30
0.0
 40
179.9184971068485
100
AcDbArc
 50
273.7347458447
 51
273.9795398696
  0
ARC
  5
274
330
1F
100
AcDbEntity
  8
0
  6
Continuous
 62
     7
370
    25
100
AcDbCircle
 10
12.4169870927
 20
-178.4871060848
 30
0.0
 40
1.000000000000007
100
AcDbArc
 50
273.9795398696
 51
350.1428571429
  0
LINE
  5
275
330
1F
100
AcDbEntity
  8
0
  6
Continuous
 62
     7
370
    25
100
AcDbLine
 10
13.4022247459
 20
-178.658298277
 30
0.0
 11
13.6645563948
 21
-177.1485388959
 31
0.0
  0
ARC
  5
276
330
1F
100
AcDbEntity
  8
0
  6
Continuous
 62
     7
370
    25
100
AcDbCircle
 10
15.9798648799
 20
-177.5508405476
 30
0.0
 40
2.350000000000002
100
AcDbArc
 50
20.1428571429
 51
170.1428571429
  0
LINE
  5
277
330
1F
100
AcDbEntity
  8
0
  6
Continuous
 62
     7
370
    25
100
AcDbLine
 10
18.1861316714
 20
-176.7415897554
 30
0.0
 11
18.7138254898
 21
-178.1802455574
 31
0.0
  0
ARC
  5
278
330
1F
100
AcDbEntity
  8
0
  6
Continuous
 62
     7
370
    25
100
AcDbCircle
 10
19.6526624223
 20
-177.8358835182
 30
0.0
 40
1.000000000000011
100
AcDbArc
 50
200.1428571429
 51
276.3061744161
  0
ARC
  5
279
330
1F
100
AcDbEntity
  8
0
  6
Continuous
 62
     7
370
    25
100
AcDbCircle
 10
0.0
 20
0.0
 30
0.0
 40
179.9184971068485
100
AcDbArc
 50
276.3061744161
 51
276.550968441
  0
ARC
  5
27A
330
1F
100
AcDbEntity
  8
0
  6
Continuous
 62
     7
370
    25
100
AcDbCircle
 10
20.4122777472
 20
-177.7502954263
 30
0.0
 40
1.000000000000001
100
AcDbArc
 50
276.550968441
 51
352.7142857143
  0
LINE
  5
27B
330
1F
100
AcDbEntity
  8
0
  6
Continuous
 62
     7
370
    25
100
AcDbLine
 10
21.4042038403
 20
-177.8771127192
 30
0.0
 11
21.5985362402
 21
-176.3571041005
 31
0.0
  0
ARC
  5
27C
330
1F
100
AcDbEntity
  8
0
  6
Continuous
 62
     7
370
    25
100
AcDbCircle
 10
23.9295625591
 20
-176.6551247388
 30
0.0
 40
2.350000000000013
100
AcDbArc
 50
22.7142857143
 51
172.7142857143
  0
LINE
  5
27D
330
1F
100
AcDbEntity
  8
0
  6
Continuous
 62
     7
370
    25
100
AcDbLine
 10
26.0973008872
 20
-175.7477050229
 30
0.0
 11
26.6890084015
 21
-177.1612373007
 31
0.0
  0
ARC
  5
27E
330
1F
100
AcDbEntity
  8
0
  6
Continuous
 62
     7
370
    25
100
AcDbCircle
 10
27.6114502433
 20
-176.7751012514
 30
0.0
 40
0.9999999999999912
100
AcDbArc
 50
202.7142857143
 51
278.8776029876
  0
ARC
  5
27F
330
1F
100
AcDbEntity
  8
0
  6
Continuous
 62
     7
370
    25
100
AcDbCircle
 10
0.0
 20
0.0
 30
0.0
 40
179.9184971068485
100
AcDbArc
 50
278.8776029876
 51
279.1223970124
  0
ARC
  5
280
330
1F
100
AcDbEntity
  8
0
  6
Continuous
 62
     7
370
    25
100
AcDbCircle
 10
28.3664607908
 20
-176.6555193284
 30
0.0
 40
1.000000000000007
100
AcDbArc
 50
279.1223970124
 51
355.2857142857
  0
LINE
  5
281
330
1F
100
AcDbEntity
  8
0
  6
Continuous
 62
     7
370
    25
100
AcDbLine
 10
29.3630777167
 20
-176.7377063288
 30
0.0
 11
29.489019508
 21
-175.2105095674
 31
0.0
  0
ARC
  5
282
330
1F
100
AcDbEntity
  8
0
  6
Continuous
 62
     7
370
    25
100
AcDbCircle
 10
31.8310692838
 20
-175.4036490184
 30
0.0
 40
2.35000000000001
100
AcDbArc
 50
25.2857142857
 51
175.2857142857
  0
LINE
  5
283
330
1F
100
AcDbEntity
  8
0
  6
Continuous
 62
     7
370
    25
100
AcDbLine
 10
33.9559136121
 20
-174.3998878016
 30
0.0
 11
34.6104432021
 21
-175.7854498891
 31
0.0
  0
ARC
  5
284
330
1F
100
AcDbEntity
  8
0
  6
Continuous
 62
     7
370
    25
100
AcDbCircle
 10
35.514632278
 20
-175.3583174564
 30
0.0
 40
0.9999999999999962
100
AcDbArc
 50
205.2857142857
 51
281.449031559
  0
ARC
  5
285
330
1F
100
AcDbEntity
  8
0
  6
Continuous
 62
     7
370
    25
100
AcDbCircle
 10
0.0
 20
0.0
 30
0.0
 40
179.9184971068485
100
AcDbArc
 50
281.449031559
 51
281.6938255839
  0
ARC
  5
286
330
1F
100
AcDbEntity
  8
0
  6
Continuous
 62
     7
370
    25
100
AcDbCircle
 10
36.2635175575
 20
-175.2049825243
 30
0.0
 40
1.000000000000005
100
AcDbArc
 50
281.6938255839
 51
357.8571428571
  0
LINE
  5
287
330
1F
100
AcDbEntity
  8
0
  6
Continuous
 62
     7
370
    25
100
AcDbLine
 10
37.2628182623
 20
-175.2423737185
 30
0.0
 11
37.320115815
 21
-173.7110643856
 31
0.0
  0
ARC
  5
288
330
1F
100
AcDbEntity
  8
0
  6
Continuous
 62
     7
370
    25
100
AcDbCircle
 10
39.6684724712
 20
-173.7989336922
 30
0.0
 40
2.350000000000018
100
AcDbArc
 50
27.8571428571
 51
177.8571428571
  0
LINE
  5
289
330
1F
100
AcDbEntity
  8
0
  6
Continuous
 62
     7
370
    25
100
AcDbLine
 10
41.7461436459
 20
-172.7008524157
 30
0.0
 11
42.4621771762
 21
-174.0556539754
 31
0.0
  0
ARC
  5
28A
330
1F
100
AcDbEntity
  8
0
  6
Continuous
 62
     7
370
    25
100
AcDbCircle
 10
43.3462925697
 20
-173.5883853472
 30
0.0
 40
1.000000000000012
100
AcDbArc
 50
207.8571428571
 51
284.0204601304
  0
ARC
  5
28B
330
1F
100
AcDbEntity
  8
0
  6
Continuous
 62
     7
370
    25
100
AcDbCircle
 10
0.0
 20
0.0
 30
0.0
 40
179.9184971068485
100
AcDbArc
 50
284.0204601304
 51
284.2652541553
  0
ARC
  5
28C
330
1F
100
AcDbEntity
  8
0
  6
Continuous
 62
     7
370
    25
100
AcDbCircle
 10
44.0875444259
 20
-173.4016062021
 30
0.0
 40
1.000000000000006
100
AcDbArc
 50
284.2652541553
 51
0.4285714286
  0
LINE
  5
28D
330
1F
100
AcDbEntity
  8
0
  6
Continuous
 62
     7
370
    25
100
AcDbLine
 10
45.0875164509
 20
-173.3941262894
 30
0.0
 11
45.0760543753
 21
-171.861788238
 31
0.0
  0
ARC
  5
28E
330
1F
100
AcDbEntity
  8
0
  6
Continuous
 62
     7
370
    25
100
AcDbCircle
 10
47.4259886342
 20
-171.8442104431
 30
0.0
 40
2.349999999999997
100
AcDbArc
 50
30.4285714286
 51
180.4285714286
  0
LINE
  5
28F
330
1F
100
AcDbEntity
  8
0
  6
Continuous
 62
     7
370
    25
100
AcDbLine
 10
49.4523025022
 20
-170.6540204966
 30
0.0
 11
50.2283979764
 21
-171.9753331384
 31
0.0
  0
ARC
  5
290
330
1F
100
AcDbEntity
  8
0
  6
Continuous
 62
     7
370
    25
100
AcDbCircle
 10
51.0906591968
 20
-171.4688693314
 30
0.0
 40
0.999999999999991
100
AcDbArc
 50
210.4285714286
 51
286.5918887019
  0
ARC
  5
291
330
1F
100
AcDbEntity
  8
0
  6
Continuous
 62
     7
370
    25
100
AcDbCircle
 10
0.0
 20
0.0
 30
0.0
 40
179.9184971068485
100
AcDbArc
 50
286.5918887019
 51
286.8366827267
  0
ARC
  5
292
330
1F
100
AcDbEntity
  8
0
  6
Continuous
 62
     7
370
    25
100
AcDbCircle
 10
51.822784847
 20
-171.2490221218
 30
0.0
 40
1.000000000000004
100
AcDbArc
 50
286.8366827267
 51
3.0
  0
LINE
  5
293
330
1F
100
AcDbEntity
  8
0
  6
Continuous
 62
     7
370
    25
100
AcDbLine
 10
52.8214143818
 20
-171.1966861656
 30
0.0
 11
52.741215761
 21
-169.6664053208
 31
0.0
  0
ARC
  5
294
330
1F
100
AcDbEntity
  8
0
  6
Continuous
 62
     7
370
    25
100
AcDbCircle
 10
55.0879951677
 20
-169.5434158236
 30
0.0
 40
2.350000000000024
100
AcDbArc
 50
33.0
 51
183.0
  0
LINE
  5
295
330
1F
100
AcDbEntity
  8
0
  6
Continuous
 62
     7
370
    25
100
AcDbLine
 10
57.0588710024
 20
-168.2635140913
 30
0.0
 11
57.8934654677
 21
-169.5486768674
 31
0.0
  0
ARC
  5
296
330
1F
100
AcDbEntity
  8
0
  6
Continuous
 62
     7
370
    25
100
AcDbCircle
 10
58.7321360356
 20
-169.0040378324
 30
0.0
 40
1.000000000000004
100
AcDbArc
 50
213.0
 51
289.1633172733
  0
ARC
  5
297
330
1F
100
AcDbEntity
  8
0
  6
Continuous
 62
     7
370
    25
100
AcDbCircle
 10
0.0
 20
0.0
 30
0.0
 40
179.9184971068485
100
AcDbArc
 50
289.1633172733
 51
289.4081112981
  0
ARC
  5
298
330
1F
100
AcDbEntity
  8
0
  6
Continuous
 62
     7
370
    25
100
AcDbCircle
 10
59.4536610762
 20
-168.7515653012
 30
0.0
 40
1.000000000000005
100
AcDbArc
 50
289.4081112981
 51
5.5714285714
  0
LINE
  5
299
330
1F
100
AcDbEntity
  8
0
  6
Continuous
 62
     7
370
    25
100
AcDbLine
 10
60.4489370137
 20
-168.6544786991
 30
0.0
 11
60.3001633571
 21
-167.1293368429
 31
0.0
  0
ARC
  5
29A
330
1F
100
AcDbEntity
  8
0
  6
Continuous
 62
     7
370
    25
100
AcDbCircle
 10
62.6390618102
 20
-166.901183328
 30
0.0
 40
2.350000000000003
100
AcDbArc
 50
35.5714285714
 51
185.5714285714
  0
LINE
  5
29B
330
1F
100
AcDbEntity
  8
0
  6
Continuous
 62
     7
370
    25
100
AcDbLine
 10
64.5505305299
 20
-165.5341473616
 30
0.0
 11
65.4419432241
 21
-166.7805721252
 31
0.0
  0
ARC
  5
29C
330
1F
100
AcDbEntity
  8
0
  6
Continuous
 62
     7
370
    25
100
AcDbCircle
 10
66.2553341687
 20
-166.1988546927
 30
0.0
 40
1.000000000000001
100
AcDbArc
 50
215.5714285714
 51
291.7347458447
  0
ARC
  5
29D
330
1F
100
AcDbEntity
  8
0
  6
Continuous
 62
     7
370
    25
100
AcDbCircle
 10
0.0
 20
0.0
 30
0.0
 40
179.9184971068485
100
AcDbArc
 50
291.7347458447
 51
291.9795398696
  0
ARC
  5
29E
330
1F
100
AcDbEntity
  8
0
  6
Continuous
 62
     7
370
    25
100
AcDbCircle
 10
66.9648055443
 20
-165.914265286
 30
0.0
 40
1.000000000000009
100
AcDbArc
 50
291.9795398696
 51
8.1428571429
  0
LINE
  5
29F
330
1F
100
AcDbEntity
  8
0
  6
Continuous
 62
     7
370
    25
100
AcDbLine
 10
67.9547235312
 20
-165.7726235576
 30
0.0
 11
67.7376744491
 21
-164.2556921225
 31
0.0
  0
ARC
  5
2A0
330
1F
100
AcDbEntity
  8
0
  6
Continuous
 62
     7
370
    25
100
AcDbCircle
 10
70.0639817183
 20
-163.9228340608
 30
0.0
 40
2.350000000000039
100
AcDbArc
 50
38.1428571429
 51
188.1428571429
  0
LINE
  5
2A1
330
1F
100
AcDbEntity
  8
0
  6
Continuous
 62
     7
370
    25
100
AcDbLine
 10
71.9121938796
 20
-162.4714168888
 30
0.0
 11
72.858629616
 21
-163.6765935063
 31
0.0
  0
ARC
  5
2A2
330
1F
100
AcDbEntity
  8
0
  6
Continuous
 62
     7
370
    25
100
AcDbCircle
 10
73.6451028761
 20
-163.0589691778
 30
0.0
 40
1.00000000000001
100
AcDbArc
 50
218.1428571429
 51
294.3061744161
  0
ARC
  5
2A3
330
1F
100
AcDbEntity
  8
0
  6
Continuous
 62
     7
370
    25
100
AcDbCircle
 10
0.0
 20
0.0
 30
0.0
 40
179.9184971068485
100
AcDbArc
 50
294.3061744161
 51
294.550968441
  0
ARC
  5
2A4
330
1F
100
AcDbEntity
  8
0
  6
Continuous
 62
     7
370
    25
100
AcDbCircle
 10
74.3410918058
 20
-162.7428360208
 30
0.0
 40
1.000000000000014
100
AcDbArc
 50
294.550968441
 51
10.7142857143
  0
LINE
  5
2A5
330
1F
100
AcDbEntity
  8
0
  6
Continuous
 62
     7
370
    25
100
AcDbLine
 10
75.323658279
 20
-162.5569244136
 30
0.0
 11
75.0387708795
 21
-161.0512582979
 31
0.0
  0
ARC
  5
2A6
330
1F
100
AcDbEntity
  8
0
  6
Continuous
 62
     7
370
    25
100
AcDbCircle
 10
77.3478020916
 20
-160.614366021
 30
0.0
 40
2.350000000000017
100
AcDbArc
 50
40.7142857143
 51
190.7142857143
  0
LINE
  5
2A7
330
1F
100
AcDbEntity
  8
0
  6
Continuous
 62
     7
370
    25
100
AcDbLine
 10
79.129035641
 20
-159.0814906045
 30
0.0
 11
80.1285884241
 21
-160.2429920106
 31
0.0
  0
ARC
  5
2A8
330
1F
100
AcDbEntity
  8
0
  6
Continuous
 62
     7
370
    25
100
AcDbCircle
 10
80.8865601472
 20
-159.5907045994
 30
0.0
 40
0.9999999999999866
100
AcDbArc
 50
220.7142857143
 51
296.8776029876
  0
ARC
  5
2A9
330
1F
100
AcDbEntity
  8
0
  6
Continuous
 62
     7
370
    25
100
AcDbCircle
 10
0.0
 20
0.0
 30
0.0
 40
179.9184971068484
100
AcDbArc
 50
296.8776029876
 51
297.1223970124
  0
ARC
  5
2AA
330
1F
100
AcDbEntity
  8
0
  6
Continuous
 62
     7
370
    25
100
AcDbCircle
 10
81.5676650019
 20
-159.2436643421
 30
0.0
 40
1.000000000000003
100
AcDbArc
 50
297.1223970124
 51
13.2857142857
  0
LINE
  5
2AB
330
1F
100
AcDbEntity
  8
0
  6
Continuous
 62
     7
370
    25
100
AcDbLine
 10
82.5409012034
 20
-159.0138572574
 30
0.0
 11
82.1887492117
 21
-157.5224886721
 31
0.0
  0
ARC
  5
2AC
330
1F
100
AcDbEntity
  8
0
  6
Continuous
 62
     7
370
    25
100
AcDbCircle
 10
84.4758542851
 20
-156.9824420231
 30
0.0
 40
2.350000000000028
100
AcDbArc
 50
43.2857142857
 51
193.2857142857
  0
LINE
  5
2AD
330
1F
100
AcDbEntity
  8
0
  6
Continuous
 62
     7
370
    25
100
AcDbLine
 10
86.1865220553
 20
-155.3711953691
 30
0.0
 11
87.2371789188
 21
-156.4866824546
 31
0.0
  0
ARC
  5
2AE
330
1F
100
AcDbEntity
  8
0
  6
Continuous
 62
     7
370
    25
100
AcDbCircle
 10
87.9651226508
 20
-155.8010455806
 30
0.0
 40
0.999999999999984
100
AcDbArc
 50
223.2857142857
 51
299.449031559
  0
ARC
  5
2AF
330
1F
100
AcDbEntity
  8
0
  6
Continuous
 62
     7
370
    25
100
AcDbCircle
 10
0.0
 20
0.0
 30
0.0
 40
179.9184971068485
100
AcDbArc
 50
299.449031559
 51
299.6938255839
  0
ARC
  5
2B0
330
1F
100
AcDbEntity
  8
0
  6
Continuous
 62
     7
370
    25
100
AcDbCircle
 10
88.629971776
 20
-155.423797116
 30
0.0
 40
0.9999999999999984
100
AcDbArc
 50
299.6938255839
 51
15.8571428571
  0
LINE
  5
2B1
330
1F
100
AcDbEntity
  8
0
  6
Continuous
 62
     7
370
    25
100
AcDbLine
 10
89.5919177375
 20
-155.1505573547
 30
0.0
 11
89.1732103408
 21
-153.6764897177
 31
0.0
  0
ARC
  5
2B2
330
1F
100
AcDbEntity
  8
0
  6
Continuous
 62
     7
370
    25
100
AcDbCircle
 10
91.4337833503
 20
-153.0343762786
 30
0.0
 40
2.350000000000018
100
AcDbArc
 50
45.8571428571
 51
195.8571428571
  0
LINE
  5
2B3
330
1F
100
AcDbEntity
  8
0
  6
Continuous
 62
     7
370
    25
100
AcDbLine
 10
93.0704402842
 20
-151.3480032235
 30
0.0
 11
94.170085345
 21
-152.4152295457
 31
0.0
  0
ARC
  5
2B4
330
1F
100
AcDbEntity
  8
0
  6
Continuous
 62
     7
370
    25
100
AcDbCircle
 10
94.8665351041
 20
-151.6976239904
 30
0.0
 40
1.000000000000005
100
AcDbArc
 50
225.8571428571
 51
302.0204601304
  0
ARC
  5
2B5
330
1F
100
AcDbEntity
  8
0
  6
Continuous
 62
     7
370
    25
100
AcDbCircle
 10
0.0
 20
0.0
 30
0.0
 40
179.9184971068484
100
AcDbArc
 50
302.0204601304
 51
302.2652541553
  0
ARC
  5
2B6
330
1F
100
AcDbEntity
  8
0
  6
Continuous
 62
     7
370
    25
100
AcDbCircle
 10
95.513789582
 20
-151.2909270467
 30
0.0
 40
1.000000000000003
100
AcDbArc
 50
302.2652541553
 51
18.4285714286
  0
LINE
  5
2B7
330
1F
100
AcDbEntity
  8
0
  6
Continuous
 62
     7
370
    25
100
AcDbLine
 10
96.4625080724
 20
-150.9748048773
 30
0.0
 11
95.9780884918
 21
-149.5210067646
 31
0.0
  0
ARC
  5
2B8
330
1F
100
AcDbEntity
  8
0
  6
Continuous
 62
     7
370
    25
100
AcDbCircle
 10
98.2075769442
 20
-148.7781196665
 30
0.0
 40
2.350000000000014
100
AcDbArc
 50
48.4285714286
 51
198.4285714286
  0
LINE
  5
2B9
330
1F
100
AcDbEntity
  8
0
  6
Continuous
 62
     7
370
    25
100
AcDbLine
 10
99.7669270323
 20
-147.0200163411
 30
0.0
 11
100.9133457516
 21
-148.0368326484
 31
0.0
  0
ARC
  5
2BA
330
1F
100
AcDbEntity
  8
0
  6
Continuous
 62
     7
370
    25
100
AcDbCircle
 10
101.5768989806
 20
-147.2887035738
 30
0.0
 40
0.9999999999999775
100
AcDbArc
 50
228.4285714286
 51
304.5918887019
  0
ARC
  5
2BB
330
1F
100
AcDbEntity
  8
0
  6
Continuous
 62
     7
370
    25
100
AcDbCircle
 10
0.0
 20
0.0
 30
0.0
 40
179.9184971068485
100
AcDbArc
 50
304.5918887019
 51
304.8366827267
  0
ARC
  5
2BC
330
1F
100
AcDbEntity
  8
0
  6
Continuous
 62
     7
370
    25
100
AcDbCircle
 10
102.2052553271
 20
-146.8533771845
 30
0.0
 40
1.000000000000015
100
AcDbArc
 50
304.8366827267
 51
21.0
  0
LINE
  5
2BD
330
1F
100
AcDbEntity
  8
0
  6
Continuous
 62
     7
370
    25
100
AcDbLine
 10
103.1388357535
 20
-146.495009235
 30
0.0
 11
102.5896795455
 21
-145.0644084026
 31
0.0
  0
ARC
  5
2BE
330
1F
100
AcDbEntity
  8
0
  6
Continuous
 62
     7
370
    25
100
AcDbCircle
 10
104.7835935477
 20
-144.2222437211
 30
0.0
 40
2.350000000000001
100
AcDbArc
 50
51.0
 51
201.0
  0
LINE
  5
2BF
330
1F
100
AcDbEntity
  8
0
  6
Continuous
 62
     7
370
    25
100
AcDbLine
 10
106.2624964667
 20
-142.3959507117
 30
0.0
 11
107.4533801098
 21
-143.3603092712
 31
0.0
  0
ARC
  5
2C0
330
1F
100
AcDbEntity
  8
0
  6
Continuous
 62
     7
370
    25
100
AcDbCircle
 10
108.0827005008
 20
-142.5831633098
 30
0.0
 40
1.000000000000005
100
AcDbArc
 50
231.0
 51
307.1633172733
  0
ARC
  5
2C1
330
1F
100
AcDbEntity
  8
0
  6
Continuous
 62
     7
370
    25
100
AcDbCircle
 10
0.0
 20
0.0
 30
0.0
 40
179.9184971068484
100
AcDbArc
 50
307.1633172733
 51
307.4081112981
  0
ARC
  5
2C2
330
1F
100
AcDbEntity
  8
0
  6
Continuous
 62
     7
370
    25
100
AcDbCircle
 10
108.6908932896
 20
-142.1200841644
 30
0.0
 40
1.0
100
AcDbArc
 50
307.4081112981
 51
23.5714285714
  0
LINE
  5
2C3
330
1F
100
AcDbEntity
  8
0
  6
Continuous
 62
     7
370
    25
100
AcDbLine
 10
109.6074555455
 20
-141.72019214
 30
0.0
 11
108.9946686375
 21
-140.3156696275
 31
0.0
  0
ARC
  5
2C4
330
1F
100
AcDbEntity
  8
0
  6
Continuous
 62
     7
370
    25
100
AcDbCircle
 10
111.1485899388
 20
-139.3759233704
 30
0.0
 40
2.350000000000015
100
AcDbArc
 50
53.5714285714
 51
203.5714285714
  0
LINE
  5
2C5
330
1F
100
AcDbEntity
  8
0
  6
Continuous
 62
     7
370
    25
100
AcDbLine
 10
112.5440673749
 20
-137.4851185879
 30
0.0
 11
113.7770176605
 21
-138.39507731
 31
0.0
  0
ARC
  5
2C6
330
1F
100
AcDbEntity
  8
0
  6
Continuous
 62
     7
370
    25
100
AcDbCircle
 10
114.3708378461
 20
-137.5904795302
 30
0.0
 40
1.000000000000027
100
AcDbArc
 50
233.5714285714
 51
309.7347458447
  0
ARC
  5
2C7
330
1F
100
AcDbEntity
  8
0
  6
Continuous
 62
     7
370
    25
100
AcDbCircle
 10
0.0
 20
0.0
 30
0.0
 40
179.9184971068485
100
AcDbArc
 50
309.7347458447
 51
309.9795398696
  0
ARC
  5
2C8
330
1F
100
AcDbEntity
  8
0
  6
Continuous
 62
     7
370
    25
100
AcDbCircle
 10
114.9576422579
 20
-137.1005802084
 30
0.0
 40
0.9999999999999949
100
AcDbArc
 50
309.9795398696
 51
26.1428571429
  0
LINE
  5
2C9
330
1F
100
AcDbEntity
  8
0
  6
Continuous
 62
     7
370
    25
100
AcDbLine
 10
115.8553405088
 20
-136.6599694386
 30
0.0
 11
115.1801569722
 21
-135.2843537675
 31
0.0
  0
ARC
  5
2CA
330
1F
100
AcDbEntity
  8
0
  6
Continuous
 62
     7
370
    25
100
AcDbCircle
 10
117.2897478617
 20
-134.2489184585
 30
0.0
 40
2.350000000000012
100
AcDbArc
 50
56.1428571429
 51
206.1428571429
  0
LINE
  5
2CB
330
1F
100
AcDbEntity
  8
0
  6
Continuous
 62
     7
370
    25
100
AcDbLine
 10
118.5989895091
 20
-132.2974097322
 30
0.0
 11
119.8715234395
 21
-133.151136081
 31
0.0
  0
ARC
  5
2CC
330
1F
100
AcDbEntity
  8
0
  6
Continuous
 62
     7
370
    25
100
AcDbCircle
 10
120.4286475448
 20
-132.3207068358
 30
0.0
 40
0.9999999999999907
100
AcDbArc
 50
236.1428571429
 51
312.3061744161
  0
ARC
  5
2CD
330
1F
100
AcDbEntity
  8
0
  6
Continuous
 62
     7
370
    25
100
AcDbCircle
 10
0.0
 20
0.0
 30
0.0
 40
179.9184971068485
100
AcDbArc
 50
312.3061744161
 51
312.550968441
  0
ARC
  5
2CE
330
1F
100
AcDbEntity
  8
0
  6
Continuous
 62
     7
370
    25
100
AcDbCircle
 10
120.9928818336
 20
-131.8049739296
 30
0.0
 40
1.000000000000012
100
AcDbArc
 50
312.550968441
 51
28.7142857143
  0
LINE
  5
2CF
330
1F
100
AcDbEntity
  8
0
  6
Continuous
 62
     7
370
    25
100
AcDbLine
 10
121.8699082346
 20
-131.3245317458
 30
0.0
 11
121.1336877992
 21
-129.9805932229
 31
0.0
  0
ARC
  5
2D0
330
1F
100
AcDbEntity
  8
0
  6
Continuous
 62
     7
370
    25
100
AcDbCircle
 10
123.1946998416
 20
-128.8515540911
 30
0.0
 40
2.350000000000002
100
AcDbArc
 50
58.7142857143
 51
208.7142857143
  0
LINE
  5
2D1
330
1F
100
AcDbEntity
  8
0
  6
Continuous
 62
     7
370
    25
100
AcDbLine
 10
124.4150690618
 20
-126.8432714998
 30
0.0
 11
125.724623923
 21
-127.639046184
 31
0.0
  0
ARC
  5
2D2
330
1F
100
AcDbEntity
  8
0
  6
Continuous
 62
     7
370
    25
100
AcDbCircle
 10
126.2439299742
 20
-126.7844578473
 30
0.0
 40
0.9999999999999798
100
AcDbArc
 50
238.7142857143
 51
314.8776029876
  0
ARC
  5
2D3
330
1F
100
AcDbEntity
  8
0
  6
Continuous
 62
     7
370
    25
100
AcDbCircle
 10
0.0
 20
0.0
 30
0.0
 40
179.9184971068485
100
AcDbArc
 50
314.8776029876
 51
315.1223970124
  0
ARC
  5
2D4
330
1F
100
AcDbEntity
  8
0
  6
Continuous
 62
     7
370
    25
100
AcDbCircle
 10
126.7844578473
 20
-126.2439299742
 30
0.0
 40
0.9999999999999915
100
AcDbArc
 50
315.1223970124
 51
31.2857142857
  0
LINE
  5
2D5
330
1F
100
AcDbEntity
  8
0
  6
Continuous
 62
     7
370
    25
100
AcDbLine
 10
127.639046184
 20
-125.724623923
 30
0.0
 11
126.8432714998
 21
-124.4150690618
 31
0.0
  0
ARC
  5
2D6
330
1F
100
AcDbEntity
  8
0
  6
Continuous
 62
     7
370
    25
100
AcDbCircle
 10
128.8515540911
 20
-123.1946998416
 30
0.0
 40
2.350000000000002
100
AcDbArc
 50
61.2857142857
 51
211.2857142857
  0
LINE
  5
2D7
330
1F
100
AcDbEntity
  8
0
  6
Continuous
 62
     7
370
    25
100
AcDbLine
 10
129.9805932229
 20
-121.1336877992
 30
0.0
 11
131.3245317458
 21
-121.8699082346
 31
0.0
  0
ARC
  5
2D8
330
1F
100
AcDbEntity
  8
0
  6
Continuous
 62
     7
370
    25
100
AcDbCircle
 10
131.8049739296
 20
-120.9928818336
 30
0.0
 40
1.000000000000002
100
AcDbArc
 50
241.2857142857
 51
317.449031559
  0
ARC
  5
2D9
330
1F
100
AcDbEntity
  8
0
  6
Continuous
 62
     7
370
    25
100
AcDbCircle
 10
0.0
 20
0.0
 30
0.0
 40
179.9184971068485
100
AcDbArc
 50
317.449031559
 51
317.6938255839
  0
ARC
  5
2DA
330
1F
100
AcDbEntity
  8
0
  6
Continuous
 62
     7
370
    25
100
AcDbCircle
 10
132.3207068358
 20
-120.4286475448
 30
0.0
 40
0.9999999999999984
100
AcDbArc
 50
317.6938255839
 51
33.8571428571
  0
LINE
  5
2DB
330
1F
100
AcDbEntity
  8
0
  6
Continuous
 62
     7
370
    25
100
AcDbLine
 10
133.151136081
 20
-119.8715234395
 30
0.0
 11
132.2974097322
 21
-118.5989895091
 31
0.0
  0
ARC
  5
2DC
330
1F
100
AcDbEntity
  8
0
  6
Continuous
 62
     7
370
    25
100
AcDbCircle
 10
134.2489184585
 20
-117.2897478617
 30
0.0
 40
2.350000000000012
100
AcDbArc
 50
63.8571428571
 51
213.8571428571
  0
LINE
  5
2DD
330
1F
100
AcDbEntity
  8
0
  6
Continuous
 62
     7
370
    25
100
AcDbLine
 10
135.2843537675
 20
-115.1801569722
 30
0.0
 11
136.6599694386
 21
-115.8553405088
 31
0.0
  0
ARC
  5
2DE
330
1F
100
AcDbEntity
  8
0
  6
Continuous
 62
     7
370
    25
100
AcDbCircle
 10
137.1005802084
 20
-114.9576422579
 30
0.0
 40
0.9999999999999991
100
AcDbArc
 50
243.8571428571
 51
320.0204601304
  0
ARC
  5
2DF
330
1F
100
AcDbEntity
  8
0
  6
Continuous
 62
     7
370
    25
100
AcDbCircle
 10
0.0
 20
0.0
 30
0.0
 40
179.9184971068485
100
AcDbArc
 50
320.0204601304
 51
320.2652541553
  0
ARC
  5
2E0
330
1F
100
AcDbEntity
  8
0
  6
Continuous
 62
     7
370
    25
100
AcDbCircle
 10
137.5904795302
 20
-114.3708378461
 30
0.0
 40
1.000000000000012
100
AcDbArc
 50
320.2652541553
 51
36.4285714286
  0
LINE
  5
2E1
330
1F
100
AcDbEntity
  8
0
  6
Continuous
 62
     7
370
    25
100
AcDbLine
 10
138.39507731
 20
-113.7770176605
 30
0.0
 11
137.4851185879
 21
-112.5440673749
 31
0.0
  0
ARC
  5
2E2
330
1F
100
AcDbEntity
  8
0
  6
Continuous
 62
     7
370
    25
100
AcDbCircle
 10
139.3759233704
 20
-111.1485899388
 30
0.0
 40
2.350000000000021
100
AcDbArc
 50
66.4285714286
 51
216.4285714286
  0
LINE
  5
2E3
330
1F
100
AcDbEntity
  8
0
  6
Continuous
 62
     7
370
    25
100
AcDbLine
 10
140.3156696275
 20
-108.9946686375
 30
0.0
 11
141.72019214
 21
-109.6074555455
 31
0.0
  0
ARC
  5
2E4
330
1F
100
AcDbEntity
  8
0
  6
Continuous
 62
     7
370
    25
100
AcDbCircle
 10
142.1200841644
 20
-108.6908932896
 30
0.0
 40
0.9999999999999841
100
AcDbArc
 50
246.4285714286
 51
322.5918887019
  0
ARC
  5
2E5
330
1F
100
AcDbEntity
  8
0
  6
Continuous
 62
     7
370
    25
100
AcDbCircle
 10
0.0
 20
0.0
 30
0.0
 40
179.9184971068484
100
AcDbArc
 50
322.5918887019
 51
322.8366827267
  0
ARC
  5
2E6
330
1F
100
AcDbEntity
  8
0
  6
Continuous
 62
     7
370
    25
100
AcDbCircle
 10
142.5831633098
 20
-108.0827005008
 30
0.0
 40
1.00000000000001
100
AcDbArc
 50
322.8366827267
 51
39.0
  0
LINE
  5
2E7
330
1F
100
AcDbEntity
  8
0
  6
Continuous
 62
     7
370
    25
100
AcDbLine
 10
143.3603092712
 20
-107.4533801098
 30
0.0
 11
142.3959507117
 21
-106.2624964667
 31
0.0
  0
ARC
  5
2E8
330
1F
100
AcDbEntity
  8
0
  6
Continuous
 62
     7
370
    25
100
AcDbCircle
 10
144.2222437211
 20
-104.7835935477
 30
0.0
 40
2.350000000000014
100
AcDbArc
 50
69.0
 51
219.0
  0
LINE
  5
2E9
330
1F
100
AcDbEntity
  8
0
  6
Continuous
 62
     7
370
    25
100
AcDbLine
 10
145.0644084026
 20
-102.5896795455
 30
0.0
 11
146.495009235
 21
-103.1388357535
 31
0.0
  0
ARC
  5
2EA
330
1F
100
AcDbEntity
  8
0
  6
Continuous
 62
     7
370
    25
100
AcDbCircle
 10
146.8533771845
 20
-102.205255327
 30
0.0
 40
1.000000000000003
100
AcDbArc
 50
249.0
 51
325.1633172733
  0
ARC
  5
2EB
330
1F
100
AcDbEntity
  8
0
  6
Continuous
 62
     7
370
    25
100
AcDbCircle
 10
0.0
 20
0.0
 30
0.0
 40
179.9184971068485
100
AcDbArc
 50
325.1633172733
 51
325.4081112981
  0
ARC
  5
2EC
330
1F
100
AcDbEntity
  8
0
  6
Continuous
 62
     7
370
    25
100
AcDbCircle
 10
147.2887035738
 20
-101.5768989806
 30
0.0
 40
1.000000000000027
100
AcDbArc
 50
325.4081112981
 51
41.5714285714
  0
LINE
  5
2ED
330
1F
100
AcDbEntity
  8
0
  6
Continuous
 62
     7
370
    25
100
AcDbLine
 10
148.0368326484
 20
-100.9133457516
 30
0.0
 11
147.0200163411
 21
-99.7669270323
 31
0.0
  0
ARC
  5
2EE
330
1F
100
AcDbEntity
  8
0
  6
Continuous
 62
     7
370
    25
100
AcDbCircle
 10
148.7781196665
 20
-98.2075769442
 30
0.0
 40
2.349999999999996
100
AcDbArc
 50
71.5714285714
 51
221.5714285714
  0
LINE
  5
2EF
330
1F
100
AcDbEntity
  8
0
  6
Continuous
 62
     7
370
    25
100
AcDbLine
 10
149.5210067646
 20
-95.9780884918
 30
0.0
 11
150.9748048773
 21
-96.4625080724
 31
0.0
  0
ARC
  5
2F0
330
1F
100
AcDbEntity
  8
0
  6
Continuous
 62
     7
370
    25
100
AcDbCircle
 10
151.2909270467
 20
-95.513789582
 30
0.0
 40
0.9999999999999939
100
AcDbArc
 50
251.5714285714
 51
327.7347458447
  0
ARC
  5
2F1
330
1F
100
AcDbEntity
  8
0
  6
Continuous
 62
     7
370
    25
100
AcDbCircle
 10
0.0
 20
0.0
 30
0.0
 40
179.9184971068485
100
AcDbArc
 50
327.7347458447
 51
327.9795398696
  0
ARC
  5
2F2
330
1F
100
AcDbEntity
  8
0
  6
Continuous
 62
     7
370
    25
100
AcDbCircle
 10
151.6976239904
 20
-94.866535104
 30
0.0
 40
1.000000000000005
100
AcDbArc
 50
327.9795398696
 51
44.1428571429
  0
LINE
  5
2F3
330
1F
100
AcDbEntity
  8
0
  6
Continuous
 62
     7
370
    25
100
AcDbLine
 10
152.4152295457
 20
-94.170085345
 30
0.0
 11
151.3480032235
 21
-93.0704402842
 31
0.0
  0
ARC
  5
2F4
330
1F
100
AcDbEntity
  8
0
  6
Continuous
 62
     7
370
    25
100
AcDbCircle
 10
153.0343762786
 20
-91.4337833503
 30
0.0
 40
2.350000000000059
100
AcDbArc
 50
74.1428571429
 51
224.1428571429
  0
LINE
  5
2F5
330
1F
100
AcDbEntity
  8
0
  6
Continuous
 62
     7
370
    25
100
AcDbLine
 10
153.6764897177
 20
-89.1732103408
 30
0.0
 11
155.1505573547
 21
-89.5919177375
 31
0.0
  0
ARC
  5
2F6
330
1F
100
AcDbEntity
  8
0
  6
Continuous
 62
     7
370
    25
100
AcDbCircle
 10
155.423797116
 20
-88.629971776
 30
0.0
 40
1.000000000000016
100
AcDbArc
 50
254.1428571429
 51
330.3061744161
  0
ARC
  5
2F7
330
1F
100
AcDbEntity
  8
0
  6
Continuous
 62
     7
370
    25
100
AcDbCircle
 10
0.0
 20
0.0
 30
0.0
 40
179.9184971068485
100
AcDbArc
 50
330.3061744161
 51
330.550968441
  0
ARC
  5
2F8
330
1F
100
AcDbEntity
  8
0
  6
Continuous
 62
     7
370
    25
100
AcDbCircle
 10
155.8010455806
 20
-87.9651226508
 30
0.0
 40
1.0
100
AcDbArc
 50
330.550968441
 51
46.7142857143
  0
LINE
  5
2F9
330
1F
100
AcDbEntity
  8
0
  6
Continuous
 62
     7
370
    25
100
AcDbLine
 10
156.4866824546
 20
-87.2371789188
 30
0.0
 11
155.3711953691
 21
-86.1865220553
 31
0.0
  0
ARC
  5
2FA
330
1F
100
AcDbEntity
  8
0
  6
Continuous
 62
     7
370
    25
100
AcDbCircle
 10
156.9824420231
 20
-84.4758542851
 30
0.0
 40
2.350000000000007
100
AcDbArc
 50
76.7142857143
 51
226.7142857143
  0
LINE
  5
2FB
330
1F
100
AcDbEntity
  8
0
  6
Continuous
 62
     7
370
    25
100
AcDbLine
 10
157.5224886721
 20
-82.1887492117
 30
0.0
 11
159.0138572574
 21
-82.5409012034
 31
0.0
  0
ARC
  5
2FC
330
1F
100
AcDbEntity
  8
0
  6
Continuous
 62
     7
370
    25
100
AcDbCircle
 10
159.2436643421
 20
-81.5676650019
 30
0.0
 40
1.00000000000001
100
AcDbArc
 50
256.7142857143
 51
332.8776029876
  0
ARC
  5
2FD
330
1F
100
AcDbEntity
  8
0
  6
Continuous
 62
     7
370
    25
100
AcDbCircle
 10
0.0
 20
0.0
 30
0.0
 40
179.9184971068484
100
AcDbArc
 50
332.8776029876
 51
333.1223970124
  0
ARC
  5
2FE
330
1F
100
AcDbEntity
  8
0
  6
Continuous
 62
     7
370
    25
100
AcDbCircle
 10
159.5907045994
 20
-80.8865601472
 30
0.0
 40
0.9999999999999866
100
AcDbArc
 50
333.1223970124
 51
49.2857142857
  0
LINE
  5
2FF
330
1F
100
AcDbEntity
  8
0
  6
Continuous
 62
     7
370
    25
100
AcDbLine
 10
160.2429920106
 20
-80.1285884241
 30
0.0
 11
159.0814906045
 21
-79.129035641
 31
0.0
  0
ARC
  5
300
330
1F
100
AcDbEntity
  8
0
  6
Continuous
 62
     7
370
    25
100
AcDbCircle
 10
160.614366021
 20
-77.3478020916
 30
0.0
 40
2.350000000000017
100
AcDbArc
 50
79.2857142857
 51
229.2857142857
  0
LINE
  5
301
330
1F
100
AcDbEntity
  8
0
  6
Continuous
 62
     7
370
    25
100
AcDbLine
 10
161.0512582979
 20
-75.0387708795
 30
0.0
 11
162.5569244136
 21
-75.323658279
 31
0.0
  0
ARC
  5
302
330
1F
100
AcDbEntity
  8
0
  6
Continuous
 62
     7
370
    25
100
AcDbCircle
 10
162.7428360208
 20
-74.3410918058
 30
0.0
 40
1.000000000000004
100
AcDbArc
 50
259.2857142857
 51
335.449031559
  0
ARC
  5
303
330
1F
100
AcDbEntity
  8
0
  6
Continuous
 62
     7
370
    25
100
AcDbCircle
 10
0.0
 20
0.0
 30
0.0
 40
179.9184971068485
100
AcDbArc
 50
335.449031559
 51
335.6938255839
  0
ARC
  5
304
330
1F
100
AcDbEntity
  8
0
  6
Continuous
 62
     7
370
    25
100
AcDbCircle
 10
163.0589691778
 20
-73.6451028761
 30
0.0
 40
0.9999999999999979
100
AcDbArc
 50
335.6938255839
 51
51.8571428571
  0
LINE
  5
305
330
1F
100
AcDbEntity
  8
0
  6
Continuous
 62
     7
370
    25
100
AcDbLine
 10
163.6765935063
 20
-72.858629616
 30
0.0
 11
162.4714168888
 21
-71.9121938796
 31
0.0
  0
ARC
  5
306
330
1F
100
AcDbEntity
  8
0
  6
Continuous
 62
     7
370
    25
100
AcDbCircle
 10
163.9228340608
 20
-70.0639817183
 30
0.0
 40
2.350000000000039
100
AcDbArc
 50
81.8571428571
 51
231.8571428571
  0
LINE
  5
307
330
1F
100
AcDbEntity
  8
0
  6
Continuous
 62
     7
370
    25
100
AcDbLine
 10
164.2556921225
 20
-67.7376744491
 30
0.0
 11
165.7726235576
 21
-67.9547235312
 31
0.0
  0
ARC
  5
308
330
1F
100
AcDbEntity
  8
0
  6
Continuous
 62
     7
370
    25
100
AcDbCircle
 10
165.914265286
 20
-66.9648055443
 30
0.0
 40
0.9999999999999909
100
AcDbArc
 50
261.8571428571
 51
338.0204601304
  0
ARC
  5
309
330
1F
100
AcDbEntity
  8
0
  6
Continuous
 62
     7
370
    25
100
AcDbCircle
 10
0.0
 20
0.0
 30
0.0
 40
179.9184971068485
100
AcDbArc
 50
338.0204601304
 51
338.2652541553
  0
ARC
  5
30A
330
1F
100
AcDbEntity
  8
0
  6
Continuous
 62
     7
370
    25
100
AcDbCircle
 10
166.1988546927
 20
-66.2553341687
 30
0.0
 40
1.000000000000012
100
AcDbArc
 50
338.2652541553
 51
54.4285714286
  0
LINE
  5
30B
330
1F
100
AcDbEntity
  8
0
  6
Continuous
 62
     7
370
    25
100
AcDbLine
 10
166.7805721252
 20
-65.4419432241
 30
0.0
 11
165.5341473616
 21
-64.5505305299
 31
0.0
  0
ARC
  5
30C
330
1F
100
AcDbEntity
  8
0
  6
Continuous
 62
     7
370
    25
100
AcDbCircle
 10
166.901183328
 20
-62.6390618102
 30
0.0
 40
2.350000000000026
100
AcDbArc
 50
84.4285714286
 51
234.4285714286
  0
LINE
  5
30D
330
1F
100
AcDbEntity
  8
0
  6
Continuous
 62
     7
370
    25
100
AcDbLine
 10
167.1293368429
 20
-60.3001633571
 30
0.0
 11
168.6544786991
 21
-60.4489370137
 31
0.0
  0
ARC
  5
30E
330
1F
100
AcDbEntity
  8
0
  6
Continuous
 62
     7
370
    25
100
AcDbCircle
 10
168.7515653012
 20
-59.4536610762
 30
0.0
 40
1.000000000000005
100
AcDbArc
 50
264.4285714286
 51
340.5918887019
  0
ARC
  5
30F
330
1F
100
AcDbEntity
  8
0
  6
Continuous
 62
     7
370
    25
100
AcDbCircle
 10
0.0
 20
0.0
 30
0.0
 40
179.9184971068485
100
AcDbArc
 50
340.5918887019
 51
340.8366827267
  0
ARC
  5
310
330
1F
100
AcDbEntity
  8
0
  6
Continuous
 62
     7
370
    25
100
AcDbCircle
 10
169.0040378324
 20
-58.7321360356
 30
0.0
 40
1.000000000000008
100
AcDbArc
 50
340.8366827267
 51
57.0
  0
LINE
  5
311
330
1F
100
AcDbEntity
  8
0
  6
Continuous
 62
     7
370
    25
100
AcDbLine
 10
169.5486768674
 20
-57.8934654677
 30
0.0
 11
168.2635140913
 21
-57.0588710024
 31
0.0
  0
ARC
  5
312
330
1F
100
AcDbEntity
  8
0
  6
Continuous
 62
     7
370
    25
100
AcDbCircle
 10
169.5434158236
 20
-55.0879951677
 30
0.0
 40
2.350000000000003
100
AcDbArc
 50
87.0
 51
237.0
  0
LINE
  5
313
330
1F
100
AcDbEntity
  8
0
  6
Continuous
 62
     7
370
    25
100
AcDbLine
 10
169.6664053208
 20
-52.741215761
 30
0.0
 11
171.1966861656
 21
-52.8214143818
 31
0.0
  0
ARC
  5
314
330
1F
100
AcDbEntity
  8
0
  6
Continuous
 62
     7
370
    25
100
AcDbCircle
 10
171.2490221218
 20
-51.822784847
 30
0.0
 40
1.000000000000004
100
AcDbArc
 50
267.0
 51
343.1633172733
  0
ARC
  5
315
330
1F
100
AcDbEntity
  8
0
  6
Continuous
 62
     7
370
    25
100
AcDbCircle
 10
0.0
 20
0.0
 30
0.0
 40
179.9184971068485
100
AcDbArc
 50
343.1633172733
 51
343.4081112981
  0
ARC
  5
316
330
1F
100
AcDbEntity
  8
0
  6
Continuous
 62
     7
370
    25
100
AcDbCircle
 10
171.4688693314
 20
-51.0906591968
 30
0.0
 40
0.999999999999995
100
AcDbArc
 50
343.4081112981
 51
59.5714285714
  0
LINE
  5
317
330
1F
100
AcDbEntity
  8
0
  6
Continuous
 62
     7
370
    25
100
AcDbLine
 10
171.9753331384
 20
-50.2283979764
 30
0.0
 11
170.6540204966
 21
-49.4523025022
 31
0.0
  0
ARC
  5
318
330
1F
100
AcDbEntity
  8
0
  6
Continuous
 62
     7
370
    25
100
AcDbCircle
 10
171.8442104431
 20
-47.4259886342
 30
0.0
 40
2.350000000000003
100
AcDbArc
 50
89.5714285714
 51
239.5714285714
  0
LINE
  5
319
330
1F
100
AcDbEntity
  8
0
  6
Continuous
 62
     7
370
    25
100
AcDbLine
 10
171.861788238
 20
-45.0760543753
 30
0.0
 11
173.3941262894
 21
-45.0875164509
 31
0.0
  0
ARC
  5
31A
330
1F
100
AcDbEntity
  8
0
  6
Continuous
 62
     7
370
    25
100
AcDbCircle
 10
173.4016062021
 20
-44.0875444259
 30
0.0
 40
1.000000000000001
100
AcDbArc
 50
269.5714285714
 51
345.7347458447
  0
ARC
  5
31B
330
1F
100
AcDbEntity
  8
0
  6
Continuous
 62
     7
370
    25
100
AcDbCircle
 10
0.0
 20
0.0
 30
0.0
 40
179.9184971068484
100
AcDbArc
 50
345.7347458447
 51
345.9795398696
  0
ARC
  5
31C
330
1F
100
AcDbEntity
  8
0
  6
Continuous
 62
     7
370
    25
100
AcDbCircle
 10
173.5883853472
 20
-43.3462925697
 30
0.0
 40
1.000000000000017
100
AcDbArc
 50
345.9795398696
 51
62.1428571429
  0
LINE
  5
31D
330
1F
100
AcDbEntity
  8
0
  6
Continuous
 62
     7
370
    25
100
AcDbLine
 10
174.0556539754
 20
-42.4621771762
 30
0.0
 11
172.7008524157
 21
-41.7461436459
 31
0.0
  0
ARC
  5
31E
330
1F
100
AcDbEntity
  8
0
  6
Continuous
 62
     7
370
    25
100
AcDbCircle
 10
173.7989336922
 20
-39.6684724712
 30
0.0
 40
2.350000000000004
100
AcDbArc
 50
92.1428571429
 51
242.1428571429
  0
LINE
  5
31F
330
1F
100
AcDbEntity
  8
0
  6
Continuous
 62
     7
370
    25
100
AcDbLine
 10
173.7110643856
 20
-37.320115815
 30
0.0
 11
175.2423737185
 21
-37.2628182623
 31
0.0
  0
ARC
  5
320
330
1F
100
AcDbEntity
  8
0
  6
Continuous
 62
     7
370
    25
100
AcDbCircle
 10
175.2049825243
 20
-36.2635175575
 30
0.0
 40
0.9999999999999989
100
AcDbArc
 50
272.1428571429
 51
348.3061744161
  0
ARC
  5
321
330
1F
100
AcDbEntity
  8
0
  6
Continuous
 62
     7
370
    25
100
AcDbCircle
 10
0.0
 20
0.0
 30
0.0
 40
179.9184971068484
100
AcDbArc
 50
348.3061744161
 51
348.550968441
  0
ARC
  5
322
330
1F
100
AcDbEntity
  8
0
  6
Continuous
 62
     7
370
    25
100
AcDbCircle
 10
175.3583174564
 20
-35.514632278
 30
0.0
 40
1.000000000000021
100
AcDbArc
 50
348.550968441
 51
64.7142857143
  0
LINE
  5
323
330
1F
100
AcDbEntity
  8
0
  6
Continuous
 62
     7
370
    25
100
AcDbLine
 10
175.7854498891
 20
-34.6104432021
 30
0.0
 11
174.3998878016
 21
-33.9559136121
 31
0.0
  0
ARC
  5
324
330
1F
100
AcDbEntity
  8
0
  6
Continuous
 62
     7
370
    25
100
AcDbCircle
 10
175.4036490184
 20
-31.8310692838
 30
0.0
 40
2.350000000000005
100
AcDbArc
 50
94.7142857143
 51
244.7142857143
  0
LINE
  5
325
330
1F
100
AcDbEntity
  8
0
  6
Continuous
 62
     7
370
    25
100
AcDbLine
 10
175.2105095674
 20
-29.489019508
 30
0.0
 11
176.7377063288
 21
-29.3630777167
 31
0.0
  0
ARC
  5
326
330
1F
100
AcDbEntity
  8
0
  6
Continuous
 62
     7
370
    25
100
AcDbCircle
 10
176.6555193284
 20
-28.3664607908
 30
0.0
 40
1.000000000000016
100
AcDbArc
 50
274.7142857143
 51
350.8776029876
  0
ARC
  5
327
330
1F
100
AcDbEntity
  8
0
  6
Continuous
 62
     7
370
    25
100
AcDbCircle
 10
0.0
 20
0.0
 30
0.0
 40
179.9184971068484
100
AcDbArc
 50
350.8776029876
 51
351.1223970124
  0
ARC
  5
328
330
1F
100
AcDbEntity
  8
0
  6
Continuous
 62
     7
370
    25
100
AcDbCircle
 10
176.7751012514
 20
-27.6114502433
 30
0.0
 40
1.000000000000004
100
AcDbArc
 50
351.1223970124
 51
67.2857142857
  0
LINE
  5
329
330
1F
100
AcDbEntity
  8
0
  6
Continuous
 62
     7
370
    25
100
AcDbLine
 10
177.1612373007
 20
-26.6890084015
 30
0.0
 11
175.7477050229
 21
-26.0973008872
 31
0.0
  0
ARC
  5
32A
330
1F
100
AcDbEntity
  8
0
  6
Continuous
 62
     7
370
    25
100
AcDbCircle
 10
176.6551247388
 20
-23.9295625591
 30
0.0
 40
2.350000000000002
100
AcDbArc
 50
97.2857142857
 51
247.2857142857
  0
LINE
  5
32B
330
1F
100
AcDbEntity
  8
0
  6
Continuous
 62
     7
370
    25
100
AcDbLine
 10
176.3571041005
 20
-21.5985362402
 30
0.0
 11
177.8771127192
 21
-21.4042038403
 31
0.0
  0
ARC
  5
32C
330
1F
100
AcDbEntity
  8
0
  6
Continuous
 62
     7
370
    25
100
AcDbCircle
 10
177.7502954263
 20
-20.4122777472
 30
0.0
 40
0.9999999999999922
100
AcDbArc
 50
277.2857142857
 51
353.449031559
  0
ARC
  5
32D
330
1F
100
AcDbEntity
  8
0
  6
Continuous
 62
     7
370
    25
100
AcDbCircle
 10
0.0
 20
0.0
 30
0.0
 40
179.9184971068485
100
AcDbArc
 50
353.449031559
 51
353.6938255839
  0
ARC
  5
32E
330
1F
100
AcDbEntity
  8
0
  6
Continuous
 62
     7
370
    25
100
AcDbCircle
 10
177.8358835182
 20
-19.6526624223
 30
0.0
 40
1.000000000000015
100
AcDbArc
 50
353.6938255839
 51
69.8571428571
  0
LINE
  5
32F
330
1F
100
AcDbEntity
  8
0
  6
Continuous
 62
     7
370
    25
100
AcDbLine
 10
178.1802455574
 20
-18.7138254898
 30
0.0
 11
176.7415897554
 21
-18.1861316714
 31
0.0
  0
ARC
  5
330
330
1F
100
AcDbEntity
  8
0
  6
Continuous
 62
     7
370
    25
100
AcDbCircle
 10
177.5508405476
 20
-15.9798648799
 30
0.0
 40
2.350000000000006
100
AcDbArc
 50
99.8571428571
 51
249.8571428571
  0
LINE
  5
331
330
1F
100
AcDbEntity
  8
0
  6
Continuous
 62
     7
370
    25
100
AcDbLine
 10
177.1485388959
 20
-13.6645563948
 30
0.0
 11
178.658298277
 21
-13.4022247459
 31
0.0
  0
ARC
  5
332
330
1F
100
AcDbEntity
  8
0
  6
Continuous
 62
     7
370
    25
100
AcDbCircle
 10
178.4871060848
 20
-12.4169870927
 30
0.0
 40
1.000000000000004
100
AcDbArc
 50
279.8571428571
 51
356.0204601304
  0
ARC
  5
333
330
1F
100
AcDbEntity
  8
0
  6
Continuous
 62
     7
370
    25
100
AcDbCircle
 10
0.0
 20
0.0
 30
0.0
 40
179.9184971068484
100
AcDbArc
 50
356.0204601304
 51
356.2652541553
  0
ARC
  5
334
330
1F
100
AcDbEntity
  8
0
  6
Continuous
 62
     7
370
    25
100
AcDbCircle
 10
178.5385279824
 20
-11.6542967547
 30
0.0
 40
1.000000000000003
100
AcDbArc
 50
356.2652541553
 51
72.4285714286
  0
LINE
  5
335
330
1F
100
AcDbEntity
  8
0
  6
Continuous
 62
     7
370
    25
100
AcDbLine
 10
178.8404225123
 20
-10.700955424
 30
0.0
 11
177.3795404473
 21
-10.2383380067
 31
0.0
  0
ARC
  5
336
330
1F
100
AcDbEntity
  8
0
  6
Continuous
 62
     7
370
    25
100
AcDbCircle
 10
178.0889925925
 20
-7.9979858795
 30
0.0
 40
2.350000000000004
100
AcDbArc
 50
102.4285714286
 51
252.4285714286
  0
LINE
  5
337
330
1F
100
AcDbEntity
  8
0
  6
Continuous
 62
     7
370
    25
100
AcDbLine
 10
177.5832201094
 20
-5.7030579514
 30
0.0
 11
179.0796897983
 21
-5.3732553545
 31
0.0
  0
ARC
  5
338
330
1F
100
AcDbEntity
  8
0
  6
Continuous
 62
     7
370
    25
100
AcDbCircle
 10
178.8644674651
 20
-4.3966902787
 30
0.0
 40
1.000000000000004
100
AcDbArc
 50
282.4285714286
 51
358.5918887019
  0
ARC
  5
339
330
1F
100
AcDbEntity
  8
0
  6
Continuous
 62
     7
370
    25
100
AcDbCircle
 10
0.0
 20
0.0
 30
0.0
 40
179.9184971068484
100
AcDbArc
 50
358.5918887019
 51
358.8366827267
  0
ARC
  5
33A
330
1F
100
AcDbEntity
  8
0
  6
Continuous
 62
     7
370
    25
100
AcDbCircle
 10
178.8816196117
 20
-3.6324608844
 30
0.0
 40
1.000000000000004
100
AcDbArc
 50
358.8366827267
 51
75.0
  0
LINE
  5
33B
330
1F
100
AcDbEntity
  8
0
  6
Continuous
 62
     7
370
    25
100
AcDbLine
 10
179.1404386568
 20
-2.6665350581
 30
0.0
 11
177.6602723509
 21
-2.2699256918
 31
0.0
  0
ARC
  5
33C
330
1F
100
AcDbEntity
  8
0
  6
Continuous
 62
     7
370
    25
100
AcDbCircle
 10
178.2684971068
 20
0.0
 30
0.0
 40
2.350000000000015
100
AcDbArc
 50
105.0
 51
255.0
  0
LINE
  5
33D
330
1F
100
AcDbEntity
  8
0
  6
Continuous
 62
     7
370
    25
100
AcDbLine
 10
177.6602723509
 20
2.2699256918
 30
0.0
 11
179.1404386568
 21
2.6665350581
 31
0.0
  0
ARC
  5
33E
330
1F
100
AcDbEntity
  8
0
  6
Continuous
 62
     7
370
    25
100
AcDbCircle
 10
178.8816196117
 20
3.6324608844
 30
0.0
 40
0.9999999999999913
100
AcDbArc
 50
285.0
 51
1.1633172733
  0
ARC
  5
33F
330
1F
100
AcDbEntity
  8
0
  6
Continuous
 62
     7
370
    25
100
AcDbCircle
 10
0.0
 20
0.0
 30
0.0
 40
179.9184971068485
100
AcDbArc
 50
1.1633172733
 51
1.4081112981
  0
ARC
  5
340
330
1F
100
AcDbEntity
  8
0
  6
Continuous
 62
     7
370
    25
100
AcDbCircle
 10
178.8644674651
 20
4.3966902787
 30
0.0
 40
1.000000000000001
100
AcDbArc
 50
1.4081112981
 51
77.5714285714
  0
LINE
  5
341
330
1F
100
AcDbEntity
  8
0
  6
Continuous
 62
     7
370
    25
100
AcDbLine
 10
179.0796897983
 20
5.3732553545
 30
0.0
 11
177.5832201094
 21
5.7030579514
 31
0.0
  0
ARC
  5
342
330
1F
100
AcDbEntity
  8
0
  6
Continuous
 62
     7
370
    25
100
AcDbCircle
 10
178.0889925925
 20
7.9979858795
 30
0.0
 40
2.350000000000001
100
AcDbArc
 50
107.5714285714
 51
257.5714285714
  0
LINE
  5
343
330
1F
100
AcDbEntity
  8
0
  6
Continuous
 62
     7
370
    25
100
AcDbLine
 10
177.3795404473
 20
10.2383380067
 30
0.0
 11
178.8404225123
 21
10.700955424
 31
0.0
  0
ARC
  5
344
330
1F
100
AcDbEntity
  8
0
  6
Continuous
 62
     7
370
    25
100
AcDbCircle
 10
178.5385279824
 20
11.6542967547
 30
0.0
 40
0.999999999999998
100
AcDbArc
 50
287.5714285714
 51
3.7347458447
  0
ARC
  5
345
330
1F
100
AcDbEntity
  8
0
  6
Continuous
 62
     7
370
    25
100
AcDbCircle
 10
0.0
 20
0.0
 30
0.0
 40
179.9184971068485
100
AcDbArc
 50
3.7347458447
 51
3.9795398696
  0
ARC
  5
346
330
1F
100
AcDbEntity
  8
0
  6
Continuous
 62
     7
370
    25
100
AcDbCircle
 10
178.4871060848
 20
12.4169870927
 30
0.0
 40
1.000000000000002
100
AcDbArc
 50
3.9795398696
 51
80.1428571429
  0
LINE
  5
347
330
1F
100
AcDbEntity
  8
0
  6
Continuous
 62
     7
370
    25
100
AcDbLine
 10
178.658298277
 20
13.4022247459
 30
0.0
 11
177.1485388959
 21
13.6645563948
 31
0.0
  0
ARC
  5
348
330
1F
100
AcDbEntity
  8
0
  6
Continuous
 62
     7
370
    25
100
AcDbCircle
 10
177.5508405476
 20
15.9798648799
 30
0.0
 40
2.350000000000013
100
AcDbArc
 50
110.1428571429
 51
260.1428571429
  0
LINE
  5
349
330
1F
100
AcDbEntity
  8
0
  6
Continuous
 62
     7
370
    25
100
AcDbLine
 10
176.7415897554
 20
18.1861316714
 30
0.0
 11
178.1802455574
 21
18.7138254898
 31
0.0
  0
ARC
  5
34A
330
1F
100
AcDbEntity
  8
0
  6
Continuous
 62
     7
370
    25
100
AcDbCircle
 10
177.8358835182
 20
19.6526624223
 30
0.0
 40
1.000000000000002
100
AcDbArc
 50
290.1428571429
 51
6.3061744161
  0
ARC
  5
34B
330
1F
100
AcDbEntity
  8
0
  6
Continuous
 62
     7
370
    25
100
AcDbCircle
 10
0.0
 20
0.0
 30
0.0
 40
179.9184971068485
100
AcDbArc
 50
6.3061744161
 51
6.550968441
  0
ARC
  5
34C
330
1F
100
AcDbEntity
  8
0
  6
Continuous
 62
     7
370
    25
100
AcDbCircle
 10
177.7502954263
 20
20.4122777472
 30
0.0
 40
1.000000000000005
100
AcDbArc
 50
6.550968441
 51
82.7142857143
  0
LINE
  5
34D
330
1F
100
AcDbEntity
  8
0
  6
Continuous
 62
     7
370
    25
100
AcDbLine
 10
177.8771127192
 20
21.4042038403
 30
0.0
 11
176.3571041005
 21
21.5985362402
 31
0.0
  0
ARC
  5
34E
330
1F
100
AcDbEntity
  8
0
  6
Continuous
 62
     7
370
    25
100
AcDbCircle
 10
176.6551247388
 20
23.9295625591
 30
0.0
 40
2.350000000000003
100
AcDbArc
 50
112.7142857143
 51
262.7142857143
  0
LINE
  5
34F
330
1F
100
AcDbEntity
  8
0
  6
Continuous
 62
     7
370
    25
100
AcDbLine
 10
175.7477050229
 20
26.0973008872
 30
0.0
 11
177.1612373007
 21
26.6890084015
 31
0.0
  0
ARC
  5
350
330
1F
100
AcDbEntity
  8
0
  6
Continuous
 62
     7
370
    25
100
AcDbCircle
 10
176.7751012514
 20
27.6114502433
 30
0.0
 40
0.9999999999999912
100
AcDbArc
 50
292.7142857143
 51
8.8776029876
  0
ARC
  5
351
330
1F
100
AcDbEntity
  8
0
  6
Continuous
 62
     7
370
    25
100
AcDbCircle
 10
0.0
 20
0.0
 30
0.0
 40
179.9184971068485
100
AcDbArc
 50
8.8776029876
 51
9.1223970124
  0
ARC
  5
352
330
1F
100
AcDbEntity
  8
0
  6
Continuous
 62
     7
370
    25
100
AcDbCircle
 10
176.6555193284
 20
28.3664607908
 30
0.0
 40
0.9999999999999967
100
AcDbArc
 50
9.1223970124
 51
85.2857142857
  0
LINE
  5
353
330
1F
100
AcDbEntity
  8
0
  6
Continuous
 62
     7
370
    25
100
AcDbLine
 10
176.7377063288
 20
29.3630777167
 30
0.0
 11
175.2105095674
 21
29.489019508
 31
0.0
  0
ARC
  5
354
330
1F
100
AcDbEntity
  8
0
  6
Continuous
 62
     7
370
    25
100
AcDbCircle
 10
175.4036490184
 20
31.8310692838
 30
0.0
 40
2.350000000000017
100
AcDbArc
 50
115.2857142857
 51
265.2857142857
  0
LINE
  5
355
330
1F
100
AcDbEntity
  8
0
  6
Continuous
 62
     7
370
    25
100
AcDbLine
 10
174.3998878016
 20
33.9559136121
 30
0.0
 11
175.7854498891
 21
34.6104432021
 31
0.0
  0
ARC
  5
356
330
1F
100
AcDbEntity
  8
0
  6
Continuous
 62
     7
370
    25
100
AcDbCircle
 10
175.3583174564
 20
35.514632278
 30
0.0
 40
0.9999999999999895
100
AcDbArc
 50
295.2857142857
 51
11.449031559
  0
ARC
  5
357
330
1F
100
AcDbEntity
  8
0
  6
Continuous
 62
     7
370
    25
100
AcDbCircle
 10
0.0
 20
0.0
 30
0.0
 40
179.9184971068484
100
AcDbArc
 50
11.449031559
 51
11.6938255839
  0
ARC
  5
358
330
1F
100
AcDbEntity
  8
0
  6
Continuous
 62
     7
370
    25
100
AcDbCircle
 10
175.2049825243
 20
36.2635175575
 30
0.0
 40
1.000000000000004
100
AcDbArc
 50
11.6938255839
 51
87.8571428571
  0
LINE
  5
359
330
1F
100
AcDbEntity
  8
0
  6
Continuous
 62
     7
370
    25
100
AcDbLine
 10
175.2423737185
 20
37.2628182623
 30
0.0
 11
173.7110643856
 21
37.320115815
 31
0.0
  0
ARC
  5
35A
330
1F
100
AcDbEntity
  8
0
  6
Continuous
 62
     7
370
    25
100
AcDbCircle
 10
173.7989336922
 20
39.6684724712
 30
0.0
 40
2.350000000000018
100
AcDbArc
 50
117.8571428571
 51
267.8571428571
  0
LINE
  5
35B
330
1F
100
AcDbEntity
  8
0
  6
Continuous
 62
     7
370
    25
100
AcDbLine
 10
172.7008524157
 20
41.7461436459
 30
0.0
 11
174.0556539754
 21
42.4621771762
 31
0.0
  0
ARC
  5
35C
330
1F
100
AcDbEntity
  8
0
  6
Continuous
 62
     7
370
    25
100
AcDbCircle
 10
173.5883853472
 20
43.3462925697
 30
0.0
 40
0.999999999999985
100
AcDbArc
 50
297.8571428571
 51
14.0204601304
  0
ARC
  5
35D
330
1F
100
AcDbEntity
  8
0
  6
Continuous
 62
     7
370
    25
100
AcDbCircle
 10
0.0
 20
0.0
 30
0.0
 40
179.9184971068485
100
AcDbArc
 50
14.0204601304
 51
14.2652541553
  0
ARC
  5
35E
330
1F
100
AcDbEntity
  8
0
  6
Continuous
 62
     7
370
    25
100
AcDbCircle
 10
173.4016062021
 20
44.0875444259
 30
0.0
 40
1.000000000000006
100
AcDbArc
 50
14.2652541553
 51
90.4285714286
  0
LINE
  5
35F
330
1F
100
AcDbEntity
  8
0
  6
Continuous
 62
     7
370
    25
100
AcDbLine
 10
173.3941262894
 20
45.0875164509
 30
0.0
 11
171.861788238
 21
45.0760543753
 31
0.0
  0
ARC
  5
360
330
1F
100
AcDbEntity
  8
0
  6
Continuous
 62
     7
370
    25
100
AcDbCircle
 10
171.8442104431
 20
47.4259886342
 30
0.0
 40
2.350000000000015
100
AcDbArc
 50
120.4285714286
 51
270.4285714286
  0
LINE
  5
361
330
1F
100
AcDbEntity
  8
0
  6
Continuous
 62
     7
370
    25
100
AcDbLine
 10
170.6540204966
 20
49.4523025022
 30
0.0
 11
171.9753331384
 21
50.2283979764
 31
0.0
  0
ARC
  5
362
330
1F
100
AcDbEntity
  8
0
  6
Continuous
 62
     7
370
    25
100
AcDbCircle
 10
171.4688693314
 20
51.0906591968
 30
0.0
 40
0.9999999999999788
100
AcDbArc
 50
300.4285714286
 51
16.5918887019
  0
ARC
  5
363
330
1F
100
AcDbEntity
  8
0
  6
Continuous
 62
     7
370
    25
100
AcDbCircle
 10
0.0
 20
0.0
 30
0.0
 40
179.9184971068484
100
AcDbArc
 50
16.5918887019
 51
16.8366827267
  0
ARC
  5
364
330
1F
100
AcDbEntity
  8
0
  6
Continuous
 62
     7
370
    25
100
AcDbCircle
 10
171.2490221218
 20
51.822784847
 30
0.0
 40
0.9999999999999989
100
AcDbArc
 50
16.8366827267
 51
93.0
  0
LINE
  5
365
330
1F
100
AcDbEntity
  8
0
  6
Continuous
 62
     7
370
    25
100
AcDbLine
 10
171.1966861656
 20
52.8214143818
 30
0.0
 11
169.6664053208
 21
52.741215761
 31
0.0
  0
ARC
  5
366
330
1F
100
AcDbEntity
  8
0
  6
Continuous
 62
     7
370
    25
100
AcDbCircle
 10
169.5434158236
 20
55.0879951677
 30
0.0
 40
2.349999999999996
100
AcDbArc
 50
123.0
 51
273.0
  0
LINE
  5
367
330
1F
100
AcDbEntity
  8
0
  6
Continuous
 62
     7
370
    25
100
AcDbLine
 10
168.2635140913
 20
57.0588710024
 30
0.0
 11
169.5486768674
 21
57.8934654677
 31
0.0
  0
ARC
  5
368
330
1F
100
AcDbEntity
  8
0
  6
Continuous
 62
     7
370
    25
100
AcDbCircle
 10
169.0040378324
 20
58.7321360356
 30
0.0
 40
0.9999999999999897
100
AcDbArc
 50
303.0
 51
19.1633172733
  0
ARC
  5
369
330
1F
100
AcDbEntity
  8
0
  6
Continuous
 62
     7
370
    25
100
AcDbCircle
 10
0.0
 20
0.0
 30
0.0
 40
179.9184971068485
100
AcDbArc
 50
19.1633172733
 51
19.4081112981
  0
ARC
  5
36A
330
1F
100
AcDbEntity
  8
0
  6
Continuous
 62
     7
370
    25
100
AcDbCircle
 10
168.7515653012
 20
59.4536610762
 30
0.0
 40
1.000000000000011
100
AcDbArc
 50
19.4081112981
 51
95.5714285714
  0
LINE
  5
36B
330
1F
100
AcDbEntity
  8
0
  6
Continuous
 62
     7
370
    25
100
AcDbLine
 10
168.6544786991
 20
60.4489370137
 30
0.0
 11
167.1293368429
 21
60.3001633571
 31
0.0
  0
ARC
  5
36C
330
1F
100
AcDbEntity
  8
0
  6
Continuous
 62
     7
370
    25
100
AcDbCircle
 10
166.901183328
 20
62.6390618102
 30
0.0
 40
2.350000000000014
100
AcDbArc
 50
125.5714285714
 51
275.5714285714
  0
LINE
  5
36D
330
1F
100
AcDbEntity
  8
0
  6
Continuous
 62
     7
370
    25
100
AcDbLine
 10
165.5341473616
 20
64.5505305299
 30
0.0
 11
166.7805721252
 21
65.4419432241
 31
0.0
  0
ARC
  5
36E
330
1F
100
AcDbEntity
  8
0
  6
Continuous
 62
     7
370
    25
100
AcDbCircle
 10
166.1988546927
 20
66.2553341687
 30
0.0
 40
1.000000000000017
100
AcDbArc
 50
305.5714285714
 51
21.7347458447
  0
ARC
  5
36F
330
1F
100
AcDbEntity
  8
0
  6
Continuous
 62
     7
370
    25
100
AcDbCircle
 10
0.0
 20
0.0
 30
0.0
 40
179.9184971068485
100
AcDbArc
 50
21.7347458447
 51
21.9795398696
  0
ARC
  5
370
330
1F
100
AcDbEntity
  8
0
  6
Continuous
 62
     7
370
    25
100
AcDbCircle
 10
165.914265286
 20
66.9648055443
 30
0.0
 40
1.000000000000005
100
AcDbArc
 50
21.9795398696
 51
98.1428571429
  0
LINE
  5
371
330
1F
100
AcDbEntity
  8
0
  6
Continuous
 62
     7
370
    25
100
AcDbLine
 10
165.7726235576
 20
67.9547235312
 30
0.0
 11
164.2556921225
 21
67.7376744491
 31
0.0
  0
ARC
  5
372
330
1F
100
AcDbEntity
  8
0
  6
Continuous
 62
     7
370
    25
100
AcDbCircle
 10
163.9228340608
 20
70.0639817183
 30
0.0
 40
2.350000000000017
100
AcDbArc
 50
128.1428571429
 51
278.1428571429
  0
LINE
  5
373
330
1F
100
AcDbEntity
  8
0
  6
Continuous
 62
     7
370
    25
100
AcDbLine
 10
162.4714168888
 20
71.9121938796
 30
0.0
 11
163.6765935063
 21
72.858629616
 31
0.0
  0
ARC
  5
374
330
1F
100
AcDbEntity
  8
0
  6
Continuous
 62
     7
370
    25
100
AcDbCircle
 10
163.0589691778
 20
73.6451028761
 30
0.0
 40
1.000000000000004
100
AcDbArc
 50
308.1428571429
 51
24.3061744161
  0
ARC
  5
375
330
1F
100
AcDbEntity
  8
0
  6
Continuous
 62
     7
370
    25
100
AcDbCircle
 10
0.0
 20
0.0
 30
0.0
 40
179.9184971068485
100
AcDbArc
 50
24.3061744161
 51
24.550968441
  0
ARC
  5
376
330
1F
100
AcDbEntity
  8
0
  6
Continuous
 62
     7
370
    25
100
AcDbCircle
 10
162.7428360208
 20
74.3410918058
 30
0.0
 40
0.9999999999999988
100
AcDbArc
 50
24.550968441
 51
100.7142857143
  0
LINE
  5
377
330
1F
100
AcDbEntity
  8
0
  6
Continuous
 62
     7
370
    25
100
AcDbLine
 10
162.5569244136
 20
75.323658279
 30
0.0
 11
161.0512582979
 21
75.0387708795
 31
0.0
  0
ARC
  5
378
330
1F
100
AcDbEntity
  8
0
  6
Continuous
 62
     7
370
    25
100
AcDbCircle
 10
160.614366021
 20
77.3478020916
 30
0.0
 40
2.35000000000002
100
AcDbArc
 50
130.7142857143
 51
280.7142857143
  0
LINE
  5
379
330
1F
100
AcDbEntity
  8
0
  6
Continuous
 62
     7
370
    25
100
AcDbLine
 10
159.0814906045
 20
79.129035641
 30
0.0
 11
160.2429920106
 21
80.1285884241
 31
0.0
  0
ARC
  5
37A
330
1F
100
AcDbEntity
  8
0
  6
Continuous
 62
     7
370
    25
100
AcDbCircle
 10
159.5907045994
 20
80.8865601472
 30
0.0
 40
1.000000000000006
100
AcDbArc
 50
310.7142857143
 51
26.8776029876
  0
ARC
  5
37B
330
1F
100
AcDbEntity
  8
0
  6
Continuous
 62
     7
370
    25
100
AcDbCircle
 10
0.0
 20
0.0
 30
0.0
 40
179.9184971068485
100
AcDbArc
 50
26.8776029876
 51
27.1223970124
  0
ARC
  5
37C
330
1F
100
AcDbEntity
  8
0
  6
Continuous
 62
     7
370
    25
100
AcDbCircle
 10
159.2436643421
 20
81.5676650019
 30
0.0
 40
1.000000000000003
100
AcDbArc
 50
27.1223970124
 51
103.2857142857
  0
LINE
  5
37D
330
1F
100
AcDbEntity
  8
0
  6
Continuous
 62
     7
370
    25
100
AcDbLine
 10
159.0138572574
 20
82.5409012034
 30
0.0
 11
157.5224886721
 21
82.1887492117
 31
0.0
  0
ARC
  5
37E
330
1F
100
AcDbEntity
  8
0
  6
Continuous
 62
     7
370
    25
100
AcDbCircle
 10
156.9824420231
 20
84.4758542851
 30
0.0
 40
2.35000000000002
100
AcDbArc
 50
133.2857142857
 51
283.2857142857
  0
LINE
  5
37F
330
1F
100
AcDbEntity
  8
0
  6
Continuous
 62
     7
370
    25
100
AcDbLine
 10
155.3711953691
 20
86.1865220553
 30
0.0
 11
156.4866824546
 21
87.2371789188
 31
0.0
  0
ARC
  5
380
330
1F
100
AcDbEntity
  8
0
  6
Continuous
 62
     7
370
    25
100
AcDbCircle
 10
155.8010455806
 20
87.9651226508
 30
0.0
 40
1.000000000000014
100
AcDbArc
 50
313.2857142857
 51
29.449031559
  0
ARC
  5
381
330
1F
100
AcDbEntity
  8
0
  6
Continuous
 62
     7
370
    25
100
AcDbCircle
 10
0.0
 20
0.0
 30
0.0
 40
179.9184971068484
100
AcDbArc
 50
29.449031559
 51
29.6938255839
  0
ARC
  5
382
330
1F
100
AcDbEntity
  8
0
  6
Continuous
 62
     7
370
    25
100
AcDbCircle
 10
155.423797116
 20
88.629971776
 30
0.0
 40
1.000000000000004
100
AcDbArc
 50
29.6938255839
 51
105.8571428571
  0
LINE
  5
383
330
1F
100
AcDbEntity
  8
0
  6
Continuous
 62
     7
370
    25
100
AcDbLine
 10
155.1505573547
 20
89.5919177375
 30
0.0
 11
153.6764897177
 21
89.1732103408
 31
0.0
  0
ARC
  5
384
330
1F
100
AcDbEntity
  8
0
  6
Continuous
 62
     7
370
    25
100
AcDbCircle
 10
153.0343762786
 20
91.4337833503
 30
0.0
 40
2.350000000000018
100
AcDbArc
 50
135.8571428571
 51
285.8571428571
  0
LINE
  5
385
330
1F
100
AcDbEntity
  8
0
  6
Continuous
 62
     7
370
    25
100
AcDbLine
 10
151.3480032235
 20
93.0704402842
 30
0.0
 11
152.4152295457
 21
94.170085345
 31
0.0
  0
ARC
  5
386
330
1F
100
AcDbEntity
  8
0
  6
Continuous
 62
     7
370
    25
100
AcDbCircle
 10
151.6976239904
 20
94.8665351041
 30
0.0
 40
1.000000000000006
100
AcDbArc
 50
315.8571428571
 51
32.0204601304
  0
ARC
  5
387
330
1F
100
AcDbEntity
  8
0
  6
Continuous
 62
     7
370
    25
100
AcDbCircle
 10
0.0
 20
0.0
 30
0.0
 40
179.9184971068484
100
AcDbArc
 50
32.0204601304
 51
32.2652541553
  0
ARC
  5
388
330
1F
100
AcDbEntity
  8
0
  6
Continuous
 62
     7
370
    25
100
AcDbCircle
 10
151.2909270467
 20
95.513789582
 30
0.0
 40
1.000000000000012
100
AcDbArc
 50
32.2652541553
 51
108.4285714286
  0
LINE
  5
389
330
1F
100
AcDbEntity
  8
0
  6
Continuous
 62
     7
370
    25
100
AcDbLine
 10
150.9748048773
 20
96.4625080724
 30
0.0
 11
149.5210067646
 21
95.9780884918
 31
0.0
  0
ARC
  5
38A
330
1F
100
AcDbEntity
  8
0
  6
Continuous
 62
     7
370
    25
100
AcDbCircle
 10
148.7781196665
 20
98.2075769442
 30
0.0
 40
2.349999999999993
100
AcDbArc
 50
138.4285714286
 51
288.4285714286
  0
LINE
  5
38B
330
1F
100
AcDbEntity
  8
0
  6
Continuous
 62
     7
370
    25
100
AcDbLine
 10
147.0200163411
 20
99.7669270323
 30
0.0
 11
148.0368326484
 21
100.9133457516
 31
0.0
  0
ARC
  5
38C
330
1F
100
AcDbEntity
  8
0
  6
Continuous
 62
     7
370
    25
100
AcDbCircle
 10
147.2887035738
 20
101.5768989807
 30
0.0
 40
0.9999999999999987
100
AcDbArc
 50
318.4285714286
 51
34.5918887019
  0
ARC
  5
38D
330
1F
100
AcDbEntity
  8
0
  6
Continuous
 62
     7
370
    25
100
AcDbCircle
 10
0.0
 20
0.0
 30
0.0
 40
179.9184971068484
100
AcDbArc
 50
34.5918887019
 51
34.8366827267
  0
ARC
  5
38E
330
1F
100
AcDbEntity
  8
0
  6
Continuous
 62
     7
370
    25
100
AcDbCircle
 10
146.8533771845
 20
102.2052553271
 30
0.0
 40
1.000000000000003
100
AcDbArc
 50
34.8366827267
 51
111.0
  0
LINE
  5
38F
330
1F
100
AcDbEntity
  8
0
  6
Continuous
 62
     7
370
    25
100
AcDbLine
 10
146.495009235
 20
103.1388357535
 30
0.0
 11
145.0644084026
 21
102.5896795455
 31
0.0
  0
ARC
  5
390
330
1F
100
AcDbEntity
  8
0
  6
Continuous
 62
     7
370
    25
100
AcDbCircle
 10
144.2222437211
 20
104.7835935477
 30
0.0
 40
2.350000000000014
100
AcDbArc
 50
141.0
 51
291.0
  0
LINE
  5
391
330
1F
100
AcDbEntity
  8
0
  6
Continuous
 62
     7
370
    25
100
AcDbLine
 10
142.3959507117
 20
106.2624964667
 30
0.0
 11
143.3603092712
 21
107.4533801098
 31
0.0
  0
ARC
  5
392
330
1F
100
AcDbEntity
  8
0
  6
Continuous
 62
     7
370
    25
100
AcDbCircle
 10
142.5831633098
 20
108.0827005008
 30
0.0
 40
0.9999999999999613
100
AcDbArc
 50
321.0
 51
37.1633172733
  0
ARC
  5
393
330
1F
100
AcDbEntity
  8
0
  6
Continuous
 62
     7
370
    25
100
AcDbCircle
 10
0.0
 20
0.0
 30
0.0
 40
179.9184971068484
100
AcDbArc
 50
37.1633172733
 51
37.4081112981
  0
ARC
  5
394
330
1F
100
AcDbEntity
  8
0
  6
Continuous
 62
     7
370
    25
100
AcDbCircle
 10
142.1200841644
 20
108.6908932896
 30
0.0
 40
1.000000000000024
100
AcDbArc
 50
37.4081112981
 51
113.5714285714
  0
LINE
  5
395
330
1F
100
AcDbEntity
  8
0
  6
Continuous
 62
     7
370
    25
100
AcDbLine
 10
141.72019214
 20
109.6074555455
 30
0.0
 11
140.3156696275
 21
108.9946686375
 31
0.0
  0
ARC
  5
396
330
1F
100
AcDbEntity
  8
0
  6
Continuous
 62
     7
370
    25
100
AcDbCircle
 10
139.3759233704
 20
111.1485899388
 30
0.0
 40
2.350000000000005
100
AcDbArc
 50
143.5714285714
 51
293.5714285714
  0
LINE
  5
397
330
1F
100
AcDbEntity
  8
0
  6
Continuous
 62
     7
370
    25
100
AcDbLine
 10
137.4851185879
 20
112.5440673749
 30
0.0
 11
138.39507731
 21
113.7770176605
 31
0.0
  0
ARC
  5
398
330
1F
100
AcDbEntity
  8
0
  6
Continuous
 62
     7
370
    25
100
AcDbCircle
 10
137.5904795302
 20
114.3708378461
 30
0.0
 40
1.000000000000004
100
AcDbArc
 50
323.5714285714
 51
39.7347458447
  0
ARC
  5
399
330
1F
100
AcDbEntity
  8
0
  6
Continuous
 62
     7
370
    25
100
AcDbCircle
 10
0.0
 20
0.0
 30
0.0
 40
179.9184971068485
100
AcDbArc
 50
39.7347458447
 51
39.9795398696
  0
ARC
  5
39A
330
1F
100
AcDbEntity
  8
0
  6
Continuous
 62
     7
370
    25
100
AcDbCircle
 10
137.1005802084
 20
114.9576422579
 30
0.0
 40
1.000000000000011
100
AcDbArc
 50
39.9795398696
 51
116.1428571429
  0
LINE
  5
39B
330
1F
100
AcDbEntity
  8
0
  6
Continuous
 62
     7
370
    25
100
AcDbLine
 10
136.6599694386
 20
115.8553405088
 30
0.0
 11
135.2843537675
 21
115.1801569722
 31
0.0
  0
ARC
  5
39C
330
1F
100
AcDbEntity
  8
0
  6
Continuous
 62
     7
370
    25
100
AcDbCircle
 10
134.2489184585
 20
117.2897478617
 30
0.0
 40
2.350000000000029
100
AcDbArc
 50
146.1428571429
 51
296.1428571429
  0
LINE
  5
39D
330
1F
100
AcDbEntity
  8
0
  6
Continuous
 62
     7
370
    25
100
AcDbLine
 10
132.2974097322
 20
118.5989895091
 30
0.0
 11
133.151136081
 21
119.8715234395
 31
0.0
  0
ARC
  5
39E
330
1F
100
AcDbEntity
  8
0
  6
Continuous
 62
     7
370
    25
100
AcDbCircle
 10
132.3207068358
 20
120.4286475448
 30
0.0
 40
0.9999999999999826
100
AcDbArc
 50
326.1428571429
 51
42.3061744161
  0
ARC
  5
39F
330
1F
100
AcDbEntity
  8
0
  6
Continuous
 62
     7
370
    25
100
AcDbCircle
 10
0.0
 20
0.0
 30
0.0
 40
179.9184971068484
100
AcDbArc
 50
42.3061744161
 51
42.550968441
  0
ARC
  5
3A0
330
1F
100
AcDbEntity
  8
0
  6
Continuous
 62
     7
370
    25
100
AcDbCircle
 10
131.8049739296
 20
120.9928818336
 30
0.0
 40
1.000000000000014
100
AcDbArc
 50
42.550968441
 51
118.7142857143
  0
LINE
  5
3A1
330
1F
100
AcDbEntity
  8
0
  6
Continuous
 62
     7
370
    25
100
AcDbLine
 10
131.3245317458
 20
121.8699082346
 30
0.0
 11
129.9805932229
 21
121.1336877992
 31
0.0
  0
ARC
  5
3A2
330
1F
100
AcDbEntity
  8
0
  6
Continuous
 62
     7
370
    25
100
AcDbCircle
 10
128.8515540911
 20
123.1946998416
 30
0.0
 40
2.350000000000019
100
AcDbArc
 50
148.7142857143
 51
298.7142857143
  0
LINE
  5
3A3
330
1F
100
AcDbEntity
  8
0
  6
Continuous
 62
     7
370
    25
100
AcDbLine
 10
126.8432714998
 20
124.4150690618
 30
0.0
 11
127.639046184
 21
125.724623923
 31
0.0
  0
ARC
  5
3A4
330
1F
100
AcDbEntity
  8
0
  6
Continuous
 62
     7
370
    25
100
AcDbCircle
 10
126.7844578473
 20
126.2439299742
 30
0.0
 40
0.9999999999999888
100
AcDbArc
 50
328.7142857143
 51
44.8776029876
  0
ARC
  5
3A5
330
1F
100
AcDbEntity
  8
0
  6
Continuous
 62
     7
370
    25
100
AcDbCircle
 10
0.0
 20
0.0
 30
0.0
 40
179.9184971068484
100
AcDbArc
 50
44.8776029876
 51
45.1223970124
  0
ARC
  5
3A6
330
1F
100
AcDbEntity
  8
0
  6
Continuous
 62
     7
370
    25
100
AcDbCircle
 10
126.2439299742
 20
126.7844578473
 30
0.0
 40
1.000000000000028
100
AcDbArc
 50
45.1223970124
 51
121.2857142857
  0
LINE
  5
3A7
330
1F
100
AcDbEntity
  8
0
  6
Continuous
 62
     7
370
    25
100
AcDbLine
 10
125.724623923
 20
127.639046184
 30
0.0
 11
124.4150690618
 21
126.8432714998
 31
0.0
  0
ARC
  5
3A8
330
1F
100
AcDbEntity
  8
0
  6
Continuous
 62
     7
370
    25
100
AcDbCircle
 10
123.1946998416
 20
128.8515540911
 30
0.0
 40
2.350000000000027
100
AcDbArc
 50
151.2857142857
 51
301.2857142857
  0
LINE
  5
3A9
330
1F
100
AcDbEntity
  8
0
  6
Continuous
 62
     7
370
    25
100
AcDbLine
 10
121.1336877992
 20
129.9805932229
 30
0.0
 11
121.8699082346
 21
131.3245317458
 31
0.0
  0
ARC
  5
3AA
330
1F
100
AcDbEntity
  8
0
  6
Continuous
 62
     7
370
    25
100
AcDbCircle
 10
120.9928818336
 20
131.8049739296
 30
0.0
 40
1.000000000000012
100
AcDbArc
 50
331.2857142857
 51
47.449031559
  0
ARC
  5
3AB
330
1F
100
AcDbEntity
  8
0
  6
Continuous
 62
     7
370
    25
100
AcDbCircle
 10
0.0
 20
0.0
 30
0.0
 40
179.9184971068485
100
AcDbArc
 50
47.449031559
 51
47.6938255839
  0
ARC
  5
3AC
330
1F
100
AcDbEntity
  8
0
  6
Continuous
 62
     7
370
    25
100
AcDbCircle
 10
120.4286475448
 20
132.3207068358
 30
0.0
 40
1.00000000000003
100
AcDbArc
 50
47.6938255839
 51
123.8571428571
  0
LINE
  5
3AD
330
1F
100
AcDbEntity
  8
0
  6
Continuous
 62
     7
370
    25
100
AcDbLine
 10
119.8715234395
 20
133.151136081
 30
0.0
 11
118.5989895091
 21
132.2974097322
 31
0.0
  0
ARC
  5
3AE
330
1F
100
AcDbEntity
  8
0
  6
Continuous
 62
     7
370
    25
100
AcDbCircle
 10
117.2897478617
 20
134.2489184585
 30
0.0
 40
2.350000000000003
100
AcDbArc
 50
153.8571428571
 51
303.8571428571
  0
LINE
  5
3AF
330
1F
100
AcDbEntity
  8
0
  6
Continuous
 62
     7
370
    25
100
AcDbLine
 10
115.1801569722
 20
135.2843537675
 30
0.0
 11
115.8553405088
 21
136.6599694386
 31
0.0
  0
ARC
  5
3B0
330
1F
100
AcDbEntity
  8
0
  6
Continuous
 62
     7
370
    25
100
AcDbCircle
 10
114.9576422579
 20
137.1005802084
 30
0.0
 40
1.000000000000008
100
AcDbArc
 50
333.8571428571
 51
50.0204601304
  0
ARC
  5
3B1
330
1F
100
AcDbEntity
  8
0
  6
Continuous
 62
     7
370
    25
100
AcDbCircle
 10
0.0
 20
0.0
 30
0.0
 40
179.9184971068485
100
AcDbArc
 50
50.0204601304
 51
50.2652541553
  0
ARC
  5
3B2
330
1F
100
AcDbEntity
  8
0
  6
Continuous
 62
     7
370
    25
100
AcDbCircle
 10
114.3708378461
 20
137.5904795302
 30
0.0
 40
0.9999999999999981
100
AcDbArc
 50
50.2652541553
 51
126.4285714286
  0
LINE
  5
3B3
330
1F
100
AcDbEntity
  8
0
  6
Continuous
 62
     7
370
    25
100
AcDbLine
 10
113.7770176605
 20
138.39507731
 30
0.0
 11
112.5440673749
 21
137.4851185879
 31
0.0
  0
ARC
  5
3B4
330
1F
100
AcDbEntity
  8
0
  6
Continuous
 62
     7
370
    25
100
AcDbCircle
 10
111.1485899388
 20
139.3759233704
 30
0.0
 40
2.350000000000003
100
AcDbArc
 50
156.4285714286
 51
306.4285714286
  0
LINE
  5
3B5
330
1F
100
AcDbEntity
  8
0
  6
Continuous
 62
     7
370
    25
100
AcDbLine
 10
108.9946686375
 20
140.3156696275
 30
0.0
 11
109.6074555455
 21
141.72019214
 31
0.0
  0
ARC
  5
3B6
330
1F
100
AcDbEntity
  8
0
  6
Continuous
 62
     7
370
    25
100
AcDbCircle
 10
108.6908932896
 20
142.1200841644
 30
0.0
 40
0.9999999999999928
100
AcDbArc
 50
336.4285714286
 51
52.5918887019
  0
ARC
  5
3B7
330
1F
100
AcDbEntity
  8
0
  6
Continuous
 62
     7
370
    25
100
AcDbCircle
 10
0.0
 20
0.0
 30
0.0
 40
179.9184971068484
100
AcDbArc
 50
52.5918887019
 51
52.8366827267
  0
ARC
  5
3B8
330
1F
100
AcDbEntity
  8
0
  6
Continuous
 62
     7
370
    25
100
AcDbCircle
 10
108.0827005008
 20
142.5831633098
 30
0.0
 40
1.000000000000023
100
AcDbArc
 50
52.8366827267
 51
129.0
  0
LINE
  5
3B9
330
1F
100
AcDbEntity
  8
0
  6
Continuous
 62
     7
370
    25
100
AcDbLine
 10
107.4533801098
 20
143.3603092712
 30
0.0
 11
106.2624964667
 21
142.3959507117
 31
0.0
  0
ARC
  5
3BA
330
1F
100
AcDbEntity
  8
0
  6
Continuous
 62
     7
370
    25
100
AcDbCircle
 10
104.7835935477
 20
144.2222437211
 30
0.0
 40
2.350000000000004
100
AcDbArc
 50
159.0
 51
309.0
  0
LINE
  5
3BB
330
1F
100
AcDbEntity
  8
0
  6
Continuous
 62
     7
370
    25
100
AcDbLine
 10
102.5896795455
 20
145.0644084026
 30
0.0
 11
103.1388357535
 21
146.495009235
 31
0.0
  0
ARC
  5
3BC
330
1F
100
AcDbEntity
  8
0
  6
Continuous
 62
     7
370
    25
100
AcDbCircle
 10
102.205255327
 20
146.8533771845
 30
0.0
 40
1.000000000000006
100
AcDbArc
 50
339.0
 51
55.1633172733
  0
ARC
  5
3BD
330
1F
100
AcDbEntity
  8
0
  6
Continuous
 62
     7
370
    25
100
AcDbCircle
 10
0.0
 20
0.0
 30
0.0
 40
179.9184971068485
100
AcDbArc
 50
55.1633172733
 51
55.4081112981
  0
ARC
  5
3BE
330
1F
100
AcDbEntity
  8
0
  6
Continuous
 62
     7
370
    25
100
AcDbCircle
 10
101.5768989806
 20
147.2887035738
 30
0.0
 40
0.9999999999999963
100
AcDbArc
 50
55.4081112981
 51
131.5714285714
  0
LINE
  5
3BF
330
1F
100
AcDbEntity
  8
0
  6
Continuous
 62
     7
370
    25
100
AcDbLine
 10
100.9133457516
 20
148.0368326484
 30
0.0
 11
99.7669270323
 21
147.0200163411
 31
0.0
  0
ARC
  5
3C0
330
1F
100
AcDbEntity
  8
0
  6
Continuous
 62
     7
370
    25
100
AcDbCircle
 10
98.2075769442
 20
148.7781196665
 30
0.0
 40
2.350000000000014
100
AcDbArc
 50
161.5714285714
 51
311.5714285714
  0
LINE
  5
3C1
330
1F
100
AcDbEntity
  8
0
  6
Continuous
 62
     7
370
    25
100
AcDbLine
 10
95.9780884918
 20
149.5210067646
 30
0.0
 11
96.4625080724
 21
150.9748048773
 31
0.0
  0
ARC
  5
3C2
330
1F
100
AcDbEntity
  8
0
  6
Continuous
 62
     7
370
    25
100
AcDbCircle
 10
95.513789582
 20
151.2909270467
 30
0.0
 40
1.000000000000007
100
AcDbArc
 50
341.5714285714
 51
57.7347458447
  0
ARC
  5
3C3
330
1F
100
AcDbEntity
  8
0
  6
Continuous
 62
     7
370
    25
100
AcDbCircle
 10
0.0
 20
0.0
 30
0.0
 40
179.9184971068485
100
AcDbArc
 50
57.7347458447
 51
57.9795398696
  0
ARC
  5
3C4
330
1F
100
AcDbEntity
  8
0
  6
Continuous
 62
     7
370
    25
100
AcDbCircle
 10
94.866535104
 20
151.6976239904
 30
0.0
 40
0.999999999999985
100
AcDbArc
 50
57.9795398696
 51
134.1428571429
  0
LINE
  5
3C5
330
1F
100
AcDbEntity
  8
0
  6
Continuous
 62
     7
370
    25
100
AcDbLine
 10
94.170085345
 20
152.4152295457
 30
0.0
 11
93.0704402842
 21
151.3480032235
 31
0.0
  0
ARC
  5
3C6
330
1F
100
AcDbEntity
  8
0
  6
Continuous
 62
     7
370
    25
100
AcDbCircle
 10
91.4337833503
 20
153.0343762786
 30
0.0
 40
2.350000000000019
100
AcDbArc
 50
164.1428571429
 51
314.1428571429
  0
LINE
  5
3C7
330
1F
100
AcDbEntity
  8
0
  6
Continuous
 62
     7
370
    25
100
AcDbLine
 10
89.1732103408
 20
153.6764897177
 30
0.0
 11
89.5919177375
 21
155.1505573547
 31
0.0
  0
ARC
  5
3C8
330
1F
100
AcDbEntity
  8
0
  6
Continuous
 62
     7
370
    25
100
AcDbCircle
 10
88.629971776
 20
155.423797116
 30
0.0
 40
1.00000000000001
100
AcDbArc
 50
344.1428571429
 51
60.3061744161
  0
ENDSEC
  0
SECTION
  2
OBJECTS
  0
DICTIONARY
  5
C
330
0
100
AcDbDictionary
281
     1
  3
ACAD_GROUP
350
D
  3
ACAD_LAYOUT
350
1A
  3
ACAD_MLINESTYLE
350
17
  3
ACAD_PLOTSETTINGS
350
19
  3
ACAD_PLOTSTYLENAME
350
E
  3
ACAD_SCALELIST
350
47
  0
DICTIONARY
  5
D
102
{ACAD_REACTORS
330
C
102
}
330
C
100
AcDbDictionary
281
     1
  0
DICTIONARY
  5
1A
102
{ACAD_REACTORS
330
C
102
}
330
C
100
AcDbDictionary
281
     1
  3
Layout1
350
1E
  3
Layout2
350
26
  3
Model
350
22
  0
DICTIONARY
  5
17
102
{ACAD_REACTORS
330
C
102
}
330
C
100
AcDbDictionary
281
     1
  3
Standard
350
18
  0
DICTIONARY
  5
19
102
{ACAD_REACTORS
330
C
102
}
330
C
100
AcDbDictionary
281
     1
  0
ACDBDICTIONARYWDFLT
  5
E
102
{ACAD_REACTORS
330
C
102
}
330
C
100
AcDbDictionary
281
     1
  3
Normal
350
F
100
AcDbDictionaryWithDefault
340
F
  0
DICTIONARY
  5
47
102
{ACAD_REACTORS
330
C
102
}
330
C
100
AcDbDictionary
281
     1
  3
A0
350
48
  3
A1
350
49
  3
A2
350
4A
  3
A3
350
4B
  3
A4
350
4C
  3
A5
350
4D
  3
A6
350
4E
  3
A7
350
4F
  3
A8
350
50
  3
A9
350
51
  3
B0
350
52
  3
B1
350
53
  3
B2
350
54
  3
B3
350
55
  3
B4
350
56
  3
B5
350
57
  3
B6
350
58
  3
B7
350
59
  3
B8
350
5A
  3
B9
350
5B
  3
C0
350
5C
  3
C1
350
5D
  3
C2
350
5E
  3
C3
350
5F
  3
C4
350
60
  3
C5
350
61
  3
C6
350
62
  3
C7
350
63
  3
C8
350
64
  3
C9
350
65
  3
D0
350
66
  3
D1
350
67
  3
D2
350
68
  0
LAYOUT
  5
1E
102
{ACAD_REACTORS
330
1A
102
}
330
1A
100
AcDbPlotSettings
  1

  2
none_device
  4

  6

 40
0.0
 41
0.0
 42
0.0
 43
0.0
 44
0.0
 45
0.0
 46
0.0
 47
0.0
 48
0.0
 49
0.0
140
0.0
141
0.0
142
1.0
143
1.0
 70
   688
 72
     1
 73
     0
 74
     5
  7

 75
    16
147
1.0
148
0.0
149
0.0
100
AcDbLayout
  1
Layout1
 70
     1
 71
     1
 10
0.0
 20
0.0
 11
420.0
 21
297.0
 12
0.0
 22
0.0
 32
0.0
 14
1.0000000000E+20
 24
1.0000000000E+20
 34
1.0000000000E+20
 15
-1.0000000000E+20
 25
-1.0000000000E+20
 35
-1.0000000000E+20
146
0.0
 13
0.0
 23
0.0
 33
0.0
 16
1.0
 26
0.0
 36
0.0
 17
0.0
 27
1.0
 37
0.0
 76
     0
330
1B
  0
LAYOUT
  5
26
102
{ACAD_REACTORS
330
1A
102
}
330
1A
100
AcDbPlotSettings
  1

  2
none_device
  4

  6

 40
0.0
 41
0.0
 42
0.0
 43
0.0
 44
0.0
 45
0.0
 46
0.0
 47
0.0
 48
0.0
 49
0.0
140
0.0
141
0.0
142
1.0
143
1.0
 70
   688
 72
     1
 73
     0
 74
     5
  7

 75
    16
147
1.0
148
0.0
149
0.0
100
AcDbLayout
  1
Layout2
 70
     1
 71
     2
 10
0.0
 20
0.0
 11
0.0
 21
0.0
 12
0.0
 22
0.0
 32
0.0
 14
0.0
 24
0.0
 34
0.0
 15
0.0
 25
0.0
 35
0.0
146
0.0
 13
0.0
 23
0.0
 33
0.0
 16
1.0
 26
0.0
 36
0.0
 17
0.0
 27
1.0
 37
0.0
 76
     0
330
23
  0
LAYOUT
  5
22
102
{ACAD_REACTORS
330
1A
102
}
330
1A
100
AcDbPlotSettings
  1

  2
none_device
  4
ANSI_A_(11.00_x_8.50_Inches)
  6

 40
6.35
 41
19.05
 42
6.35000508
 43
19.05000254
 44
279.4
 45
215.9
 46
133.34999746
 47
88.89999873
 48
0.0
 49
0.0
140
0.0
141
0.0
142
0.0233903831
143
1.0
 70
  1696
 72
     0
 73
     0
 74
     0
  7

 75
     0
147
0.0179189148
148
-1300.4909072572
149
0.0
100
AcDbLayout
  1
Model
 70
     1
 71
     0
 10
0.0
 20
0.0
 11
420.0
 21
297.0
 12
0.0
 22
0.0
 32
0.0
 14
-179.8816196117
 24
-179.8816196117
 34
0.0
 15
179.8816196117
 25
179.8816196117
 35
0.0
146
0.0
 13
0.0
 23
0.0
 33
0.0
 16
1.0
 26
0.0
 36
0.0
 17
0.0
 27
1.0
 37
0.0
 76
     0
330
1F
331
29
  0
MLINESTYLE
  5
18
102
{ACAD_REACTORS
330
17
102
}
330
17
100
AcDbMlineStyle
  2
Standard
 70
     0
  3

 62
   256
 51
90.0
 52
90.0
 71
     2
 49
0.5
 62
   256
  6
BYLAYER
 49
-0.5
 62
   256
  6
BYLAYER
  0
ACDBPLACEHOLDER
  5
F
102
{ACAD_REACTORS
330
E
102
}
330
E
  0
SCALE
  5
48
102
{ACAD_REACTORS
330
47
102
}
330
47
100
AcDbScale
 70
     0
300
1:1
140
1.0
141
1.0
290
     1
  0
SCALE
  5
49
102
{ACAD_REACTORS
330
47
102
}
330
47
100
AcDbScale
 70
     0
300
1:2
140
1.0
141
2.0
290
     0
  0
SCALE
  5
4A
102
{ACAD_REACTORS
330
47
102
}
330
47
100
AcDbScale
 70
     0
300
1:4
140
1.0
141
4.0
290
     0
  0
SCALE
  5
4B
102
{ACAD_REACTORS
330
47
102
}
330
47
100
AcDbScale
 70
     0
300
1:5
140
1.0
141
5.0
290
     0
  0
SCALE
  5
4C
102
{ACAD_REACTORS
330
47
102
}
330
47
100
AcDbScale
 70
     0
300
1:8
140
1.0
141
8.0
290
     0
  0
SCALE
  5
4D
102
{ACAD_REACTORS
330
47
102
}
330
47
100
AcDbScale
 70
     0
300
1:10
140
1.0
141
10.0
290
     0
  0
SCALE
  5
4E
102
{ACAD_REACTORS
330
47
102
}
330
47
100
AcDbScale
 70
     0
300
1:16
140
1.0
141
16.0
290
     0
  0
SCALE
  5
4F
102
{ACAD_REACTORS
330
47
102
}
330
47
100
AcDbScale
 70
     0
300
1:20
140
1.0
141
20.0
290
     0
  0
SCALE
  5
50
102
{ACAD_REACTORS
330
47
102
}
330
47
100
AcDbScale
 70
     0
300
1:30
140
1.0
141
30.0
290
     0
  0
SCALE
  5
51
102
{ACAD_REACTORS
330
47
102
}
330
47
100
AcDbScale
 70
     0
300
1:40
140
1.0
141
40.0
290
     0
  0
SCALE
  5
52
102
{ACAD_REACTORS
330
47
102
}
330
47
100
AcDbScale
 70
     0
300
1:50
140
1.0
141
50.0
290
     0
  0
SCALE
  5
53
102
{ACAD_REACTORS
330
47
102
}
330
47
100
AcDbScale
 70
     0
300
1:100
140
1.0
141
100.0
290
     0
  0
SCALE
  5
54
102
{ACAD_REACTORS
330
47
102
}
330
47
100
AcDbScale
 70
     0
300
2:1
140
2.0
141
1.0
290
     0
  0
SCALE
  5
55
102
{ACAD_REACTORS
330
47
102
}
330
47
100
AcDbScale
 70
     0
300
4:1
140
4.0
141
1.0
290
     0
  0
SCALE
  5
56
102
{ACAD_REACTORS
330
47
102
}
330
47
100
AcDbScale
 70
     0
300
8:1
140
8.0
141
1.0
290
     0
  0
SCALE
  5
57
102
{ACAD_REACTORS
330
47
102
}
330
47
100
AcDbScale
 70
     0
300
10:1
140
10.0
141
1.0
290
     0
  0
SCALE
  5
58
102
{ACAD_REACTORS
330
47
102
}
330
47
100
AcDbScale
 70
     0
300
100:1
140
100.0
141
1.0
290
     0
  0
SCALE
  5
59
102
{ACAD_REACTORS
330
47
102
}
330
47
100
AcDbScale
 70
     0
300
1/128" = 1'-0"
140
0.0078125
141
12.0
290
     0
  0
SCALE
  5
5A
102
{ACAD_REACTORS
330
47
102
}
330
47
100
AcDbScale
 70
     0
300
1/64" = 1'-0"
140
0.015625
141
12.0
290
     0
  0
SCALE
  5
5B
102
{ACAD_REACTORS
330
47
102
}
330
47
100
AcDbScale
 70
     0
300
1/32" = 1'-0"
140
0.03125
141
12.0
290
     0
  0
SCALE
  5
5C
102
{ACAD_REACTORS
330
47
102
}
330
47
100
AcDbScale
 70
     0
300
1/16" = 1'-0"
140
0.0625
141
12.0
290
     0
  0
SCALE
  5
5D
102
{ACAD_REACTORS
330
47
102
}
330
47
100
AcDbScale
 70
     0
300
3/32" = 1'-0"
140
0.09375
141
12.0
290
     0
  0
SCALE
  5
5E
102
{ACAD_REACTORS
330
47
102
}
330
47
100
AcDbScale
 70
     0
300
1/8" = 1'-0"
140
0.125
141
12.0
290
     0
  0
SCALE
  5
5F
102
{ACAD_REACTORS
330
47
102
}
330
47
100
AcDbScale
 70
     0
300
3/16" = 1'-0"
140
0.1875
141
12.0
290
     0
  0
SCALE
  5
60
102
{ACAD_REACTORS
330
47
102
}
330
47
100
AcDbScale
 70
     0
300
1/4" = 1'-0"
140
0.25
141
12.0
290
     0
  0
SCALE
  5
61
102
{ACAD_REACTORS
330
47
102
}
330
47
100
AcDbScale
 70
     0
300
3/8" = 1'-0"
140
0.375
141
12.0
290
     0
  0
SCALE
  5
62
102
{ACAD_REACTORS
330
47
102
}
330
47
100
AcDbScale
 70
     0
300
1/2" = 1'-0"
140
0.5
141
12.0
290
     0
  0
SCALE
  5
63
102
{ACAD_REACTORS
330
47
102
}
330
47
100
AcDbScale
 70
     0
300
3/4" = 1'-0"
140
0.75
141
12.0
290
     0
  0
SCALE
  5
64
102
{ACAD_REACTORS
330
47
102
}
330
47
100
AcDbScale
 70
     0
300
1" = 1'-0"
140
1.0
141
12.0
290
     0
  0
SCALE
  5
65
102
{ACAD_REACTORS
330
47
102
}
330
47
100
AcDbScale
 70
     0
300
1-1/2" = 1'-0"
140
1.5
141
12.0
290
     0
  0
SCALE
  5
66
102
{ACAD_REACTORS
330
47
102
}
330
47
100
AcDbScale
 70
     0
300
3" = 1'-0"
140
3.0
141
12.0
290
     0
  0
SCALE
  5
67
102
{ACAD_REACTORS
330
47
102
}
330
47
100
AcDbScale
 70
     0
300
6" = 1'-0"
140
6.0
141
12.0
290
     0
  0
SCALE
  5
68
102
{ACAD_REACTORS
330
47
102
}
330
47
100
AcDbScale
 70
     0
300
1'-0" = 1'-0"
140
12.0
141
12.0
290
     0
  0
ENDSEC
  0
EOF
