ISO-10303-21;
HEADER;
FILE_DESCRIPTION((''),'2;1');
FILE_NAME('POIG','2021-04-19T09:47:55',('ges'),(''),
'CREO PARAMETRIC BY PTC INC, 2020053','CREO PARAMETRIC BY PTC INC, 2020053','');
FILE_SCHEMA(('CONFIG_CONTROL_DESIGN'));
ENDSEC;
DATA;
#1=CARTESIAN_POINT('',(0.E0,0.E0,0.E0));
#2=DIRECTION('',(0.E0,-1.E0,0.E0));
#3=DIRECTION('',(-1.E0,0.E0,0.E0));
#4=AXIS2_PLACEMENT_3D('',#1,#2,#3);
#6=DIRECTION('',(0.E0,1.E0,0.E0));
#7=VECTOR('',#6,1.3E1);
#8=CARTESIAN_POINT('',(-7.1E0,0.E0,0.E0));
#9=LINE('',#8,#7);
#10=CARTESIAN_POINT('',(0.E0,0.E0,0.E0));
#11=DIRECTION('',(0.E0,1.E0,0.E0));
#12=DIRECTION('',(-1.E0,0.E0,0.E0));
#13=AXIS2_PLACEMENT_3D('',#10,#11,#12);
#15=DIRECTION('',(0.E0,1.E0,0.E0));
#16=VECTOR('',#15,1.3E1);
#17=CARTESIAN_POINT('',(7.1E0,0.E0,0.E0));
#18=LINE('',#17,#16);
#19=CARTESIAN_POINT('',(0.E0,0.E0,0.E0));
#20=DIRECTION('',(0.E0,-1.E0,0.E0));
#21=DIRECTION('',(-1.E0,0.E0,0.E0));
#22=AXIS2_PLACEMENT_3D('',#19,#20,#21);
#24=CARTESIAN_POINT('',(0.E0,0.E0,0.E0));
#25=DIRECTION('',(0.E0,1.E0,0.E0));
#26=DIRECTION('',(-1.E0,0.E0,0.E0));
#27=AXIS2_PLACEMENT_3D('',#24,#25,#26);
#29=CARTESIAN_POINT('',(0.E0,3.235559679230E1,0.E0));
#30=DIRECTION('',(0.E0,-1.E0,0.E0));
#31=DIRECTION('',(-1.E0,0.E0,0.E0));
#32=AXIS2_PLACEMENT_3D('',#29,#30,#31);
#34=CARTESIAN_POINT('',(2.806533593450E1,3.684948138476E1,0.E0));
#35=DIRECTION('',(0.E0,0.E0,1.E0));
#36=DIRECTION('',(-9.961946980917E-1,-8.715574274766E-2,0.E0));
#37=AXIS2_PLACEMENT_3D('',#34,#35,#36);
#39=CARTESIAN_POINT('',(0.E0,3.235559679230E1,0.E0));
#40=DIRECTION('',(0.E0,1.E0,0.E0));
#41=DIRECTION('',(-1.E0,0.E0,0.E0));
#42=AXIS2_PLACEMENT_3D('',#39,#40,#41);
#44=CARTESIAN_POINT('',(-2.806533593450E1,3.684948138476E1,0.E0));
#45=DIRECTION('',(0.E0,0.E0,-1.E0));
#46=DIRECTION('',(9.961946980917E-1,-8.715574274766E-2,0.E0));
#47=AXIS2_PLACEMENT_3D('',#44,#45,#46);
#49=CARTESIAN_POINT('',(0.E0,3.235559679230E1,0.E0));
#50=DIRECTION('',(0.E0,-1.E0,0.E0));
#51=DIRECTION('',(-1.E0,0.E0,0.E0));
#52=AXIS2_PLACEMENT_3D('',#49,#50,#51);
#54=CARTESIAN_POINT('',(0.E0,3.235559679230E1,0.E0));
#55=DIRECTION('',(0.E0,1.E0,0.E0));
#56=DIRECTION('',(-1.E0,0.E0,0.E0));
#57=AXIS2_PLACEMENT_3D('',#54,#55,#56);
#59=CARTESIAN_POINT('',(0.E0,3.735559679230E1,0.E0));
#60=DIRECTION('',(0.E0,-1.E0,0.E0));
#61=DIRECTION('',(-1.E0,0.E0,0.E0));
#62=AXIS2_PLACEMENT_3D('',#59,#60,#61);
#64=DIRECTION('',(0.E0,-1.E0,0.E0));
#65=VECTOR('',#64,5.E0);
#66=CARTESIAN_POINT('',(-2.35E1,3.735559679230E1,0.E0));
#67=LINE('',#66,#65);
#68=CARTESIAN_POINT('',(0.E0,3.735559679230E1,0.E0));
#69=DIRECTION('',(0.E0,1.E0,0.E0));
#70=DIRECTION('',(-1.E0,0.E0,0.E0));
#71=AXIS2_PLACEMENT_3D('',#68,#69,#70);
#73=DIRECTION('',(0.E0,-1.E0,0.E0));
#74=VECTOR('',#73,5.E0);
#75=CARTESIAN_POINT('',(2.35E1,3.735559679230E1,0.E0));
#76=LINE('',#75,#74);
#77=CARTESIAN_POINT('',(0.E0,3.735559679230E1,0.E0));
#78=DIRECTION('',(0.E0,-1.E0,0.E0));
#79=DIRECTION('',(-1.E0,0.E0,0.E0));
#80=AXIS2_PLACEMENT_3D('',#77,#78,#79);
#82=CARTESIAN_POINT('',(0.E0,3.735559679230E1,0.E0));
#83=DIRECTION('',(0.E0,1.E0,0.E0));
#84=DIRECTION('',(-1.E0,0.E0,0.E0));
#85=AXIS2_PLACEMENT_3D('',#82,#83,#84);
#87=CARTESIAN_POINT('',(0.E0,4.517288532477E1,0.E0));
#88=DIRECTION('',(0.E0,-1.E0,0.E0));
#89=DIRECTION('',(-1.E0,0.E0,0.E0));
#90=AXIS2_PLACEMENT_3D('',#87,#88,#89);
#92=CARTESIAN_POINT('',(-1.53E1,3.735559679230E1,0.E0));
#93=DIRECTION('',(0.E0,0.E0,1.E0));
#94=DIRECTION('',(-2.125E-1,9.771610665597E-1,0.E0));
#95=AXIS2_PLACEMENT_3D('',#92,#93,#94);
#97=CARTESIAN_POINT('',(0.E0,4.517288532477E1,0.E0));
#98=DIRECTION('',(0.E0,1.E0,0.E0));
#99=DIRECTION('',(-1.E0,0.E0,0.E0));
#100=AXIS2_PLACEMENT_3D('',#97,#98,#99);
#102=CARTESIAN_POINT('',(1.53E1,3.735559679230E1,0.E0));
#103=DIRECTION('',(0.E0,0.E0,-1.E0));
#104=DIRECTION('',(2.125E-1,9.771610665597E-1,0.E0));
#105=AXIS2_PLACEMENT_3D('',#102,#103,#104);
#107=CARTESIAN_POINT('',(0.E0,-3.3E1,0.E0));
#108=DIRECTION('',(0.E0,0.E0,1.E0));
#109=DIRECTION('',(0.E0,1.E0,0.E0));
#110=AXIS2_PLACEMENT_3D('',#107,#108,#109);
#112=CARTESIAN_POINT('',(0.E0,-3.3E1,0.E0));
#113=DIRECTION('',(0.E0,0.E0,-1.E0));
#114=DIRECTION('',(0.E0,1.E0,0.E0));
#115=AXIS2_PLACEMENT_3D('',#112,#113,#114);
#117=CARTESIAN_POINT('',(0.E0,1.3E1,0.E0));
#118=DIRECTION('',(0.E0,1.E0,0.E0));
#119=DIRECTION('',(-1.E0,0.E0,0.E0));
#120=AXIS2_PLACEMENT_3D('',#117,#118,#119);
#122=CARTESIAN_POINT('',(0.E0,1.3E1,0.E0));
#123=DIRECTION('',(0.E0,-1.E0,0.E0));
#124=DIRECTION('',(-1.E0,0.E0,0.E0));
#125=AXIS2_PLACEMENT_3D('',#122,#123,#124);
#127=CARTESIAN_POINT('',(0.E0,1.3E1,0.E0));
#128=DIRECTION('',(0.E0,-1.E0,0.E0));
#129=DIRECTION('',(-1.E0,0.E0,0.E0));
#130=AXIS2_PLACEMENT_3D('',#127,#128,#129);
#132=DIRECTION('',(0.E0,1.E0,0.E0));
#133=VECTOR('',#132,3.E1);
#134=CARTESIAN_POINT('',(-5.E0,1.3E1,0.E0));
#135=LINE('',#134,#133);
#136=CARTESIAN_POINT('',(0.E0,1.3E1,0.E0));
#137=DIRECTION('',(0.E0,1.E0,0.E0));
#138=DIRECTION('',(-1.E0,0.E0,0.E0));
#139=AXIS2_PLACEMENT_3D('',#136,#137,#138);
#141=DIRECTION('',(0.E0,1.E0,0.E0));
#142=VECTOR('',#141,3.E1);
#143=CARTESIAN_POINT('',(5.E0,1.3E1,0.E0));
#144=LINE('',#143,#142);
#145=DIRECTION('',(8.660254037844E-1,5.E-1,0.E0));
#146=VECTOR('',#145,5.773502691896E0);
#147=CARTESIAN_POINT('',(-5.E0,4.3E1,0.E0));
#148=LINE('',#147,#146);
#149=CARTESIAN_POINT('',(0.E0,4.3E1,0.E0));
#150=DIRECTION('',(0.E0,1.E0,0.E0));
#151=DIRECTION('',(-1.E0,0.E0,0.E0));
#152=AXIS2_PLACEMENT_3D('',#149,#150,#151);
#154=DIRECTION('',(-8.660254037844E-1,5.E-1,0.E0));
#155=VECTOR('',#154,5.773502691896E0);
#156=CARTESIAN_POINT('',(5.E0,4.3E1,0.E0));
#157=LINE('',#156,#155);
#158=CARTESIAN_POINT('',(0.E0,4.3E1,0.E0));
#159=DIRECTION('',(0.E0,-1.E0,0.E0));
#160=DIRECTION('',(-1.E0,0.E0,0.E0));
#161=AXIS2_PLACEMENT_3D('',#158,#159,#160);
#163=CARTESIAN_POINT('',(-5.E0,1.3E1,0.E0));
#164=CARTESIAN_POINT('',(-5.E0,4.3E1,0.E0));
#165=VERTEX_POINT('',#163);
#166=VERTEX_POINT('',#164);
#167=CARTESIAN_POINT('',(0.E0,4.588675134595E1,0.E0));
#168=VERTEX_POINT('',#167);
#169=CARTESIAN_POINT('',(0.E0,4.7E1,0.E0));
#170=CARTESIAN_POINT('',(-1.7E1,4.517288532477E1,0.E0));
#171=VERTEX_POINT('',#169);
#172=VERTEX_POINT('',#170);
#173=CARTESIAN_POINT('',(-2.33E1,3.735559679230E1,0.E0));
#174=VERTEX_POINT('',#173);
#175=CARTESIAN_POINT('',(-2.35E1,3.735559679230E1,0.E0));
#176=CARTESIAN_POINT('',(-2.35E1,3.235559679230E1,0.E0));
#177=VERTEX_POINT('',#175);
#178=VERTEX_POINT('',#176);
#179=CARTESIAN_POINT('',(-2.33E1,3.235559679230E1,0.E0));
#180=CARTESIAN_POINT('',(-8.E0,0.E0,0.E0));
#181=VERTEX_POINT('',#179);
#182=VERTEX_POINT('',#180);
#183=CARTESIAN_POINT('',(5.E0,1.3E1,0.E0));
#184=CARTESIAN_POINT('',(5.E0,4.3E1,0.E0));
#185=VERTEX_POINT('',#183);
#186=VERTEX_POINT('',#184);
#187=CARTESIAN_POINT('',(1.7E1,4.517288532477E1,0.E0));
#188=VERTEX_POINT('',#187);
#189=CARTESIAN_POINT('',(2.33E1,3.735559679230E1,0.E0));
#190=VERTEX_POINT('',#189);
#191=CARTESIAN_POINT('',(2.35E1,3.735559679230E1,0.E0));
#192=CARTESIAN_POINT('',(2.35E1,3.235559679230E1,0.E0));
#193=VERTEX_POINT('',#191);
#194=VERTEX_POINT('',#192);
#195=CARTESIAN_POINT('',(2.33E1,3.235559679230E1,0.E0));
#196=CARTESIAN_POINT('',(8.E0,0.E0,0.E0));
#197=VERTEX_POINT('',#195);
#198=VERTEX_POINT('',#196);
#199=CARTESIAN_POINT('',(-7.1E0,0.E0,0.E0));
#200=CARTESIAN_POINT('',(-7.1E0,1.3E1,0.E0));
#201=VERTEX_POINT('',#199);
#202=VERTEX_POINT('',#200);
#203=CARTESIAN_POINT('',(7.1E0,0.E0,0.E0));
#204=CARTESIAN_POINT('',(7.1E0,1.3E1,0.E0));
#205=VERTEX_POINT('',#203);
#206=VERTEX_POINT('',#204);
#207=CARTESIAN_POINT('',(0.E0,0.E0,0.E0));
#208=DIRECTION('',(0.E0,-1.E0,0.E0));
#209=DIRECTION('',(-1.E0,0.E0,0.E0));
#210=AXIS2_PLACEMENT_3D('',#207,#208,#209);
#211=CYLINDRICAL_SURFACE('',#210,7.1E0);
#213=ORIENTED_EDGE('',*,*,#212,.T.);
#215=ORIENTED_EDGE('',*,*,#214,.T.);
#217=ORIENTED_EDGE('',*,*,#216,.F.);
#219=ORIENTED_EDGE('',*,*,#218,.F.);
#220=EDGE_LOOP('',(#213,#215,#217,#219));
#221=FACE_OUTER_BOUND('',#220,.F.);
#222=ADVANCED_FACE('',(#221),#211,.F.);
#223=CARTESIAN_POINT('',(0.E0,0.E0,0.E0));
#224=DIRECTION('',(0.E0,-1.E0,0.E0));
#225=DIRECTION('',(-1.E0,0.E0,0.E0));
#226=AXIS2_PLACEMENT_3D('',#223,#224,#225);
#227=CYLINDRICAL_SURFACE('',#226,7.1E0);
#228=ORIENTED_EDGE('',*,*,#212,.F.);
#230=ORIENTED_EDGE('',*,*,#229,.T.);
#231=ORIENTED_EDGE('',*,*,#216,.T.);
#233=ORIENTED_EDGE('',*,*,#232,.F.);
#234=EDGE_LOOP('',(#228,#230,#231,#233));
#235=FACE_OUTER_BOUND('',#234,.F.);
#236=ADVANCED_FACE('',(#235),#227,.F.);
#237=CARTESIAN_POINT('',(0.E0,0.E0,0.E0));
#238=DIRECTION('',(0.E0,-1.E0,0.E0));
#239=DIRECTION('',(-1.E0,0.E0,0.E0));
#240=AXIS2_PLACEMENT_3D('',#237,#238,#239);
#241=PLANE('',#240);
#243=ORIENTED_EDGE('',*,*,#242,.F.);
#245=ORIENTED_EDGE('',*,*,#244,.T.);
#246=EDGE_LOOP('',(#243,#245));
#247=FACE_OUTER_BOUND('',#246,.F.);
#248=ORIENTED_EDGE('',*,*,#229,.F.);
#249=ORIENTED_EDGE('',*,*,#218,.T.);
#250=EDGE_LOOP('',(#248,#249));
#251=FACE_BOUND('',#250,.F.);
#252=ADVANCED_FACE('',(#247,#251),#241,.T.);
#253=CARTESIAN_POINT('',(-2.331245578093E1,3.308426693230E1,1.466695398323E0));
#254=CARTESIAN_POINT('',(-2.236744279062E1,2.015211588728E1,1.407240220487E0));
#255=CARTESIAN_POINT('',(-1.683527769266E1,8.429866843869E0,1.059185894156E0));
#256=CARTESIAN_POINT('',(-7.459203425155E0,-5.076033340053E-1,
4.692933014709E-1));
#257=CARTESIAN_POINT('',(-2.421505807172E1,3.308426693230E1,-1.287975718883E1));
#258=CARTESIAN_POINT('',(-2.323345644837E1,2.015211588728E1,-1.235765269800E1));
#259=CARTESIAN_POINT('',(-1.748709920620E1,8.429866843869E0,-9.301220383021E0));
#260=CARTESIAN_POINT('',(-7.748005864602E0,-5.076033340053E-1,
-4.121090023327E0));
#261=CARTESIAN_POINT('',(-1.437481800687E1,3.308426693230E1,-2.335854854073E1));
#262=CARTESIAN_POINT('',(-1.379210849409E1,2.015211588728E1,-2.241166709618E1));
#263=CARTESIAN_POINT('',(-1.038089059347E1,8.429866843869E0,-1.686856395036E1));
#264=CARTESIAN_POINT('',(-4.599459307094E0,-5.076033340054E-1,
-7.473951561300E0));
#265=CARTESIAN_POINT('',(0.E0,3.308426693230E1,-2.335854854073E1));
#266=CARTESIAN_POINT('',(0.E0,2.015211588728E1,-2.241166709618E1));
#267=CARTESIAN_POINT('',(0.E0,8.429866843869E0,-1.686856395036E1));
#268=CARTESIAN_POINT('',(0.E0,-5.076033340053E-1,-7.473951561300E0));
#269=CARTESIAN_POINT('',(1.437481800687E1,3.308426693230E1,-2.335854854073E1));
#270=CARTESIAN_POINT('',(1.379210849409E1,2.015211588728E1,-2.241166709618E1));
#271=CARTESIAN_POINT('',(1.038089059347E1,8.429866843869E0,-1.686856395036E1));
#272=CARTESIAN_POINT('',(4.599459307094E0,-5.076033340054E-1,
-7.473951561300E0));
#273=CARTESIAN_POINT('',(2.421505807172E1,3.308426693230E1,-1.287975718883E1));
#274=CARTESIAN_POINT('',(2.323345644837E1,2.015211588728E1,-1.235765269800E1));
#275=CARTESIAN_POINT('',(1.748709920620E1,8.429866843869E0,-9.301220383021E0));
#276=CARTESIAN_POINT('',(7.748005864602E0,-5.076033340053E-1,
-4.121090023327E0));
#277=CARTESIAN_POINT('',(2.331245578093E1,3.308426693230E1,1.466695398323E0));
#278=CARTESIAN_POINT('',(2.236744279062E1,2.015211588728E1,1.407240220487E0));
#279=CARTESIAN_POINT('',(1.683527769266E1,8.429866843869E0,1.059185894156E0));
#280=CARTESIAN_POINT('',(7.459203425155E0,-5.076033340053E-1,
4.692933014709E-1));
#281=(BOUNDED_SURFACE()B_SPLINE_SURFACE(3,3,((#253,#254,#255,#256),(#257,#258,
#259,#260),(#261,#262,#263,#264),(#265,#266,#267,#268),(#269,#270,#271,#272),(
#273,#274,#275,#276),(#277,#278,#279,#280)),.UNSPECIFIED.,.F.,.F.,.F.)B_SPLINE_SURFACE_WITH_KNOTS((4,3,4),(4,4),(0.E0,1.E0,2.E0),(0.E0,1.E0),.UNSPECIFIED.)GEOMETRIC_REPRESENTATION_ITEM()RATIONAL_B_SPLINE_SURFACE(((1.228525646511E0,
1.173508427822E0,1.173508427822E0,1.228525646511E0),(9.701643327559E-1,
9.267173413062E-1,9.267173413062E-1,9.701643327559E-1),(9.701643327559E-1,
9.267173413062E-1,9.267173413062E-1,9.701643327559E-1),(1.228525646511E0,
1.173508427822E0,1.173508427822E0,1.228525646511E0),(9.701643327559E-1,
9.267173413062E-1,9.267173413062E-1,9.701643327559E-1),(9.701643327559E-1,
9.267173413062E-1,9.267173413062E-1,9.701643327559E-1),(1.228525646511E0,
1.173508427822E0,1.173508427822E0,1.228525646511E0)))REPRESENTATION_ITEM('')SURFACE());
#283=ORIENTED_EDGE('',*,*,#282,.T.);
#284=ORIENTED_EDGE('',*,*,#242,.T.);
#286=ORIENTED_EDGE('',*,*,#285,.F.);
#288=ORIENTED_EDGE('',*,*,#287,.F.);
#289=EDGE_LOOP('',(#283,#284,#286,#288));
#290=FACE_OUTER_BOUND('',#289,.F.);
#291=ADVANCED_FACE('',(#290),#281,.T.);
#292=CARTESIAN_POINT('',(2.331245578093E1,3.308426693230E1,-1.466695398323E0));
#293=CARTESIAN_POINT('',(2.236744279062E1,2.015211588728E1,-1.407240220487E0));
#294=CARTESIAN_POINT('',(1.683527769266E1,8.429866843869E0,-1.059185894156E0));
#295=CARTESIAN_POINT('',(7.459203425155E0,-5.076033340053E-1,
-4.692933014709E-1));
#296=CARTESIAN_POINT('',(2.421505807172E1,3.308426693230E1,1.287975718883E1));
#297=CARTESIAN_POINT('',(2.323345644837E1,2.015211588728E1,1.235765269800E1));
#298=CARTESIAN_POINT('',(1.748709920620E1,8.429866843869E0,9.301220383021E0));
#299=CARTESIAN_POINT('',(7.748005864602E0,-5.076033340053E-1,4.121090023327E0));
#300=CARTESIAN_POINT('',(1.437481800687E1,3.308426693230E1,2.335854854073E1));
#301=CARTESIAN_POINT('',(1.379210849409E1,2.015211588728E1,2.241166709618E1));
#302=CARTESIAN_POINT('',(1.038089059347E1,8.429866843869E0,1.686856395036E1));
#303=CARTESIAN_POINT('',(4.599459307094E0,-5.076033340053E-1,7.473951561300E0));
#304=CARTESIAN_POINT('',(0.E0,3.308426693230E1,2.335854854073E1));
#305=CARTESIAN_POINT('',(0.E0,2.015211588728E1,2.241166709618E1));
#306=CARTESIAN_POINT('',(0.E0,8.429866843869E0,1.686856395036E1));
#307=CARTESIAN_POINT('',(0.E0,-5.076033340053E-1,7.473951561300E0));
#308=CARTESIAN_POINT('',(-1.437481800687E1,3.308426693230E1,2.335854854073E1));
#309=CARTESIAN_POINT('',(-1.379210849409E1,2.015211588728E1,2.241166709618E1));
#310=CARTESIAN_POINT('',(-1.038089059347E1,8.429866843869E0,1.686856395036E1));
#311=CARTESIAN_POINT('',(-4.599459307094E0,-5.076033340053E-1,
7.473951561300E0));
#312=CARTESIAN_POINT('',(-2.421505807172E1,3.308426693230E1,1.287975718883E1));
#313=CARTESIAN_POINT('',(-2.323345644837E1,2.015211588728E1,1.235765269800E1));
#314=CARTESIAN_POINT('',(-1.748709920620E1,8.429866843869E0,9.301220383021E0));
#315=CARTESIAN_POINT('',(-7.748005864602E0,-5.076033340053E-1,
4.121090023327E0));
#316=CARTESIAN_POINT('',(-2.331245578093E1,3.308426693230E1,-1.466695398323E0));
#317=CARTESIAN_POINT('',(-2.236744279062E1,2.015211588728E1,-1.407240220487E0));
#318=CARTESIAN_POINT('',(-1.683527769266E1,8.429866843869E0,-1.059185894156E0));
#319=CARTESIAN_POINT('',(-7.459203425155E0,-5.076033340053E-1,
-4.692933014709E-1));
#320=(BOUNDED_SURFACE()B_SPLINE_SURFACE(3,3,((#292,#293,#294,#295),(#296,#297,
#298,#299),(#300,#301,#302,#303),(#304,#305,#306,#307),(#308,#309,#310,#311),(
#312,#313,#314,#315),(#316,#317,#318,#319)),.UNSPECIFIED.,.F.,.F.,.F.)B_SPLINE_SURFACE_WITH_KNOTS((4,3,4),(4,4),(0.E0,1.E0,2.E0),(0.E0,1.E0),.UNSPECIFIED.)GEOMETRIC_REPRESENTATION_ITEM()RATIONAL_B_SPLINE_SURFACE(((1.228525646511E0,
1.173508427822E0,1.173508427822E0,1.228525646511E0),(9.701643327559E-1,
9.267173413062E-1,9.267173413062E-1,9.701643327559E-1),(9.701643327559E-1,
9.267173413062E-1,9.267173413062E-1,9.701643327559E-1),(1.228525646511E0,
1.173508427822E0,1.173508427822E0,1.228525646511E0),(9.701643327559E-1,
9.267173413062E-1,9.267173413062E-1,9.701643327559E-1),(9.701643327559E-1,
9.267173413062E-1,9.267173413062E-1,9.701643327559E-1),(1.228525646511E0,
1.173508427822E0,1.173508427822E0,1.228525646511E0)))REPRESENTATION_ITEM('')SURFACE());
#321=ORIENTED_EDGE('',*,*,#282,.F.);
#323=ORIENTED_EDGE('',*,*,#322,.T.);
#324=ORIENTED_EDGE('',*,*,#285,.T.);
#325=ORIENTED_EDGE('',*,*,#244,.F.);
#326=EDGE_LOOP('',(#321,#323,#324,#325));
#327=FACE_OUTER_BOUND('',#326,.F.);
#328=ADVANCED_FACE('',(#327),#320,.T.);
#329=CARTESIAN_POINT('',(0.E0,3.235559679230E1,0.E0));
#330=DIRECTION('',(0.E0,-1.E0,0.E0));
#331=DIRECTION('',(-1.E0,0.E0,0.E0));
#332=AXIS2_PLACEMENT_3D('',#329,#330,#331);
#333=PLANE('',#332);
#335=ORIENTED_EDGE('',*,*,#334,.F.);
#337=ORIENTED_EDGE('',*,*,#336,.T.);
#338=EDGE_LOOP('',(#335,#337));
#339=FACE_OUTER_BOUND('',#338,.F.);
#340=ORIENTED_EDGE('',*,*,#322,.F.);
#341=ORIENTED_EDGE('',*,*,#287,.T.);
#342=EDGE_LOOP('',(#340,#341));
#343=FACE_BOUND('',#342,.F.);
#344=ADVANCED_FACE('',(#339,#343),#333,.T.);
#345=CARTESIAN_POINT('',(0.E0,0.E0,0.E0));
#346=DIRECTION('',(0.E0,-1.E0,0.E0));
#347=DIRECTION('',(-1.E0,0.E0,0.E0));
#348=AXIS2_PLACEMENT_3D('',#345,#346,#347);
#349=CYLINDRICAL_SURFACE('',#348,2.35E1);
#351=ORIENTED_EDGE('',*,*,#350,.T.);
#352=ORIENTED_EDGE('',*,*,#334,.T.);
#354=ORIENTED_EDGE('',*,*,#353,.F.);
#356=ORIENTED_EDGE('',*,*,#355,.F.);
#357=EDGE_LOOP('',(#351,#352,#354,#356));
#358=FACE_OUTER_BOUND('',#357,.F.);
#359=ADVANCED_FACE('',(#358),#349,.T.);
#360=CARTESIAN_POINT('',(0.E0,0.E0,0.E0));
#361=DIRECTION('',(0.E0,-1.E0,0.E0));
#362=DIRECTION('',(-1.E0,0.E0,0.E0));
#363=AXIS2_PLACEMENT_3D('',#360,#361,#362);
#364=CYLINDRICAL_SURFACE('',#363,2.35E1);
#365=ORIENTED_EDGE('',*,*,#350,.F.);
#367=ORIENTED_EDGE('',*,*,#366,.T.);
#368=ORIENTED_EDGE('',*,*,#353,.T.);
#369=ORIENTED_EDGE('',*,*,#336,.F.);
#370=EDGE_LOOP('',(#365,#367,#368,#369));
#371=FACE_OUTER_BOUND('',#370,.F.);
#372=ADVANCED_FACE('',(#371),#364,.T.);
#373=CARTESIAN_POINT('',(0.E0,3.735559679230E1,0.E0));
#374=DIRECTION('',(0.E0,-1.E0,0.E0));
#375=DIRECTION('',(-1.E0,0.E0,0.E0));
#376=AXIS2_PLACEMENT_3D('',#373,#374,#375);
#377=PLANE('',#376);
#378=ORIENTED_EDGE('',*,*,#366,.F.);
#379=ORIENTED_EDGE('',*,*,#355,.T.);
#380=EDGE_LOOP('',(#378,#379));
#381=FACE_OUTER_BOUND('',#380,.F.);
#383=ORIENTED_EDGE('',*,*,#382,.F.);
#385=ORIENTED_EDGE('',*,*,#384,.T.);
#386=EDGE_LOOP('',(#383,#385));
#387=FACE_BOUND('',#386,.F.);
#388=ADVANCED_FACE('',(#381,#387),#377,.F.);
#389=CARTESIAN_POINT('',(0.E0,3.735559679230E1,0.E0));
#390=DIRECTION('',(0.E0,-1.E0,0.E0));
#391=DIRECTION('',(-1.E0,0.E0,0.E0));
#392=AXIS2_PLACEMENT_3D('',#389,#390,#391);
#393=TOROIDAL_SURFACE('',#392,1.53E1,8.E0);
#395=ORIENTED_EDGE('',*,*,#394,.T.);
#396=ORIENTED_EDGE('',*,*,#382,.T.);
#398=ORIENTED_EDGE('',*,*,#397,.F.);
#400=ORIENTED_EDGE('',*,*,#399,.F.);
#401=EDGE_LOOP('',(#395,#396,#398,#400));
#402=FACE_OUTER_BOUND('',#401,.F.);
#403=ADVANCED_FACE('',(#402),#393,.T.);
#404=CARTESIAN_POINT('',(0.E0,3.735559679230E1,0.E0));
#405=DIRECTION('',(0.E0,-1.E0,0.E0));
#406=DIRECTION('',(-1.E0,0.E0,0.E0));
#407=AXIS2_PLACEMENT_3D('',#404,#405,#406);
#408=TOROIDAL_SURFACE('',#407,1.53E1,8.E0);
#409=ORIENTED_EDGE('',*,*,#394,.F.);
#411=ORIENTED_EDGE('',*,*,#410,.T.);
#412=ORIENTED_EDGE('',*,*,#397,.T.);
#413=ORIENTED_EDGE('',*,*,#384,.F.);
#414=EDGE_LOOP('',(#409,#411,#412,#413));
#415=FACE_OUTER_BOUND('',#414,.F.);
#416=ADVANCED_FACE('',(#415),#408,.T.);
#417=CARTESIAN_POINT('',(0.E0,-3.3E1,0.E0));
#418=DIRECTION('',(0.E0,-1.E0,0.E0));
#419=DIRECTION('',(-1.E0,0.E0,0.E0));
#420=AXIS2_PLACEMENT_3D('',#417,#418,#419);
#421=SPHERICAL_SURFACE('',#420,8.E1);
#423=ORIENTED_EDGE('',*,*,#422,.F.);
#425=ORIENTED_EDGE('',*,*,#424,.T.);
#426=ORIENTED_EDGE('',*,*,#410,.F.);
#427=EDGE_LOOP('',(#423,#425,#426));
#428=FACE_OUTER_BOUND('',#427,.F.);
#429=ADVANCED_FACE('',(#428),#421,.T.);
#430=CARTESIAN_POINT('',(0.E0,-3.3E1,0.E0));
#431=DIRECTION('',(0.E0,-1.E0,0.E0));
#432=DIRECTION('',(-1.E0,0.E0,0.E0));
#433=AXIS2_PLACEMENT_3D('',#430,#431,#432);
#434=SPHERICAL_SURFACE('',#433,8.E1);
#435=ORIENTED_EDGE('',*,*,#422,.T.);
#436=ORIENTED_EDGE('',*,*,#399,.T.);
#437=ORIENTED_EDGE('',*,*,#424,.F.);
#438=EDGE_LOOP('',(#435,#436,#437));
#439=FACE_OUTER_BOUND('',#438,.F.);
#440=ADVANCED_FACE('',(#439),#434,.T.);
#441=CARTESIAN_POINT('',(0.E0,1.3E1,0.E0));
#442=DIRECTION('',(0.E0,-1.E0,0.E0));
#443=DIRECTION('',(-1.E0,0.E0,0.E0));
#444=AXIS2_PLACEMENT_3D('',#441,#442,#443);
#445=PLANE('',#444);
#446=ORIENTED_EDGE('',*,*,#232,.T.);
#447=ORIENTED_EDGE('',*,*,#214,.F.);
#448=EDGE_LOOP('',(#446,#447));
#449=FACE_OUTER_BOUND('',#448,.F.);
#451=ORIENTED_EDGE('',*,*,#450,.T.);
#453=ORIENTED_EDGE('',*,*,#452,.F.);
#454=EDGE_LOOP('',(#451,#453));
#455=FACE_BOUND('',#454,.F.);
#456=ADVANCED_FACE('',(#449,#455),#445,.T.);
#457=CARTESIAN_POINT('',(0.E0,0.E0,0.E0));
#458=DIRECTION('',(0.E0,-1.E0,0.E0));
#459=DIRECTION('',(-1.E0,0.E0,0.E0));
#460=AXIS2_PLACEMENT_3D('',#457,#458,#459);
#461=CYLINDRICAL_SURFACE('',#460,5.E0);
#463=ORIENTED_EDGE('',*,*,#462,.T.);
#465=ORIENTED_EDGE('',*,*,#464,.T.);
#467=ORIENTED_EDGE('',*,*,#466,.F.);
#468=ORIENTED_EDGE('',*,*,#450,.F.);
#469=EDGE_LOOP('',(#463,#465,#467,#468));
#470=FACE_OUTER_BOUND('',#469,.F.);
#471=ADVANCED_FACE('',(#470),#461,.F.);
#472=CARTESIAN_POINT('',(0.E0,0.E0,0.E0));
#473=DIRECTION('',(0.E0,-1.E0,0.E0));
#474=DIRECTION('',(-1.E0,0.E0,0.E0));
#475=AXIS2_PLACEMENT_3D('',#472,#473,#474);
#476=CYLINDRICAL_SURFACE('',#475,5.E0);
#477=ORIENTED_EDGE('',*,*,#462,.F.);
#478=ORIENTED_EDGE('',*,*,#452,.T.);
#479=ORIENTED_EDGE('',*,*,#466,.T.);
#481=ORIENTED_EDGE('',*,*,#480,.F.);
#482=EDGE_LOOP('',(#477,#478,#479,#481));
#483=FACE_OUTER_BOUND('',#482,.F.);
#484=ADVANCED_FACE('',(#483),#476,.F.);
#485=CARTESIAN_POINT('',(0.E0,4.440587417291E1,0.E0));
#486=DIRECTION('',(0.E0,-1.E0,0.E0));
#487=DIRECTION('',(-1.E0,0.E0,0.E0));
#488=AXIS2_PLACEMENT_3D('',#485,#486,#487);
#489=CONICAL_SURFACE('',#488,2.564954503464E0,6.E1);
#491=ORIENTED_EDGE('',*,*,#490,.F.);
#492=ORIENTED_EDGE('',*,*,#480,.T.);
#494=ORIENTED_EDGE('',*,*,#493,.T.);
#495=EDGE_LOOP('',(#491,#492,#494));
#496=FACE_OUTER_BOUND('',#495,.F.);
#497=ADVANCED_FACE('',(#496),#489,.F.);
#498=CARTESIAN_POINT('',(0.E0,4.440587417291E1,0.E0));
#499=DIRECTION('',(0.E0,-1.E0,0.E0));
#500=DIRECTION('',(-1.E0,0.E0,0.E0));
#501=AXIS2_PLACEMENT_3D('',#498,#499,#500);
#502=CONICAL_SURFACE('',#501,2.564954503464E0,6.E1);
#503=ORIENTED_EDGE('',*,*,#490,.T.);
#504=ORIENTED_EDGE('',*,*,#493,.F.);
#505=ORIENTED_EDGE('',*,*,#464,.F.);
#506=EDGE_LOOP('',(#503,#504,#505));
#507=FACE_OUTER_BOUND('',#506,.F.);
#508=ADVANCED_FACE('',(#507),#502,.F.);
#512=DIMENSIONAL_EXPONENTS(0.E0,0.E0,0.E0,0.E0,0.E0,0.E0,0.E0);
#514=PLANE_ANGLE_MEASURE_WITH_UNIT(PLANE_ANGLE_MEASURE(1.745329251994E-2),#513);
#515=(CONVERSION_BASED_UNIT('DEGREE',#514)NAMED_UNIT(*)PLANE_ANGLE_UNIT());
#517=UNCERTAINTY_MEASURE_WITH_UNIT(LENGTH_MEASURE(1.25E-2),#511,'closure',
'Maximum model space distance between geometric entities at asserted connectivities');
#518=(GEOMETRIC_REPRESENTATION_CONTEXT(3)GLOBAL_UNCERTAINTY_ASSIGNED_CONTEXT((
#517))GLOBAL_UNIT_ASSIGNED_CONTEXT((#511,#515,#516))REPRESENTATION_CONTEXT
('ID1','3'));
#520=APPLICATION_CONTEXT(
'CONFIGURATION CONTROLLED 3D DESIGNS OF MECHANICAL PARTS AND ASSEMBLIES');
#521=APPLICATION_PROTOCOL_DEFINITION('international standard',
'config_control_design',1994,#520);
#522=DESIGN_CONTEXT('',#520,'design');
#523=MECHANICAL_CONTEXT('',#520,'mechanical');
#524=PRODUCT('POIG','POIG','NOT SPECIFIED',(#523));
#525=PRODUCT_DEFINITION_FORMATION_WITH_SPECIFIED_SOURCE('7','LAST_VERSION',#524,
.MADE.);
#529=PRODUCT_CATEGORY('part','');
#530=PRODUCT_RELATED_PRODUCT_CATEGORY('detail','',(#524));
#531=PRODUCT_CATEGORY_RELATIONSHIP('','',#529,#530);
#532=SECURITY_CLASSIFICATION_LEVEL('unclassified');
#533=SECURITY_CLASSIFICATION('','',#532);
#534=CC_DESIGN_SECURITY_CLASSIFICATION(#533,(#525));
#535=APPROVAL_STATUS('approved');
#536=APPROVAL(#535,'');
#537=CC_DESIGN_APPROVAL(#536,(#533,#525,#526));
#538=CALENDAR_DATE(121,19,4);
#539=COORDINATED_UNIVERSAL_TIME_OFFSET(2,0,.AHEAD.);
#540=LOCAL_TIME(9,47,5.5E1,#539);
#541=DATE_AND_TIME(#538,#540);
#542=APPROVAL_DATE_TIME(#541,#536);
#543=DATE_TIME_ROLE('creation_date');
#544=CC_DESIGN_DATE_AND_TIME_ASSIGNMENT(#541,#543,(#526));
#545=DATE_TIME_ROLE('classification_date');
#546=CC_DESIGN_DATE_AND_TIME_ASSIGNMENT(#541,#545,(#533));
#547=PERSON('UNSPECIFIED','UNSPECIFIED',$,$,$,$);
#548=ORGANIZATION('UNSPECIFIED','UNSPECIFIED','UNSPECIFIED');
#549=PERSON_AND_ORGANIZATION(#547,#548);
#550=APPROVAL_ROLE('approver');
#551=APPROVAL_PERSON_ORGANIZATION(#549,#536,#550);
#552=PERSON_AND_ORGANIZATION_ROLE('creator');
#553=CC_DESIGN_PERSON_AND_ORGANIZATION_ASSIGNMENT(#549,#552,(#525,#526));
#554=PERSON_AND_ORGANIZATION_ROLE('design_supplier');
#555=CC_DESIGN_PERSON_AND_ORGANIZATION_ASSIGNMENT(#549,#554,(#525));
#556=PERSON_AND_ORGANIZATION_ROLE('classification_officer');
#557=CC_DESIGN_PERSON_AND_ORGANIZATION_ASSIGNMENT(#549,#556,(#533));
#558=PERSON_AND_ORGANIZATION_ROLE('design_owner');
#559=CC_DESIGN_PERSON_AND_ORGANIZATION_ASSIGNMENT(#549,#558,(#524));
#5=CIRCLE('',#4,7.1E0);
#14=CIRCLE('',#13,7.1E0);
#23=CIRCLE('',#22,8.E0);
#28=CIRCLE('',#27,8.E0);
#33=CIRCLE('',#32,2.33E1);
#38=CIRCLE('',#37,5.156154317313E1);
#43=CIRCLE('',#42,2.33E1);
#48=CIRCLE('',#47,5.156154317313E1);
#53=CIRCLE('',#52,2.35E1);
#58=CIRCLE('',#57,2.35E1);
#63=CIRCLE('',#62,2.35E1);
#72=CIRCLE('',#71,2.35E1);
#81=CIRCLE('',#80,2.33E1);
#86=CIRCLE('',#85,2.33E1);
#91=CIRCLE('',#90,1.7E1);
#96=CIRCLE('',#95,8.E0);
#101=CIRCLE('',#100,1.7E1);
#106=CIRCLE('',#105,8.E0);
#111=CIRCLE('',#110,8.E1);
#116=CIRCLE('',#115,8.E1);
#121=CIRCLE('',#120,7.1E0);
#126=CIRCLE('',#125,7.1E0);
#131=CIRCLE('',#130,5.E0);
#140=CIRCLE('',#139,5.E0);
#153=CIRCLE('',#152,5.E0);
#162=CIRCLE('',#161,5.E0);
#212=EDGE_CURVE('',#201,#202,#9,.T.);
#214=EDGE_CURVE('',#202,#206,#126,.T.);
#216=EDGE_CURVE('',#205,#206,#18,.T.);
#218=EDGE_CURVE('',#201,#205,#5,.T.);
#229=EDGE_CURVE('',#201,#205,#14,.T.);
#232=EDGE_CURVE('',#202,#206,#121,.T.);
#242=EDGE_CURVE('',#182,#198,#23,.T.);
#244=EDGE_CURVE('',#182,#198,#28,.T.);
#282=EDGE_CURVE('',#181,#182,#38,.T.);
#285=EDGE_CURVE('',#197,#198,#48,.T.);
#287=EDGE_CURVE('',#181,#197,#33,.T.);
#322=EDGE_CURVE('',#181,#197,#43,.T.);
#334=EDGE_CURVE('',#178,#194,#53,.T.);
#336=EDGE_CURVE('',#178,#194,#58,.T.);
#350=EDGE_CURVE('',#177,#178,#67,.T.);
#353=EDGE_CURVE('',#193,#194,#76,.T.);
#355=EDGE_CURVE('',#177,#193,#63,.T.);
#366=EDGE_CURVE('',#177,#193,#72,.T.);
#382=EDGE_CURVE('',#174,#190,#81,.T.);
#384=EDGE_CURVE('',#174,#190,#86,.T.);
#394=EDGE_CURVE('',#172,#174,#96,.T.);
#397=EDGE_CURVE('',#188,#190,#106,.T.);
#399=EDGE_CURVE('',#172,#188,#91,.T.);
#410=EDGE_CURVE('',#172,#188,#101,.T.);
#422=EDGE_CURVE('',#171,#172,#111,.T.);
#424=EDGE_CURVE('',#171,#188,#116,.T.);
#450=EDGE_CURVE('',#165,#185,#131,.T.);
#452=EDGE_CURVE('',#165,#185,#140,.T.);
#462=EDGE_CURVE('',#165,#166,#135,.T.);
#464=EDGE_CURVE('',#166,#186,#162,.T.);
#466=EDGE_CURVE('',#185,#186,#144,.T.);
#480=EDGE_CURVE('',#166,#186,#153,.T.);
#490=EDGE_CURVE('',#166,#168,#148,.T.);
#493=EDGE_CURVE('',#186,#168,#157,.T.);
#509=CLOSED_SHELL('',(#222,#236,#252,#291,#328,#344,#359,#372,#388,#403,#416,
#429,#440,#456,#471,#484,#497,#508));
#510=MANIFOLD_SOLID_BREP('',#509);
#511=(LENGTH_UNIT()NAMED_UNIT(*)SI_UNIT(.MILLI.,.METRE.));
#513=(NAMED_UNIT(*)PLANE_ANGLE_UNIT()SI_UNIT($,.RADIAN.));
#516=(NAMED_UNIT(*)SI_UNIT($,.STERADIAN.)SOLID_ANGLE_UNIT());
#519=ADVANCED_BREP_SHAPE_REPRESENTATION('',(#510),#518);
#526=PRODUCT_DEFINITION('design','',#525,#522);
#527=PRODUCT_DEFINITION_SHAPE('','SHAPE FOR POIG.',#526);
#528=SHAPE_DEFINITION_REPRESENTATION(#527,#519);
ENDSEC;
END-ISO-10303-21;
