ISO-10303-21;
HEADER;
FILE_DESCRIPTION((''),'2;1');
FILE_NAME('ROUE_JOCKEY_ENTRETOISE','2021-04-19T09:52:17',('itang'),(''),
'CREO PARAMETRIC BY PTC INC, 2020281','CREO PARAMETRIC BY PTC INC, 2020281','');
FILE_SCHEMA(('CONFIG_CONTROL_DESIGN'));
ENDSEC;
DATA;
#1=CARTESIAN_POINT('',(0.E0,1.1E2,0.E0));
#2=DIRECTION('',(0.E0,-1.E0,0.E0));
#3=DIRECTION('',(0.E0,0.E0,1.E0));
#4=AXIS2_PLACEMENT_3D('',#1,#2,#3);
#6=DIRECTION('',(0.E0,-1.E0,0.E0));
#7=VECTOR('',#6,1.1E2);
#8=CARTESIAN_POINT('',(0.E0,1.1E2,2.2E1));
#9=LINE('',#8,#7);
#10=CARTESIAN_POINT('',(0.E0,1.1E2,0.E0));
#11=DIRECTION('',(0.E0,1.E0,0.E0));
#12=DIRECTION('',(0.E0,0.E0,1.E0));
#13=AXIS2_PLACEMENT_3D('',#10,#11,#12);
#15=DIRECTION('',(0.E0,-1.E0,0.E0));
#16=VECTOR('',#15,1.1E2);
#17=CARTESIAN_POINT('',(0.E0,1.1E2,-2.2E1));
#18=LINE('',#17,#16);
#19=CARTESIAN_POINT('',(0.E0,1.1E2,0.E0));
#20=DIRECTION('',(0.E0,-1.E0,0.E0));
#21=DIRECTION('',(0.E0,0.E0,1.E0));
#22=AXIS2_PLACEMENT_3D('',#19,#20,#21);
#24=CARTESIAN_POINT('',(0.E0,1.1E2,0.E0));
#25=DIRECTION('',(0.E0,1.E0,0.E0));
#26=DIRECTION('',(0.E0,0.E0,1.E0));
#27=AXIS2_PLACEMENT_3D('',#24,#25,#26);
#29=CARTESIAN_POINT('',(0.E0,7.E1,0.E0));
#30=DIRECTION('',(0.E0,-1.E0,0.E0));
#31=DIRECTION('',(0.E0,0.E0,1.E0));
#32=AXIS2_PLACEMENT_3D('',#29,#30,#31);
#34=DIRECTION('',(0.E0,1.E0,0.E0));
#35=VECTOR('',#34,4.E1);
#36=CARTESIAN_POINT('',(0.E0,7.E1,1.55E1));
#37=LINE('',#36,#35);
#38=CARTESIAN_POINT('',(0.E0,7.E1,0.E0));
#39=DIRECTION('',(0.E0,1.E0,0.E0));
#40=DIRECTION('',(0.E0,0.E0,1.E0));
#41=AXIS2_PLACEMENT_3D('',#38,#39,#40);
#43=DIRECTION('',(0.E0,1.E0,0.E0));
#44=VECTOR('',#43,4.E1);
#45=CARTESIAN_POINT('',(0.E0,7.E1,-1.55E1));
#46=LINE('',#45,#44);
#47=CARTESIAN_POINT('',(0.E0,7.E1,0.E0));
#48=DIRECTION('',(0.E0,-1.E0,0.E0));
#49=DIRECTION('',(0.E0,0.E0,1.E0));
#50=AXIS2_PLACEMENT_3D('',#47,#48,#49);
#52=CARTESIAN_POINT('',(0.E0,7.E1,0.E0));
#53=DIRECTION('',(0.E0,1.E0,0.E0));
#54=DIRECTION('',(0.E0,0.E0,1.E0));
#55=AXIS2_PLACEMENT_3D('',#52,#53,#54);
#57=CARTESIAN_POINT('',(0.E0,4.E1,1.285879139105E-14));
#58=DIRECTION('',(0.E0,-1.E0,0.E0));
#59=DIRECTION('',(0.E0,0.E0,1.E0));
#60=AXIS2_PLACEMENT_3D('',#57,#58,#59);
#62=DIRECTION('',(0.E0,1.E0,0.E0));
#63=VECTOR('',#62,3.E1);
#64=CARTESIAN_POINT('',(0.E0,4.E1,1.25E1));
#65=LINE('',#64,#63);
#66=CARTESIAN_POINT('',(0.E0,4.E1,1.285879139105E-14));
#67=DIRECTION('',(0.E0,1.E0,0.E0));
#68=DIRECTION('',(0.E0,0.E0,1.E0));
#69=AXIS2_PLACEMENT_3D('',#66,#67,#68);
#71=DIRECTION('',(0.E0,1.E0,0.E0));
#72=VECTOR('',#71,3.E1);
#73=CARTESIAN_POINT('',(0.E0,4.E1,-1.25E1));
#74=LINE('',#73,#72);
#75=CARTESIAN_POINT('',(0.E0,4.E1,1.285879139105E-14));
#76=DIRECTION('',(0.E0,-1.E0,0.E0));
#77=DIRECTION('',(0.E0,0.E0,1.E0));
#78=AXIS2_PLACEMENT_3D('',#75,#76,#77);
#80=CARTESIAN_POINT('',(0.E0,4.E1,1.285879139105E-14));
#81=DIRECTION('',(0.E0,1.E0,0.E0));
#82=DIRECTION('',(0.E0,0.E0,1.E0));
#83=AXIS2_PLACEMENT_3D('',#80,#81,#82);
#85=CARTESIAN_POINT('',(0.E0,0.E0,2.020667218593E-14));
#86=DIRECTION('',(0.E0,-1.E0,0.E0));
#87=DIRECTION('',(0.E0,0.E0,1.E0));
#88=AXIS2_PLACEMENT_3D('',#85,#86,#87);
#90=DIRECTION('',(0.E0,1.E0,0.E0));
#91=VECTOR('',#90,4.E1);
#92=CARTESIAN_POINT('',(0.E0,0.E0,1.55E1));
#93=LINE('',#92,#91);
#94=CARTESIAN_POINT('',(0.E0,0.E0,2.020667218593E-14));
#95=DIRECTION('',(0.E0,1.E0,0.E0));
#96=DIRECTION('',(0.E0,0.E0,1.E0));
#97=AXIS2_PLACEMENT_3D('',#94,#95,#96);
#99=DIRECTION('',(0.E0,1.E0,0.E0));
#100=VECTOR('',#99,4.E1);
#101=CARTESIAN_POINT('',(0.E0,0.E0,-1.55E1));
#102=LINE('',#101,#100);
#103=CARTESIAN_POINT('',(0.E0,0.E0,2.020667218593E-14));
#104=DIRECTION('',(0.E0,-1.E0,0.E0));
#105=DIRECTION('',(0.E0,0.E0,1.E0));
#106=AXIS2_PLACEMENT_3D('',#103,#104,#105);
#108=CARTESIAN_POINT('',(0.E0,0.E0,2.020667218593E-14));
#109=DIRECTION('',(0.E0,1.E0,0.E0));
#110=DIRECTION('',(0.E0,0.E0,1.E0));
#111=AXIS2_PLACEMENT_3D('',#108,#109,#110);
#113=CARTESIAN_POINT('',(0.E0,1.1E2,2.2E1));
#114=CARTESIAN_POINT('',(0.E0,0.E0,2.2E1));
#115=VERTEX_POINT('',#113);
#116=VERTEX_POINT('',#114);
#117=CARTESIAN_POINT('',(0.E0,0.E0,1.55E1));
#118=CARTESIAN_POINT('',(0.E0,4.E1,1.55E1));
#119=VERTEX_POINT('',#117);
#120=VERTEX_POINT('',#118);
#121=CARTESIAN_POINT('',(0.E0,4.E1,1.25E1));
#122=CARTESIAN_POINT('',(0.E0,7.E1,1.25E1));
#123=VERTEX_POINT('',#121);
#124=VERTEX_POINT('',#122);
#125=CARTESIAN_POINT('',(0.E0,7.E1,1.55E1));
#126=CARTESIAN_POINT('',(0.E0,1.1E2,1.55E1));
#127=VERTEX_POINT('',#125);
#128=VERTEX_POINT('',#126);
#129=CARTESIAN_POINT('',(0.E0,1.1E2,-2.2E1));
#130=CARTESIAN_POINT('',(0.E0,0.E0,-2.2E1));
#131=VERTEX_POINT('',#129);
#132=VERTEX_POINT('',#130);
#133=CARTESIAN_POINT('',(0.E0,0.E0,-1.55E1));
#134=CARTESIAN_POINT('',(0.E0,4.E1,-1.55E1));
#135=VERTEX_POINT('',#133);
#136=VERTEX_POINT('',#134);
#137=CARTESIAN_POINT('',(0.E0,4.E1,-1.25E1));
#138=CARTESIAN_POINT('',(0.E0,7.E1,-1.25E1));
#139=VERTEX_POINT('',#137);
#140=VERTEX_POINT('',#138);
#141=CARTESIAN_POINT('',(0.E0,7.E1,-1.55E1));
#142=CARTESIAN_POINT('',(0.E0,1.1E2,-1.55E1));
#143=VERTEX_POINT('',#141);
#144=VERTEX_POINT('',#142);
#145=CARTESIAN_POINT('',(0.E0,1.155E2,0.E0));
#146=DIRECTION('',(0.E0,-1.E0,0.E0));
#147=DIRECTION('',(0.E0,0.E0,1.E0));
#148=AXIS2_PLACEMENT_3D('',#145,#146,#147);
#149=CYLINDRICAL_SURFACE('',#148,2.2E1);
#151=ORIENTED_EDGE('',*,*,#150,.T.);
#153=ORIENTED_EDGE('',*,*,#152,.T.);
#155=ORIENTED_EDGE('',*,*,#154,.F.);
#157=ORIENTED_EDGE('',*,*,#156,.F.);
#158=EDGE_LOOP('',(#151,#153,#155,#157));
#159=FACE_OUTER_BOUND('',#158,.F.);
#160=ADVANCED_FACE('',(#159),#149,.T.);
#161=CARTESIAN_POINT('',(0.E0,1.155E2,0.E0));
#162=DIRECTION('',(0.E0,-1.E0,0.E0));
#163=DIRECTION('',(0.E0,0.E0,1.E0));
#164=AXIS2_PLACEMENT_3D('',#161,#162,#163);
#165=CYLINDRICAL_SURFACE('',#164,2.2E1);
#166=ORIENTED_EDGE('',*,*,#150,.F.);
#168=ORIENTED_EDGE('',*,*,#167,.T.);
#169=ORIENTED_EDGE('',*,*,#154,.T.);
#171=ORIENTED_EDGE('',*,*,#170,.F.);
#172=EDGE_LOOP('',(#166,#168,#169,#171));
#173=FACE_OUTER_BOUND('',#172,.F.);
#174=ADVANCED_FACE('',(#173),#165,.T.);
#175=CARTESIAN_POINT('',(0.E0,1.1E2,0.E0));
#176=DIRECTION('',(0.E0,-1.E0,0.E0));
#177=DIRECTION('',(0.E0,0.E0,1.E0));
#178=AXIS2_PLACEMENT_3D('',#175,#176,#177);
#179=PLANE('',#178);
#180=ORIENTED_EDGE('',*,*,#167,.F.);
#181=ORIENTED_EDGE('',*,*,#156,.T.);
#182=EDGE_LOOP('',(#180,#181));
#183=FACE_OUTER_BOUND('',#182,.F.);
#185=ORIENTED_EDGE('',*,*,#184,.F.);
#187=ORIENTED_EDGE('',*,*,#186,.T.);
#188=EDGE_LOOP('',(#185,#187));
#189=FACE_BOUND('',#188,.F.);
#190=ADVANCED_FACE('',(#183,#189),#179,.F.);
#191=CARTESIAN_POINT('',(0.E0,1.155E2,0.E0));
#192=DIRECTION('',(0.E0,-1.E0,0.E0));
#193=DIRECTION('',(0.E0,0.E0,1.E0));
#194=AXIS2_PLACEMENT_3D('',#191,#192,#193);
#195=CYLINDRICAL_SURFACE('',#194,1.55E1);
#197=ORIENTED_EDGE('',*,*,#196,.T.);
#198=ORIENTED_EDGE('',*,*,#184,.T.);
#200=ORIENTED_EDGE('',*,*,#199,.F.);
#202=ORIENTED_EDGE('',*,*,#201,.F.);
#203=EDGE_LOOP('',(#197,#198,#200,#202));
#204=FACE_OUTER_BOUND('',#203,.F.);
#205=ADVANCED_FACE('',(#204),#195,.F.);
#206=CARTESIAN_POINT('',(0.E0,1.155E2,0.E0));
#207=DIRECTION('',(0.E0,-1.E0,0.E0));
#208=DIRECTION('',(0.E0,0.E0,1.E0));
#209=AXIS2_PLACEMENT_3D('',#206,#207,#208);
#210=CYLINDRICAL_SURFACE('',#209,1.55E1);
#211=ORIENTED_EDGE('',*,*,#196,.F.);
#213=ORIENTED_EDGE('',*,*,#212,.T.);
#214=ORIENTED_EDGE('',*,*,#199,.T.);
#215=ORIENTED_EDGE('',*,*,#186,.F.);
#216=EDGE_LOOP('',(#211,#213,#214,#215));
#217=FACE_OUTER_BOUND('',#216,.F.);
#218=ADVANCED_FACE('',(#217),#210,.F.);
#219=CARTESIAN_POINT('',(0.E0,7.E1,0.E0));
#220=DIRECTION('',(0.E0,-1.E0,0.E0));
#221=DIRECTION('',(0.E0,0.E0,1.E0));
#222=AXIS2_PLACEMENT_3D('',#219,#220,#221);
#223=PLANE('',#222);
#224=ORIENTED_EDGE('',*,*,#212,.F.);
#225=ORIENTED_EDGE('',*,*,#201,.T.);
#226=EDGE_LOOP('',(#224,#225));
#227=FACE_OUTER_BOUND('',#226,.F.);
#229=ORIENTED_EDGE('',*,*,#228,.F.);
#231=ORIENTED_EDGE('',*,*,#230,.T.);
#232=EDGE_LOOP('',(#229,#231));
#233=FACE_BOUND('',#232,.F.);
#234=ADVANCED_FACE('',(#227,#233),#223,.F.);
#235=CARTESIAN_POINT('',(0.E0,1.155E2,0.E0));
#236=DIRECTION('',(0.E0,-1.E0,0.E0));
#237=DIRECTION('',(0.E0,0.E0,1.E0));
#238=AXIS2_PLACEMENT_3D('',#235,#236,#237);
#239=CYLINDRICAL_SURFACE('',#238,1.25E1);
#241=ORIENTED_EDGE('',*,*,#240,.T.);
#242=ORIENTED_EDGE('',*,*,#228,.T.);
#244=ORIENTED_EDGE('',*,*,#243,.F.);
#246=ORIENTED_EDGE('',*,*,#245,.F.);
#247=EDGE_LOOP('',(#241,#242,#244,#246));
#248=FACE_OUTER_BOUND('',#247,.F.);
#249=ADVANCED_FACE('',(#248),#239,.F.);
#250=CARTESIAN_POINT('',(0.E0,1.155E2,0.E0));
#251=DIRECTION('',(0.E0,-1.E0,0.E0));
#252=DIRECTION('',(0.E0,0.E0,1.E0));
#253=AXIS2_PLACEMENT_3D('',#250,#251,#252);
#254=CYLINDRICAL_SURFACE('',#253,1.25E1);
#255=ORIENTED_EDGE('',*,*,#240,.F.);
#257=ORIENTED_EDGE('',*,*,#256,.T.);
#258=ORIENTED_EDGE('',*,*,#243,.T.);
#259=ORIENTED_EDGE('',*,*,#230,.F.);
#260=EDGE_LOOP('',(#255,#257,#258,#259));
#261=FACE_OUTER_BOUND('',#260,.F.);
#262=ADVANCED_FACE('',(#261),#254,.F.);
#263=CARTESIAN_POINT('',(0.E0,4.E1,1.285879139105E-14));
#264=DIRECTION('',(0.E0,-1.E0,0.E0));
#265=DIRECTION('',(0.E0,0.E0,1.E0));
#266=AXIS2_PLACEMENT_3D('',#263,#264,#265);
#267=PLANE('',#266);
#269=ORIENTED_EDGE('',*,*,#268,.F.);
#271=ORIENTED_EDGE('',*,*,#270,.T.);
#272=EDGE_LOOP('',(#269,#271));
#273=FACE_OUTER_BOUND('',#272,.F.);
#274=ORIENTED_EDGE('',*,*,#256,.F.);
#275=ORIENTED_EDGE('',*,*,#245,.T.);
#276=EDGE_LOOP('',(#274,#275));
#277=FACE_BOUND('',#276,.F.);
#278=ADVANCED_FACE('',(#273,#277),#267,.T.);
#279=CARTESIAN_POINT('',(0.E0,1.155E2,0.E0));
#280=DIRECTION('',(0.E0,-1.E0,0.E0));
#281=DIRECTION('',(0.E0,0.E0,1.E0));
#282=AXIS2_PLACEMENT_3D('',#279,#280,#281);
#283=CYLINDRICAL_SURFACE('',#282,1.55E1);
#285=ORIENTED_EDGE('',*,*,#284,.T.);
#286=ORIENTED_EDGE('',*,*,#268,.T.);
#288=ORIENTED_EDGE('',*,*,#287,.F.);
#290=ORIENTED_EDGE('',*,*,#289,.F.);
#291=EDGE_LOOP('',(#285,#286,#288,#290));
#292=FACE_OUTER_BOUND('',#291,.F.);
#293=ADVANCED_FACE('',(#292),#283,.F.);
#294=CARTESIAN_POINT('',(0.E0,1.155E2,0.E0));
#295=DIRECTION('',(0.E0,-1.E0,0.E0));
#296=DIRECTION('',(0.E0,0.E0,1.E0));
#297=AXIS2_PLACEMENT_3D('',#294,#295,#296);
#298=CYLINDRICAL_SURFACE('',#297,1.55E1);
#299=ORIENTED_EDGE('',*,*,#284,.F.);
#301=ORIENTED_EDGE('',*,*,#300,.T.);
#302=ORIENTED_EDGE('',*,*,#287,.T.);
#303=ORIENTED_EDGE('',*,*,#270,.F.);
#304=EDGE_LOOP('',(#299,#301,#302,#303));
#305=FACE_OUTER_BOUND('',#304,.F.);
#306=ADVANCED_FACE('',(#305),#298,.F.);
#307=CARTESIAN_POINT('',(0.E0,0.E0,2.020667218593E-14));
#308=DIRECTION('',(0.E0,-1.E0,0.E0));
#309=DIRECTION('',(0.E0,0.E0,1.E0));
#310=AXIS2_PLACEMENT_3D('',#307,#308,#309);
#311=PLANE('',#310);
#312=ORIENTED_EDGE('',*,*,#152,.F.);
#313=ORIENTED_EDGE('',*,*,#170,.T.);
#314=EDGE_LOOP('',(#312,#313));
#315=FACE_OUTER_BOUND('',#314,.F.);
#316=ORIENTED_EDGE('',*,*,#300,.F.);
#317=ORIENTED_EDGE('',*,*,#289,.T.);
#318=EDGE_LOOP('',(#316,#317));
#319=FACE_BOUND('',#318,.F.);
#320=ADVANCED_FACE('',(#315,#319),#311,.T.);
#324=DIMENSIONAL_EXPONENTS(0.E0,0.E0,0.E0,0.E0,0.E0,0.E0,0.E0);
#326=PLANE_ANGLE_MEASURE_WITH_UNIT(PLANE_ANGLE_MEASURE(1.745329251994E-2),#325);
#327=(CONVERSION_BASED_UNIT('DEGREE',#326)NAMED_UNIT(*)PLANE_ANGLE_UNIT());
#329=UNCERTAINTY_MEASURE_WITH_UNIT(LENGTH_MEASURE(1.E-2),#323,'closure',
'Maximum model space distance between geometric entities at asserted connectivities');
#330=(GEOMETRIC_REPRESENTATION_CONTEXT(3)GLOBAL_UNCERTAINTY_ASSIGNED_CONTEXT((
#329))GLOBAL_UNIT_ASSIGNED_CONTEXT((#323,#327,#328))REPRESENTATION_CONTEXT
('ID1','3'));
#332=APPLICATION_CONTEXT(
'CONFIGURATION CONTROLLED 3D DESIGNS OF MECHANICAL PARTS AND ASSEMBLIES');
#333=APPLICATION_PROTOCOL_DEFINITION('international standard',
'config_control_design',1994,#332);
#334=DESIGN_CONTEXT('',#332,'design');
#335=MECHANICAL_CONTEXT('',#332,'mechanical');
#336=PRODUCT('ROUE_JOCKEY_ENTRETOISE','ROUE_JOCKEY_ENTRETOISE','NOT SPECIFIED',(
#335));
#337=PRODUCT_DEFINITION_FORMATION_WITH_SPECIFIED_SOURCE('3','LAST_VERSION',#336,
.MADE.);
#341=PRODUCT_CATEGORY('part','');
#342=PRODUCT_RELATED_PRODUCT_CATEGORY('detail','',(#336));
#343=PRODUCT_CATEGORY_RELATIONSHIP('','',#341,#342);
#344=SECURITY_CLASSIFICATION_LEVEL('unclassified');
#345=SECURITY_CLASSIFICATION('','',#344);
#346=CC_DESIGN_SECURITY_CLASSIFICATION(#345,(#337));
#347=APPROVAL_STATUS('approved');
#348=APPROVAL(#347,'');
#349=CC_DESIGN_APPROVAL(#348,(#345,#337,#338));
#350=CALENDAR_DATE(121,19,4);
#351=COORDINATED_UNIVERSAL_TIME_OFFSET(2,0,.AHEAD.);
#352=LOCAL_TIME(9,52,1.7E1,#351);
#353=DATE_AND_TIME(#350,#352);
#354=APPROVAL_DATE_TIME(#353,#348);
#355=DATE_TIME_ROLE('creation_date');
#356=CC_DESIGN_DATE_AND_TIME_ASSIGNMENT(#353,#355,(#338));
#357=DATE_TIME_ROLE('classification_date');
#358=CC_DESIGN_DATE_AND_TIME_ASSIGNMENT(#353,#357,(#345));
#359=PERSON('UNSPECIFIED','UNSPECIFIED',$,$,$,$);
#360=ORGANIZATION('UNSPECIFIED','UNSPECIFIED','UNSPECIFIED');
#361=PERSON_AND_ORGANIZATION(#359,#360);
#362=APPROVAL_ROLE('approver');
#363=APPROVAL_PERSON_ORGANIZATION(#361,#348,#362);
#364=PERSON_AND_ORGANIZATION_ROLE('creator');
#365=CC_DESIGN_PERSON_AND_ORGANIZATION_ASSIGNMENT(#361,#364,(#337,#338));
#366=PERSON_AND_ORGANIZATION_ROLE('design_supplier');
#367=CC_DESIGN_PERSON_AND_ORGANIZATION_ASSIGNMENT(#361,#366,(#337));
#368=PERSON_AND_ORGANIZATION_ROLE('classification_officer');
#369=CC_DESIGN_PERSON_AND_ORGANIZATION_ASSIGNMENT(#361,#368,(#345));
#370=PERSON_AND_ORGANIZATION_ROLE('design_owner');
#371=CC_DESIGN_PERSON_AND_ORGANIZATION_ASSIGNMENT(#361,#370,(#336));
#5=CIRCLE('',#4,2.2E1);
#14=CIRCLE('',#13,2.2E1);
#23=CIRCLE('',#22,1.55E1);
#28=CIRCLE('',#27,1.55E1);
#33=CIRCLE('',#32,1.55E1);
#42=CIRCLE('',#41,1.55E1);
#51=CIRCLE('',#50,1.25E1);
#56=CIRCLE('',#55,1.25E1);
#61=CIRCLE('',#60,1.25E1);
#70=CIRCLE('',#69,1.25E1);
#79=CIRCLE('',#78,1.55E1);
#84=CIRCLE('',#83,1.55E1);
#89=CIRCLE('',#88,1.55E1);
#98=CIRCLE('',#97,1.55E1);
#107=CIRCLE('',#106,2.2E1);
#112=CIRCLE('',#111,2.2E1);
#150=EDGE_CURVE('',#115,#116,#9,.T.);
#152=EDGE_CURVE('',#116,#132,#107,.T.);
#154=EDGE_CURVE('',#131,#132,#18,.T.);
#156=EDGE_CURVE('',#115,#131,#5,.T.);
#167=EDGE_CURVE('',#115,#131,#14,.T.);
#170=EDGE_CURVE('',#116,#132,#112,.T.);
#184=EDGE_CURVE('',#128,#144,#23,.T.);
#186=EDGE_CURVE('',#128,#144,#28,.T.);
#196=EDGE_CURVE('',#127,#128,#37,.T.);
#199=EDGE_CURVE('',#143,#144,#46,.T.);
#201=EDGE_CURVE('',#127,#143,#33,.T.);
#212=EDGE_CURVE('',#127,#143,#42,.T.);
#228=EDGE_CURVE('',#124,#140,#51,.T.);
#230=EDGE_CURVE('',#124,#140,#56,.T.);
#240=EDGE_CURVE('',#123,#124,#65,.T.);
#243=EDGE_CURVE('',#139,#140,#74,.T.);
#245=EDGE_CURVE('',#123,#139,#61,.T.);
#256=EDGE_CURVE('',#123,#139,#70,.T.);
#268=EDGE_CURVE('',#120,#136,#79,.T.);
#270=EDGE_CURVE('',#120,#136,#84,.T.);
#284=EDGE_CURVE('',#119,#120,#93,.T.);
#287=EDGE_CURVE('',#135,#136,#102,.T.);
#289=EDGE_CURVE('',#119,#135,#89,.T.);
#300=EDGE_CURVE('',#119,#135,#98,.T.);
#321=CLOSED_SHELL('',(#160,#174,#190,#205,#218,#234,#249,#262,#278,#293,#306,
#320));
#322=MANIFOLD_SOLID_BREP('',#321);
#323=(LENGTH_UNIT()NAMED_UNIT(*)SI_UNIT(.MILLI.,.METRE.));
#325=(NAMED_UNIT(*)PLANE_ANGLE_UNIT()SI_UNIT($,.RADIAN.));
#328=(NAMED_UNIT(*)SI_UNIT($,.STERADIAN.)SOLID_ANGLE_UNIT());
#331=ADVANCED_BREP_SHAPE_REPRESENTATION('',(#322),#330);
#338=PRODUCT_DEFINITION('design','',#337,#334);
#339=PRODUCT_DEFINITION_SHAPE('','SHAPE FOR ROUE_JOCKEY_ENTRETOISE.',#338);
#340=SHAPE_DEFINITION_REPRESENTATION(#339,#331);
ENDSEC;
END-ISO-10303-21;
