ISO-10303-21;
HEADER;

FILE_DESCRIPTION(
/* description */ ('VariCAD 2020-1.05 AP-214'),
/* implementation_level */ '2;1');

FILE_NAME(
/* name */ 'entretoise dymag gauche.stp',
/* time_stamp */ '2021-04-18T23:26:03+01:00',
/* author */ (''),
/* organization */ (''),
/* preprocessor_version */ 'VariCAD 2020-1.05',
/* originating_system */ 'VariCAD 2020-1.05; kernel version (20180118)',
/* authorisation */ '');

FILE_SCHEMA(('AUTOMOTIVE_DESIGN'));
ENDSEC;

DATA;
#10=MECHANICAL_DESIGN_GEOMETRIC_PRESENTATION_REPRESENTATION('',(#123),#392);
#11=CONTEXT_DEPENDENT_SHAPE_REPRESENTATION(#13,#213);
#12=NEXT_ASSEMBLY_USAGE_OCCURRENCE('','','',#214,#215,'');
#13=(
REPRESENTATION_RELATIONSHIP('','',#228,#229)
REPRESENTATION_RELATIONSHIP_WITH_TRANSFORMATION(#14)
SHAPE_REPRESENTATION_RELATIONSHIP()
);
#14=ITEM_DEFINED_TRANSFORMATION('','',#261,#231);
#15=SHAPE_REPRESENTATION_RELATIONSHIP('','',#229,#16);
#16=ADVANCED_BREP_SHAPE_REPRESENTATION('',(#17,#260),#391);
#17=MANIFOLD_SOLID_BREP('',#18);
#18=CLOSED_SHELL('',(#27,#28,#29,#30,#31,#32,#33,#34,#35,#36,#37,#38));
#19=FACE_BOUND('',#55,.F.);
#20=FACE_BOUND('',#58,.F.);
#21=FACE_BOUND('',#61,.F.);
#22=FACE_BOUND('',#64,.F.);
#23=PLANE('',#252);
#24=PLANE('',#254);
#25=PLANE('',#256);
#26=PLANE('',#258);
#27=ADVANCED_FACE('',(#39),#115,.T.);
#28=ADVANCED_FACE('',(#40),#116,.T.);
#29=ADVANCED_FACE('',(#41),#117,.T.);
#30=ADVANCED_FACE('',(#42),#118,.F.);
#31=ADVANCED_FACE('',(#19,#43),#23,.T.);
#32=ADVANCED_FACE('',(#44),#119,.T.);
#33=ADVANCED_FACE('',(#20,#45),#24,.T.);
#34=ADVANCED_FACE('',(#46),#120,.T.);
#35=ADVANCED_FACE('',(#21,#47),#25,.T.);
#36=ADVANCED_FACE('',(#48),#121,.T.);
#37=ADVANCED_FACE('',(#22,#49),#26,.T.);
#38=ADVANCED_FACE('',(#50),#122,.F.);
#39=FACE_OUTER_BOUND('',#51,.F.);
#40=FACE_OUTER_BOUND('',#52,.F.);
#41=FACE_OUTER_BOUND('',#53,.F.);
#42=FACE_OUTER_BOUND('',#54,.F.);
#43=FACE_OUTER_BOUND('',#56,.F.);
#44=FACE_OUTER_BOUND('',#57,.F.);
#45=FACE_OUTER_BOUND('',#59,.F.);
#46=FACE_OUTER_BOUND('',#60,.F.);
#47=FACE_OUTER_BOUND('',#62,.F.);
#48=FACE_OUTER_BOUND('',#63,.F.);
#49=FACE_OUTER_BOUND('',#65,.F.);
#50=FACE_OUTER_BOUND('',#66,.F.);
#51=EDGE_LOOP('',(#67,#68,#69,#70));
#52=EDGE_LOOP('',(#71,#72,#73,#74));
#53=EDGE_LOOP('',(#75,#76,#77,#78));
#54=EDGE_LOOP('',(#79,#80,#81,#82));
#55=EDGE_LOOP('',(#83,#84));
#56=EDGE_LOOP('',(#85,#86));
#57=EDGE_LOOP('',(#87,#88,#89,#90));
#58=EDGE_LOOP('',(#91,#92));
#59=EDGE_LOOP('',(#93,#94));
#60=EDGE_LOOP('',(#95,#96,#97,#98));
#61=EDGE_LOOP('',(#99,#100));
#62=EDGE_LOOP('',(#101,#102));
#63=EDGE_LOOP('',(#103,#104,#105,#106));
#64=EDGE_LOOP('',(#107,#108));
#65=EDGE_LOOP('',(#109,#110));
#66=EDGE_LOOP('',(#111,#112,#113,#114));
#67=ORIENTED_EDGE('',*,*,#147,.T.);
#68=ORIENTED_EDGE('',*,*,#155,.F.);
#69=ORIENTED_EDGE('',*,*,#148,.T.);
#70=ORIENTED_EDGE('',*,*,#156,.T.);
#71=ORIENTED_EDGE('',*,*,#149,.F.);
#72=ORIENTED_EDGE('',*,*,#157,.F.);
#73=ORIENTED_EDGE('',*,*,#150,.F.);
#74=ORIENTED_EDGE('',*,*,#158,.T.);
#75=ORIENTED_EDGE('',*,*,#151,.T.);
#76=ORIENTED_EDGE('',*,*,#159,.F.);
#77=ORIENTED_EDGE('',*,*,#152,.T.);
#78=ORIENTED_EDGE('',*,*,#160,.T.);
#79=ORIENTED_EDGE('',*,*,#153,.F.);
#80=ORIENTED_EDGE('',*,*,#161,.F.);
#81=ORIENTED_EDGE('',*,*,#154,.F.);
#82=ORIENTED_EDGE('',*,*,#162,.T.);
#83=ORIENTED_EDGE('',*,*,#170,.T.);
#84=ORIENTED_EDGE('',*,*,#154,.T.);
#85=ORIENTED_EDGE('',*,*,#163,.F.);
#86=ORIENTED_EDGE('',*,*,#147,.F.);
#87=ORIENTED_EDGE('',*,*,#155,.T.);
#88=ORIENTED_EDGE('',*,*,#163,.T.);
#89=ORIENTED_EDGE('',*,*,#156,.F.);
#90=ORIENTED_EDGE('',*,*,#164,.T.);
#91=ORIENTED_EDGE('',*,*,#165,.T.);
#92=ORIENTED_EDGE('',*,*,#149,.T.);
#93=ORIENTED_EDGE('',*,*,#164,.F.);
#94=ORIENTED_EDGE('',*,*,#148,.F.);
#95=ORIENTED_EDGE('',*,*,#157,.T.);
#96=ORIENTED_EDGE('',*,*,#165,.F.);
#97=ORIENTED_EDGE('',*,*,#158,.F.);
#98=ORIENTED_EDGE('',*,*,#166,.F.);
#99=ORIENTED_EDGE('',*,*,#166,.T.);
#100=ORIENTED_EDGE('',*,*,#150,.T.);
#101=ORIENTED_EDGE('',*,*,#167,.F.);
#102=ORIENTED_EDGE('',*,*,#151,.F.);
#103=ORIENTED_EDGE('',*,*,#159,.T.);
#104=ORIENTED_EDGE('',*,*,#167,.T.);
#105=ORIENTED_EDGE('',*,*,#160,.F.);
#106=ORIENTED_EDGE('',*,*,#168,.T.);
#107=ORIENTED_EDGE('',*,*,#169,.T.);
#108=ORIENTED_EDGE('',*,*,#153,.T.);
#109=ORIENTED_EDGE('',*,*,#168,.F.);
#110=ORIENTED_EDGE('',*,*,#152,.F.);
#111=ORIENTED_EDGE('',*,*,#161,.T.);
#112=ORIENTED_EDGE('',*,*,#169,.F.);
#113=ORIENTED_EDGE('',*,*,#162,.F.);
#114=ORIENTED_EDGE('',*,*,#170,.F.);
#115=CYLINDRICAL_SURFACE('',#248,18.500000000001);
#116=CYLINDRICAL_SURFACE('',#249,17.3999999999988);
#117=CYLINDRICAL_SURFACE('',#250,18.9999999999997);
#118=CYLINDRICAL_SURFACE('',#251,9.99999999999957);
#119=CYLINDRICAL_SURFACE('',#253,18.500000000001);
#120=CYLINDRICAL_SURFACE('',#255,17.3999999999988);
#121=CYLINDRICAL_SURFACE('',#257,18.9999999999997);
#122=CYLINDRICAL_SURFACE('',#259,9.99999999999957);
#123=STYLED_ITEM('',(#124),#17);
#124=PRESENTATION_STYLE_ASSIGNMENT((#125));
#125=SURFACE_STYLE_USAGE(.BOTH.,#126);
#126=SURFACE_SIDE_STYLE('',(#127));
#127=SURFACE_STYLE_FILL_AREA(#128);
#128=FILL_AREA_STYLE('',(#129));
#129=FILL_AREA_STYLE_COLOUR('',#130);
#130=COLOUR_RGB('Colour',0.784313725490196,0.784313725490196,0.862745098039216);
#131=LINE('',#360,#139);
#132=LINE('',#361,#140);
#133=LINE('',#362,#141);
#134=LINE('',#363,#142);
#135=LINE('',#364,#143);
#136=LINE('',#365,#144);
#137=LINE('',#366,#145);
#138=LINE('',#367,#146);
#139=VECTOR('',#282,1.50000000000016);
#140=VECTOR('',#283,1.50000000000016);
#141=VECTOR('',#284,11.4);
#142=VECTOR('',#285,11.4);
#143=VECTOR('',#286,5.00000000000013);
#144=VECTOR('',#287,5.00000000000013);
#145=VECTOR('',#288,17.8999999999998);
#146=VECTOR('',#289,17.8999999999998);
#147=EDGE_CURVE('',#202,#201,#171,.T.);
#148=EDGE_CURVE('',#200,#199,#172,.T.);
#149=EDGE_CURVE('',#198,#197,#173,.T.);
#150=EDGE_CURVE('',#196,#195,#174,.T.);
#151=EDGE_CURVE('',#194,#193,#175,.T.);
#152=EDGE_CURVE('',#192,#191,#176,.T.);
#153=EDGE_CURVE('',#190,#189,#177,.T.);
#154=EDGE_CURVE('',#188,#187,#178,.T.);
#155=EDGE_CURVE('',#200,#201,#131,.T.);
#156=EDGE_CURVE('',#199,#202,#132,.T.);
#157=EDGE_CURVE('',#195,#198,#133,.T.);
#158=EDGE_CURVE('',#196,#197,#134,.T.);
#159=EDGE_CURVE('',#192,#193,#135,.T.);
#160=EDGE_CURVE('',#191,#194,#136,.T.);
#161=EDGE_CURVE('',#187,#190,#137,.T.);
#162=EDGE_CURVE('',#188,#189,#138,.T.);
#163=EDGE_CURVE('',#201,#202,#179,.T.);
#164=EDGE_CURVE('',#199,#200,#180,.T.);
#165=EDGE_CURVE('',#197,#198,#181,.T.);
#166=EDGE_CURVE('',#195,#196,#182,.T.);
#167=EDGE_CURVE('',#193,#194,#183,.T.);
#168=EDGE_CURVE('',#191,#192,#184,.T.);
#169=EDGE_CURVE('',#189,#190,#185,.T.);
#170=EDGE_CURVE('',#187,#188,#186,.T.);
#171=CIRCLE('',#232,18.5000000000012);
#172=CIRCLE('',#233,18.5000000000008);
#173=CIRCLE('',#234,17.399999999999);
#174=CIRCLE('',#235,17.3999999999985);
#175=CIRCLE('',#236,18.9999999999997);
#176=CIRCLE('',#237,18.9999999999997);
#177=CIRCLE('',#238,9.99999999999957);
#178=CIRCLE('',#239,9.99999999999957);
#179=CIRCLE('',#240,18.5000000000012);
#180=CIRCLE('',#241,18.5000000000008);
#181=CIRCLE('',#242,17.399999999999);
#182=CIRCLE('',#243,17.3999999999985);
#183=CIRCLE('',#244,18.9999999999997);
#184=CIRCLE('',#245,18.9999999999997);
#185=CIRCLE('',#246,9.99999999999957);
#186=CIRCLE('',#247,9.99999999999957);
#187=VERTEX_POINT('',#336);
#188=VERTEX_POINT('',#337);
#189=VERTEX_POINT('',#338);
#190=VERTEX_POINT('',#339);
#191=VERTEX_POINT('',#340);
#192=VERTEX_POINT('',#341);
#193=VERTEX_POINT('',#342);
#194=VERTEX_POINT('',#343);
#195=VERTEX_POINT('',#344);
#196=VERTEX_POINT('',#345);
#197=VERTEX_POINT('',#346);
#198=VERTEX_POINT('',#347);
#199=VERTEX_POINT('',#348);
#200=VERTEX_POINT('',#349);
#201=VERTEX_POINT('',#350);
#202=VERTEX_POINT('',#351);
#203=PRODUCT_CATEGORY_RELATIONSHIP('','',#207,#205);
#204=PRODUCT_CATEGORY_RELATIONSHIP('','',#208,#206);
#205=PRODUCT_RELATED_PRODUCT_CATEGORY('detail','',(#220));
#206=PRODUCT_RELATED_PRODUCT_CATEGORY('detail','',(#221));
#207=PRODUCT_CATEGORY('part','');
#208=PRODUCT_CATEGORY('part','');
#209=SHAPE_DEFINITION_REPRESENTATION(#211,#228);
#210=SHAPE_DEFINITION_REPRESENTATION(#212,#229);
#211=PRODUCT_DEFINITION_SHAPE('','Shape',#214);
#212=PRODUCT_DEFINITION_SHAPE('','Shape',#215);
#213=PRODUCT_DEFINITION_SHAPE('','',#12);
#214=PRODUCT_DEFINITION('','',#216,#218);
#215=PRODUCT_DEFINITION('','',#217,#219);
#216=PRODUCT_DEFINITION_FORMATION('','',#220);
#217=PRODUCT_DEFINITION_FORMATION('','',#221);
#218=PRODUCT_DEFINITION_CONTEXT('part definition',#226,'');
#219=PRODUCT_DEFINITION_CONTEXT('part definition',#227,'');
#220=PRODUCT('entretoise dymag gauche','entretoise dymag gauche',
'not specified',(#222));
#221=PRODUCT('','','not specified',(#223));
#222=PRODUCT_CONTEXT('',#226,'mechanical');
#223=PRODUCT_CONTEXT('',#227,'mechanical');
#224=APPLICATION_PROTOCOL_DEFINITION('Draft International Standard',
'automotive_design',1997,#226);
#225=APPLICATION_PROTOCOL_DEFINITION('Draft International Standard',
'automotive_design',1997,#227);
#226=APPLICATION_CONTEXT('automotive design');
#227=APPLICATION_CONTEXT('automotive design');
#228=SHAPE_REPRESENTATION('entretoise dymag gauche',(#230,#261),#390);
#229=SHAPE_REPRESENTATION('',(#231),#391);
#230=AXIS2_PLACEMENT_3D('',#334,#262,#263);
#231=AXIS2_PLACEMENT_3D('',#335,#264,#265);
#232=AXIS2_PLACEMENT_3D('',#352,#266,#267);
#233=AXIS2_PLACEMENT_3D('',#353,#268,#269);
#234=AXIS2_PLACEMENT_3D('',#354,#270,#271);
#235=AXIS2_PLACEMENT_3D('',#355,#272,#273);
#236=AXIS2_PLACEMENT_3D('',#356,#274,#275);
#237=AXIS2_PLACEMENT_3D('',#357,#276,#277);
#238=AXIS2_PLACEMENT_3D('',#358,#278,#279);
#239=AXIS2_PLACEMENT_3D('',#359,#280,#281);
#240=AXIS2_PLACEMENT_3D('',#368,#290,#291);
#241=AXIS2_PLACEMENT_3D('',#369,#292,#293);
#242=AXIS2_PLACEMENT_3D('',#370,#294,#295);
#243=AXIS2_PLACEMENT_3D('',#371,#296,#297);
#244=AXIS2_PLACEMENT_3D('',#372,#298,#299);
#245=AXIS2_PLACEMENT_3D('',#373,#300,#301);
#246=AXIS2_PLACEMENT_3D('',#374,#302,#303);
#247=AXIS2_PLACEMENT_3D('',#375,#304,#305);
#248=AXIS2_PLACEMENT_3D('',#376,#306,#307);
#249=AXIS2_PLACEMENT_3D('',#377,#308,#309);
#250=AXIS2_PLACEMENT_3D('',#378,#310,#311);
#251=AXIS2_PLACEMENT_3D('',#379,#312,#313);
#252=AXIS2_PLACEMENT_3D('',#380,#314,#315);
#253=AXIS2_PLACEMENT_3D('',#381,#316,#317);
#254=AXIS2_PLACEMENT_3D('',#382,#318,#319);
#255=AXIS2_PLACEMENT_3D('',#383,#320,#321);
#256=AXIS2_PLACEMENT_3D('',#384,#322,#323);
#257=AXIS2_PLACEMENT_3D('',#385,#324,#325);
#258=AXIS2_PLACEMENT_3D('',#386,#326,#327);
#259=AXIS2_PLACEMENT_3D('',#387,#328,#329);
#260=AXIS2_PLACEMENT_3D('',#388,#330,#331);
#261=AXIS2_PLACEMENT_3D('',#389,#332,#333);
#262=DIRECTION('',(0.,0.,1.));
#263=DIRECTION('',(1.,0.,0.));
#264=DIRECTION('',(0.,0.,1.));
#265=DIRECTION('',(1.,0.,0.));
#266=DIRECTION('',(-1.,0.,0.));
#267=DIRECTION('',(0.,1.,0.));
#268=DIRECTION('',(1.,0.,0.));
#269=DIRECTION('',(0.,-1.,0.));
#270=DIRECTION('',(1.,0.,0.));
#271=DIRECTION('',(0.,-1.,0.));
#272=DIRECTION('',(-1.,0.,0.));
#273=DIRECTION('',(0.,1.,0.));
#274=DIRECTION('',(-1.,0.,0.));
#275=DIRECTION('',(0.,1.,0.));
#276=DIRECTION('',(1.,0.,0.));
#277=DIRECTION('',(0.,-1.,0.));
#278=DIRECTION('',(1.,0.,0.));
#279=DIRECTION('',(0.,-1.,0.));
#280=DIRECTION('',(-1.,0.,0.));
#281=DIRECTION('',(0.,1.,0.));
#282=DIRECTION('',(-1.,0.,0.));
#283=DIRECTION('',(-1.,0.,0.));
#284=DIRECTION('',(-1.,0.,0.));
#285=DIRECTION('',(-1.,0.,0.));
#286=DIRECTION('',(-1.,0.,0.));
#287=DIRECTION('',(-1.,0.,0.));
#288=DIRECTION('',(1.,0.,0.));
#289=DIRECTION('',(1.,0.,0.));
#290=DIRECTION('',(-1.,0.,0.));
#291=DIRECTION('',(0.,-1.,0.));
#292=DIRECTION('',(1.,0.,0.));
#293=DIRECTION('',(0.,1.,0.));
#294=DIRECTION('',(1.,0.,0.));
#295=DIRECTION('',(0.,1.,0.));
#296=DIRECTION('',(-1.,0.,0.));
#297=DIRECTION('',(0.,-1.,0.));
#298=DIRECTION('',(-1.,0.,0.));
#299=DIRECTION('',(0.,-1.,0.));
#300=DIRECTION('',(1.,0.,0.));
#301=DIRECTION('',(0.,1.,0.));
#302=DIRECTION('',(1.,0.,0.));
#303=DIRECTION('',(0.,1.,0.));
#304=DIRECTION('',(-1.,0.,0.));
#305=DIRECTION('',(0.,-1.,0.));
#306=DIRECTION('',(1.,0.,0.));
#307=DIRECTION('',(0.,-1.,0.));
#308=DIRECTION('',(1.,0.,0.));
#309=DIRECTION('',(0.,-1.,0.));
#310=DIRECTION('',(1.,0.,0.));
#311=DIRECTION('',(0.,-1.,0.));
#312=DIRECTION('',(1.,0.,0.));
#313=DIRECTION('',(0.,-1.,0.));
#314=DIRECTION('',(-1.,0.,0.));
#315=DIRECTION('',(0.,0.,1.));
#316=DIRECTION('',(1.,0.,0.));
#317=DIRECTION('',(0.,1.,0.));
#318=DIRECTION('',(1.,0.,0.));
#319=DIRECTION('',(0.,0.,-1.));
#320=DIRECTION('',(1.,0.,0.));
#321=DIRECTION('',(0.,1.,0.));
#322=DIRECTION('',(-1.,0.,0.));
#323=DIRECTION('',(0.,0.,1.));
#324=DIRECTION('',(1.,0.,0.));
#325=DIRECTION('',(0.,1.,0.));
#326=DIRECTION('',(1.,0.,0.));
#327=DIRECTION('',(0.,0.,-1.));
#328=DIRECTION('',(1.,0.,0.));
#329=DIRECTION('',(0.,1.,0.));
#330=DIRECTION('',(0.,0.,1.));
#331=DIRECTION('',(1.,0.,0.));
#332=DIRECTION('',(0.,0.,1.));
#333=DIRECTION('',(1.,0.,0.));
#334=CARTESIAN_POINT('',(0.,0.,0.));
#335=CARTESIAN_POINT('',(0.,0.,0.));
#336=CARTESIAN_POINT('',(11.1568890433938,-9.99999999999957,0.));
#337=CARTESIAN_POINT('',(11.1568890433938,9.99999999999957,0.));
#338=CARTESIAN_POINT('',(29.0568890433936,9.99999999999957,0.));
#339=CARTESIAN_POINT('',(29.0568890433936,-9.99999999999957,0.));
#340=CARTESIAN_POINT('',(29.0568890433938,18.9999999999997,0.));
#341=CARTESIAN_POINT('',(29.0568890433938,-18.9999999999997,0.));
#342=CARTESIAN_POINT('',(24.0568890433936,-18.9999999999997,0.));
#343=CARTESIAN_POINT('',(24.0568890433936,18.9999999999997,0.));
#344=CARTESIAN_POINT('',(24.0568890433937,-17.3999999999987,0.));
#345=CARTESIAN_POINT('',(24.0568890433937,17.3999999999985,0.));
#346=CARTESIAN_POINT('',(12.6568890433936,17.399999999999,0.));
#347=CARTESIAN_POINT('',(12.6568890433936,-17.3999999999988,0.));
#348=CARTESIAN_POINT('',(12.6568890433938,18.5000000000008,0.));
#349=CARTESIAN_POINT('',(12.6568890433938,-18.5000000000009,0.));
#350=CARTESIAN_POINT('',(11.1568890433936,-18.500000000001,0.));
#351=CARTESIAN_POINT('',(11.1568890433936,18.5000000000012,0.));
#352=CARTESIAN_POINT('',(11.1568890433936,0.,0.));
#353=CARTESIAN_POINT('',(12.6568890433938,0.,0.));
#354=CARTESIAN_POINT('',(12.6568890433936,0.,0.));
#355=CARTESIAN_POINT('',(24.0568890433937,0.,0.));
#356=CARTESIAN_POINT('',(24.0568890433937,0.,0.));
#357=CARTESIAN_POINT('',(29.0568890433938,0.,0.));
#358=CARTESIAN_POINT('',(29.0568890433936,0.,0.));
#359=CARTESIAN_POINT('',(11.1568890433938,0.,0.));
#360=CARTESIAN_POINT('',(12.6568890433938,-18.5000000000012,0.));
#361=CARTESIAN_POINT('',(12.6568890433938,18.5000000000008,0.));
#362=CARTESIAN_POINT('',(24.0568890433937,-17.399999999999,0.));
#363=CARTESIAN_POINT('',(24.0568890433937,17.3999999999985,0.));
#364=CARTESIAN_POINT('',(29.0568890433938,-18.9999999999997,0.));
#365=CARTESIAN_POINT('',(29.0568890433938,18.9999999999997,0.));
#366=CARTESIAN_POINT('',(11.1568890433938,-9.99999999999957,0.));
#367=CARTESIAN_POINT('',(11.1568890433938,9.99999999999957,0.));
#368=CARTESIAN_POINT('',(11.1568890433936,0.,0.));
#369=CARTESIAN_POINT('',(12.6568890433938,0.,0.));
#370=CARTESIAN_POINT('',(12.6568890433936,0.,0.));
#371=CARTESIAN_POINT('',(24.0568890433937,0.,0.));
#372=CARTESIAN_POINT('',(24.0568890433937,0.,0.));
#373=CARTESIAN_POINT('',(29.0568890433938,0.,0.));
#374=CARTESIAN_POINT('',(29.0568890433936,0.,0.));
#375=CARTESIAN_POINT('',(11.1568890433938,0.,0.));
#376=CARTESIAN_POINT('',(12.6568890433938,0.,0.));
#377=CARTESIAN_POINT('',(24.0568890433937,0.,0.));
#378=CARTESIAN_POINT('',(29.0568890433938,0.,0.));
#379=CARTESIAN_POINT('',(11.1568890433938,0.,0.));
#380=CARTESIAN_POINT('',(11.1568890433936,-18.8700000000012,-18.8700000000012));
#381=CARTESIAN_POINT('',(12.6568890433938,0.,0.));
#382=CARTESIAN_POINT('',(12.6568890433936,-18.8700000000008,18.8700000000007));
#383=CARTESIAN_POINT('',(24.0568890433937,0.,0.));
#384=CARTESIAN_POINT('',(24.0568890433936,-19.3799999999997,-19.3799999999997));
#385=CARTESIAN_POINT('',(29.0568890433938,0.,0.));
#386=CARTESIAN_POINT('',(29.0568890433936,-19.3799999999997,19.3799999999996));
#387=CARTESIAN_POINT('',(11.1568890433938,0.,0.));
#388=CARTESIAN_POINT('',(0.,0.,0.));
#389=CARTESIAN_POINT('',(0.,0.,0.));
#390=(
GEOMETRIC_REPRESENTATION_CONTEXT(3)
GLOBAL_UNCERTAINTY_ASSIGNED_CONTEXT((#393))
GLOBAL_UNIT_ASSIGNED_CONTEXT((#402,#399,#396))
REPRESENTATION_CONTEXT('','')
);
#391=(
GEOMETRIC_REPRESENTATION_CONTEXT(3)
GLOBAL_UNCERTAINTY_ASSIGNED_CONTEXT((#394))
GLOBAL_UNIT_ASSIGNED_CONTEXT((#403,#400,#397))
REPRESENTATION_CONTEXT('','')
);
#392=(
GEOMETRIC_REPRESENTATION_CONTEXT(3)
GLOBAL_UNCERTAINTY_ASSIGNED_CONTEXT((#395))
GLOBAL_UNIT_ASSIGNED_CONTEXT((#404,#401,#398))
REPRESENTATION_CONTEXT('','')
);
#393=UNCERTAINTY_MEASURE_WITH_UNIT(LENGTH_MEASURE(0.001),#402,'TOL_CRV',
'CONFUSED CURVE UNCERTAINTY');
#394=UNCERTAINTY_MEASURE_WITH_UNIT(LENGTH_MEASURE(0.001),#403,'TOL_CRV',
'CONFUSED CURVE UNCERTAINTY');
#395=UNCERTAINTY_MEASURE_WITH_UNIT(LENGTH_MEASURE(0.001),#404,'TOL_CRV',
'CONFUSED CURVE UNCERTAINTY');
#396=(
SI_UNIT($,.STERADIAN.)
SOLID_ANGLE_UNIT()
NAMED_UNIT(*)
);
#397=(
SI_UNIT($,.STERADIAN.)
SOLID_ANGLE_UNIT()
NAMED_UNIT(*)
);
#398=(
SI_UNIT($,.STERADIAN.)
SOLID_ANGLE_UNIT()
NAMED_UNIT(*)
);
#399=(
PLANE_ANGLE_UNIT()
NAMED_UNIT(*)
SI_UNIT($,.RADIAN.)
);
#400=(
PLANE_ANGLE_UNIT()
NAMED_UNIT(*)
SI_UNIT($,.RADIAN.)
);
#401=(
PLANE_ANGLE_UNIT()
NAMED_UNIT(*)
SI_UNIT($,.RADIAN.)
);
#402=(
LENGTH_UNIT()
NAMED_UNIT(*)
SI_UNIT(.MILLI.,.METRE.)
);
#403=(
LENGTH_UNIT()
NAMED_UNIT(*)
SI_UNIT(.MILLI.,.METRE.)
);
#404=(
LENGTH_UNIT()
NAMED_UNIT(*)
SI_UNIT(.MILLI.,.METRE.)
);
ENDSEC;
END-ISO-10303-21;
