ISO-10303-21;
HEADER;
FILE_DESCRIPTION (( 'STEP AP214' ),
    '1' );
FILE_NAME ('verrou5.STEP',
    '2021-04-17T18:07:53',
    ( '' ),
    ( '' ),
    'SwSTEP 2.0',
    'SolidWorks 2020',
    '' );
FILE_SCHEMA (( 'AUTOMOTIVE_DESIGN' ));
ENDSEC;

DATA;
#1 = AXIS2_PLACEMENT_3D ( 'NONE', #354, #191, #139 ) ;
#2 = UNCERTAINTY_MEASURE_WITH_UNIT (LENGTH_MEASURE( 1.000000000000000082E-05 ), #18, 'distance_accuracy_value', 'NONE');
#3 = CYLINDRICAL_SURFACE ( 'NONE', #261, 6.000000000000000888 ) ;
#4 = EDGE_LOOP ( 'NONE', ( #80, #326, #32, #91 ) ) ;
#5 = AXIS2_PLACEMENT_3D ( 'NONE', #17, #74, #210 ) ;
#6 = VERTEX_POINT ( 'NONE', #57 ) ;
#7 = PRODUCT_DEFINITION_CONTEXT ( 'detailed design', #67, 'design' ) ;
#8 = AXIS2_PLACEMENT_3D ( 'NONE', #316, #347, #234 ) ;
#9 = DIRECTION ( 'NONE',  ( 1.000000000000000000, 0.000000000000000000, 0.000000000000000000 ) ) ;
#10 = EDGE_CURVE ( 'NONE', #216, #6, #155, .T. ) ;
#11 = COLOUR_RGB ( '',0.7921568627450980005, 0.8196078431372548767, 0.9333333333333333481 ) ;
#12 = DIRECTION ( 'NONE',  ( -0.000000000000000000, -0.000000000000000000, 1.000000000000000000 ) ) ;
#13 = AXIS2_PLACEMENT_3D ( 'NONE', #82, #268, #322 ) ;
#14 = FACE_OUTER_BOUND ( 'NONE', #4, .T. ) ;
#15 = PLANE ( 'NONE',  #258 ) ;
#16 =( NAMED_UNIT ( * ) PLANE_ANGLE_UNIT ( ) SI_UNIT ( $, .RADIAN. ) );
#17 = CARTESIAN_POINT ( 'NONE',  ( 0.000000000000000000, 0.000000000000000000, 15.00000000000000000 ) ) ;
#18 =( LENGTH_UNIT ( ) NAMED_UNIT ( * ) SI_UNIT ( .MILLI., .METRE. ) );
#19 = DIRECTION ( 'NONE',  ( 0.000000000000000000, 0.000000000000000000, 1.000000000000000000 ) ) ;
#20 = CARTESIAN_POINT ( 'NONE',  ( 0.000000000000000000, 0.000000000000000000, 15.00000000000000000 ) ) ;
#21 = CARTESIAN_POINT ( 'NONE',  ( 6.000000000000000888, 7.347880794884120722E-16, 0.000000000000000000 ) ) ;
#22 = DIRECTION ( 'NONE',  ( 1.000000000000000000, 0.000000000000000000, -0.000000000000000000 ) ) ;
#23 = CIRCLE ( 'NONE', #13, 2.499999999999990230 ) ;
#24 =( NAMED_UNIT ( * ) PLANE_ANGLE_UNIT ( ) SI_UNIT ( $, .RADIAN. ) );
#25 = VERTEX_POINT ( 'NONE', #21 ) ;
#26 = FACE_OUTER_BOUND ( 'NONE', #84, .T. ) ;
#27 = VERTEX_POINT ( 'NONE', #110 ) ;
#28 = CARTESIAN_POINT ( 'NONE',  ( 0.000000000000000000, 0.000000000000000000, 3.000000000000000000 ) ) ;
#29 = EDGE_CURVE ( 'NONE', #63, #142, #133, .T. ) ;
#30 = DIRECTION ( 'NONE',  ( -0.000000000000000000, -0.000000000000000000, -1.000000000000000000 ) ) ;
#31 = VECTOR ( 'NONE', #77, 1000.000000000000000 ) ;
#32 = ORIENTED_EDGE ( 'NONE', *, *, #196, .T. ) ;
#33 =( GEOMETRIC_REPRESENTATION_CONTEXT ( 3 ) GLOBAL_UNCERTAINTY_ASSIGNED_CONTEXT ( ( #201 ) ) GLOBAL_UNIT_ASSIGNED_CONTEXT ( ( #104, #16, #101 ) ) REPRESENTATION_CONTEXT ( 'NONE', 'WORKASPACE' ) );
#34 = FILL_AREA_STYLE ('',( #119 ) ) ;
#35 = ORIENTED_EDGE ( 'NONE', *, *, #37, .F. ) ;
#36 =( NAMED_UNIT ( * ) PLANE_ANGLE_UNIT ( ) SI_UNIT ( $, .RADIAN. ) );
#37 = EDGE_CURVE ( 'NONE', #54, #323, #23, .T. ) ;
#38 = AXIS2_PLACEMENT_3D ( 'NONE', #184, #231, #290 ) ;
#39 = UNCERTAINTY_MEASURE_WITH_UNIT (LENGTH_MEASURE( 1.000000000000000082E-05 ), #277, 'distance_accuracy_value', 'NONE');
#40 = APPLICATION_CONTEXT ( 'automotive_design' ) ;
#41 = PRESENTATION_LAYER_ASSIGNMENT (  '', '', ( #205 ) ) ;
#42 = MECHANICAL_DESIGN_GEOMETRIC_PRESENTATION_REPRESENTATION (  '', ( #176 ), #243 ) ;
#43 = CYLINDRICAL_SURFACE ( 'NONE', #203, 4.000000000000000000 ) ;
#44 =( NAMED_UNIT ( * ) PLANE_ANGLE_UNIT ( ) SI_UNIT ( $, .RADIAN. ) );
#45 = SURFACE_STYLE_USAGE ( .BOTH. , #73 ) ;
#46 = CIRCLE ( 'NONE', #66, 2.499999999999996891 ) ;
#47 = CARTESIAN_POINT ( 'NONE',  ( -3.307073334866547716E-15, 0.000000000000000000, 1.497848452431099098 ) ) ;
#48 = CARTESIAN_POINT ( 'NONE',  ( 0.000000000000000000, 0.000000000000000000, 15.00000000000000000 ) ) ;
#49 = SURFACE_STYLE_USAGE ( .BOTH. , #102 ) ;
#50 = DIRECTION ( 'NONE',  ( -0.8571673007021118895, 1.049727191138618079E-16, 0.5150380749100549327 ) ) ;
#51 = FACE_OUTER_BOUND ( 'NONE', #213, .T. ) ;
#52 = CONICAL_SURFACE ( 'NONE', #94, 2.499999999999996891, 1.029744258676653645 ) ;
#53 = DIRECTION ( 'NONE',  ( -0.000000000000000000, -0.000000000000000000, -1.000000000000000000 ) ) ;
#54 = VERTEX_POINT ( 'NONE', #294 ) ;
#55 = ORIENTED_EDGE ( 'NONE', *, *, #308, .T. ) ;
#56 = ORIENTED_EDGE ( 'NONE', *, *, #118, .T. ) ;
#57 = CARTESIAN_POINT ( 'NONE',  ( -2.499999999999996891, 3.061616997868379197E-16, 2.999999999999999112 ) ) ;
#58 = PRODUCT_RELATED_PRODUCT_CATEGORY ( 'part', '', ( #98 ) ) ;
#59 = ORIENTED_EDGE ( 'NONE', *, *, #279, .T. ) ;
#60 = DIRECTION ( 'NONE',  ( -0.000000000000000000, -0.000000000000000000, 1.000000000000000000 ) ) ;
#61 = VERTEX_POINT ( 'NONE', #188 ) ;
#62 = PRESENTATION_STYLE_ASSIGNMENT (( #302 ) ) ;
#63 = VERTEX_POINT ( 'NONE', #345 ) ;
#64 = DIRECTION ( 'NONE',  ( 1.000000000000000000, 0.000000000000000000, 0.000000000000000000 ) ) ;
#65 = AXIS2_PLACEMENT_3D ( 'NONE', #209, #342, #9 ) ;
#66 = AXIS2_PLACEMENT_3D ( 'NONE', #275, #116, #324 ) ;
#67 = APPLICATION_CONTEXT ( 'automotive_design' ) ;
#68 =( GEOMETRIC_REPRESENTATION_CONTEXT ( 3 ) GLOBAL_UNCERTAINTY_ASSIGNED_CONTEXT ( ( #39 ) ) GLOBAL_UNIT_ASSIGNED_CONTEXT ( ( #277, #36, #217 ) ) REPRESENTATION_CONTEXT ( 'NONE', 'WORKASPACE' ) );
#69 = AXIS2_PLACEMENT_3D ( 'NONE', #85, #60, #220 ) ;
#70 = PRESENTATION_LAYER_ASSIGNMENT (  '', '', ( #149 ) ) ;
#71 = CYLINDRICAL_SURFACE ( 'NONE', #5, 4.000000000000000000 ) ;
#72 = LINE ( 'NONE', #286, #252 ) ;
#73 = SURFACE_SIDE_STYLE ('',( #181 ) ) ;
#74 = DIRECTION ( 'NONE',  ( -0.000000000000000000, -0.000000000000000000, -1.000000000000000000 ) ) ;
#75 = FILL_AREA_STYLE ('',( #287 ) ) ;
#76 = DIRECTION ( 'NONE',  ( -0.000000000000000000, -0.000000000000000000, -1.000000000000000000 ) ) ;
#77 = DIRECTION ( 'NONE',  ( 0.8571673007021118895, 0.000000000000000000, 0.5150380749100549327 ) ) ;
#78 = FACE_BOUND ( 'NONE', #272, .T. ) ;
#79 = FILL_AREA_STYLE_COLOUR ( '', #330 ) ;
#80 = ORIENTED_EDGE ( 'NONE', *, *, #81, .F. ) ;
#81 = EDGE_CURVE ( 'NONE', #190, #61, #160, .T. ) ;
#82 = CARTESIAN_POINT ( 'NONE',  ( 0.000000000000000000, 0.000000000000000000, 15.00000000000000178 ) ) ;
#83 = ADVANCED_BREP_SHAPE_REPRESENTATION ( 'verrou5', ( #134, #65 ), #228 ) ;
#84 = EDGE_LOOP ( 'NONE', ( #56, #86 ) ) ;
#85 = CARTESIAN_POINT ( 'NONE',  ( 0.000000000000000000, 0.000000000000000000, 2.999999999999999112 ) ) ;
#86 = ORIENTED_EDGE ( 'NONE', *, *, #146, .T. ) ;
#87 = PLANE ( 'NONE',  #167 ) ;
#88 = DIRECTION ( 'NONE',  ( -1.000000000000000000, 0.000000000000000000, 0.000000000000000000 ) ) ;
#89 = EDGE_LOOP ( 'NONE', ( #222, #244, #159 ) ) ;
#90 = DIRECTION ( 'NONE',  ( 0.000000000000000000, 0.000000000000000000, 1.000000000000000000 ) ) ;
#91 = ORIENTED_EDGE ( 'NONE', *, *, #211, .T. ) ;
#92 = ORIENTED_EDGE ( 'NONE', *, *, #240, .T. ) ;
#93 = ADVANCED_FACE ( 'NONE', ( #78, #26 ), #137, .T. ) ;
#94 = AXIS2_PLACEMENT_3D ( 'NONE', #291, #259, #310 ) ;
#95 = CLOSED_SHELL ( 'NONE', ( #257, #337, #264, #123, #177, #93, #187, #218, #332, #293, #103 ) ) ;
#96 = AXIS2_PLACEMENT_3D ( 'NONE', #340, #178, #266 ) ;
#97 = EDGE_CURVE ( 'NONE', #142, #25, #114, .T. ) ;
#98 = PRODUCT ( 'verrou5', 'verrou5', '', ( #204 ) ) ;
#99 = DIRECTION ( 'NONE',  ( 1.000000000000000000, 0.000000000000000000, 0.000000000000000000 ) ) ;
#100 = CARTESIAN_POINT ( 'NONE',  ( 0.000000000000000000, 0.000000000000000000, 0.000000000000000000 ) ) ;
#101 =( NAMED_UNIT ( * ) SI_UNIT ( $, .STERADIAN. ) SOLID_ANGLE_UNIT ( ) );
#102 = SURFACE_SIDE_STYLE ('',( #271 ) ) ;
#103 = ADVANCED_FACE ( 'NONE', ( #131 ), #208, .F. ) ;
#104 =( LENGTH_UNIT ( ) NAMED_UNIT ( * ) SI_UNIT ( .MILLI., .METRE. ) );
#105 = DIRECTION ( 'NONE',  ( -1.000000000000000000, 0.000000000000000000, 0.000000000000000000 ) ) ;
#106 = ORIENTED_EDGE ( 'NONE', *, *, #251, .T. ) ;
#107 = EDGE_CURVE ( 'NONE', #190, #301, #306, .T. ) ;
#108 = CARTESIAN_POINT ( 'NONE',  ( 0.000000000000000000, 0.000000000000000000, 15.00000000000000000 ) ) ;
#109 = EDGE_LOOP ( 'NONE', ( #219, #168, #299, #297 ) ) ;
#110 = CARTESIAN_POINT ( 'NONE',  ( -4.000000000000000000, 0.000000000000000000, 3.000000000000000000 ) ) ;
#111 = CONICAL_SURFACE ( 'NONE', #96, 2.499999999999996891, 1.029744258676653645 ) ;
#112 = ORIENTED_EDGE ( 'NONE', *, *, #346, .T. ) ;
#113 = CARTESIAN_POINT ( 'NONE',  ( 0.000000000000000000, 0.000000000000000000, 15.00000000000000178 ) ) ;
#114 = CIRCLE ( 'NONE', #38, 6.000000000000000888 ) ;
#115 = ORIENTED_EDGE ( 'NONE', *, *, #10, .F. ) ;
#116 = DIRECTION ( 'NONE',  ( -0.000000000000000000, -0.000000000000000000, 1.000000000000000000 ) ) ;
#117 = ORIENTED_EDGE ( 'NONE', *, *, #346, .F. ) ;
#118 = EDGE_CURVE ( 'NONE', #63, #348, #175, .T. ) ;
#119 = FILL_AREA_STYLE_COLOUR ( '', #343 ) ;
#120 = PRODUCT_DEFINITION ( 'UNKNOWN', '', #255, #7 ) ;
#121 = ORIENTED_EDGE ( 'NONE', *, *, #282, .T. ) ;
#122 = CIRCLE ( 'NONE', #269, 2.499999999999990230 ) ;
#123 = ADVANCED_FACE ( 'NONE', ( #328 ), #3, .T. ) ;
#124 = SURFACE_STYLE_USAGE ( .BOTH. , #317 ) ;
#125 = PRESENTATION_LAYER_ASSIGNMENT (  '', '', ( #176 ) ) ;
#126 = FACE_BOUND ( 'NONE', #303, .T. ) ;
#127 = CARTESIAN_POINT ( 'NONE',  ( -2.499999999999993339, 3.061616997868375253E-16, 15.00000000000000000 ) ) ;
#128 = FILL_AREA_STYLE ('',( #262 ) ) ;
#129 = CARTESIAN_POINT ( 'NONE',  ( 4.000000000000000000, 4.898587196589412829E-16, 15.00000000000000000 ) ) ;
#130 =( NAMED_UNIT ( * ) SI_UNIT ( $, .STERADIAN. ) SOLID_ANGLE_UNIT ( ) );
#131 = FACE_OUTER_BOUND ( 'NONE', #147, .T. ) ;
#132 = CARTESIAN_POINT ( 'NONE',  ( 0.000000000000000000, 0.000000000000000000, 15.00000000000000000 ) ) ;
#133 = LINE ( 'NONE', #215, #185 ) ;
#134 = MANIFOLD_SOLID_BREP ( 'Trou taraudé profond M6x1.01', #95 ) ;
#135 = CARTESIAN_POINT ( 'NONE',  ( 6.000000000000000888, 7.347880794884120722E-16, 3.000000000000000000 ) ) ;
#136 = ORIENTED_EDGE ( 'NONE', *, *, #97, .F. ) ;
#137 = PLANE ( 'NONE',  #148 ) ;
#138 = ORIENTED_EDGE ( 'NONE', *, *, #211, .F. ) ;
#139 = DIRECTION ( 'NONE',  ( 1.000000000000000000, 0.000000000000000000, 0.000000000000000000 ) ) ;
#140 = AXIS2_PLACEMENT_3D ( 'NONE', #132, #311, #292 ) ;
#141 = DIRECTION ( 'NONE',  ( -1.000000000000000000, 0.000000000000000000, 0.000000000000000000 ) ) ;
#142 = VERTEX_POINT ( 'NONE', #242 ) ;
#143 = DIRECTION ( 'NONE',  ( 1.000000000000000000, 0.000000000000000000, 0.000000000000000000 ) ) ;
#144 = ORIENTED_EDGE ( 'NONE', *, *, #172, .T. ) ;
#145 = CARTESIAN_POINT ( 'NONE',  ( 0.000000000000000000, 0.000000000000000000, 3.000000000000000000 ) ) ;
#146 = EDGE_CURVE ( 'NONE', #348, #63, #152, .T. ) ;
#147 = EDGE_LOOP ( 'NONE', ( #197, #193, #55, #144 ) ) ;
#148 = AXIS2_PLACEMENT_3D ( 'NONE', #239, #19, #312 ) ;
#149 = STYLED_ITEM ( 'NONE', ( #270 ), #83 ) ;
#150 = DIRECTION ( 'NONE',  ( 1.000000000000000000, 0.000000000000000000, 0.000000000000000000 ) ) ;
#151 = DIRECTION ( 'NONE',  ( 0.000000000000000000, 0.000000000000000000, 1.000000000000000000 ) ) ;
#152 = CIRCLE ( 'NONE', #1, 6.000000000000000888 ) ;
#153 = CARTESIAN_POINT ( 'NONE',  ( -4.000000000000000000, 0.000000000000000000, 15.00000000000000000 ) ) ;
#154 = CARTESIAN_POINT ( 'NONE',  ( 0.000000000000000000, 0.000000000000000000, 3.000000000000000000 ) ) ;
#155 = LINE ( 'NONE', #192, #325 ) ;
#156 =( LENGTH_UNIT ( ) NAMED_UNIT ( * ) SI_UNIT ( .MILLI., .METRE. ) );
#157 = AXIS2_PLACEMENT_3D ( 'NONE', #108, #179, #150 ) ;
#158 = LINE ( 'NONE', #288, #314 ) ;
#159 = ORIENTED_EDGE ( 'NONE', *, *, #161, .T. ) ;
#160 = LINE ( 'NONE', #273, #162 ) ;
#161 = EDGE_CURVE ( 'NONE', #6, #174, #46, .T. ) ;
#162 = VECTOR ( 'NONE', #319, 1000.000000000000000 ) ;
#163 = EDGE_LOOP ( 'NONE', ( #333, #59, #112, #353 ) ) ;
#164 = DIRECTION ( 'NONE',  ( 0.000000000000000000, 0.000000000000000000, 1.000000000000000000 ) ) ;
#165 = CYLINDRICAL_SURFACE ( 'NONE', #173, 6.000000000000000888 ) ;
#166 = EDGE_CURVE ( 'NONE', #174, #6, #305, .T. ) ;
#167 = AXIS2_PLACEMENT_3D ( 'NONE', #198, #164, #202 ) ;
#168 = ORIENTED_EDGE ( 'NONE', *, *, #81, .T. ) ;
#169 = CARTESIAN_POINT ( 'NONE',  ( 0.000000000000000000, 0.000000000000000000, 15.00000000000000000 ) ) ;
#170 = ORIENTED_EDGE ( 'NONE', *, *, #118, .F. ) ;
#171 =( GEOMETRIC_REPRESENTATION_CONTEXT ( 3 ) GLOBAL_UNCERTAINTY_ASSIGNED_CONTEXT ( ( #2 ) ) GLOBAL_UNIT_ASSIGNED_CONTEXT ( ( #18, #229, #183 ) ) REPRESENTATION_CONTEXT ( 'NONE', 'WORKASPACE' ) );
#172 = EDGE_CURVE ( 'NONE', #323, #54, #122, .T. ) ;
#173 = AXIS2_PLACEMENT_3D ( 'NONE', #28, #30, #141 ) ;
#174 = VERTEX_POINT ( 'NONE', #351 ) ;
#175 = CIRCLE ( 'NONE', #298, 6.000000000000000888 ) ;
#176 = STYLED_ITEM ( 'NONE', ( #318 ), #257 ) ;
#177 = ADVANCED_FACE ( 'NONE', ( #327 ), #165, .T. ) ;
#178 = DIRECTION ( 'NONE',  ( -0.000000000000000000, -0.000000000000000000, 1.000000000000000000 ) ) ;
#179 = DIRECTION ( 'NONE',  ( 0.000000000000000000, 0.000000000000000000, 1.000000000000000000 ) ) ;
#180 = CIRCLE ( 'NONE', #157, 4.000000000000000000 ) ;
#181 = SURFACE_STYLE_FILL_AREA ( #75 ) ;
#182 = DIRECTION ( 'NONE',  ( -0.000000000000000000, -0.000000000000000000, 1.000000000000000000 ) ) ;
#183 =( NAMED_UNIT ( * ) SI_UNIT ( $, .STERADIAN. ) SOLID_ANGLE_UNIT ( ) );
#184 = CARTESIAN_POINT ( 'NONE',  ( 0.000000000000000000, 0.000000000000000000, 0.000000000000000000 ) ) ;
#185 = VECTOR ( 'NONE', #236, 1000.000000000000000 ) ;
#186 =( LENGTH_UNIT ( ) NAMED_UNIT ( * ) SI_UNIT ( .MILLI., .METRE. ) );
#187 = ADVANCED_FACE ( 'NONE', ( #245 ), #87, .F. ) ;
#188 = CARTESIAN_POINT ( 'NONE',  ( 4.000000000000000000, 4.898587196589412829E-16, 3.000000000000000000 ) ) ;
#189 = VECTOR ( 'NONE', #182, 1000.000000000000000 ) ;
#190 = VERTEX_POINT ( 'NONE', #129 ) ;
#191 = DIRECTION ( 'NONE',  ( 0.000000000000000000, 0.000000000000000000, 1.000000000000000000 ) ) ;
#192 = CARTESIAN_POINT ( 'NONE',  ( -2.499999999999996891, 3.061616997868379197E-16, 2.999999999999999112 ) ) ;
#193 = ORIENTED_EDGE ( 'NONE', *, *, #166, .F. ) ;
#194 = DIRECTION ( 'NONE',  ( -0.000000000000000000, -0.000000000000000000, 1.000000000000000000 ) ) ;
#195 = UNCERTAINTY_MEASURE_WITH_UNIT (LENGTH_MEASURE( 1.000000000000000082E-05 ), #186, 'distance_accuracy_value', 'NONE');
#196 = EDGE_CURVE ( 'NONE', #301, #27, #158, .T. ) ;
#197 = ORIENTED_EDGE ( 'NONE', *, *, #240, .F. ) ;
#198 = CARTESIAN_POINT ( 'NONE',  ( 0.000000000000000000, 0.000000000000000000, 0.000000000000000000 ) ) ;
#199 = SURFACE_SIDE_STYLE ('',( #221 ) ) ;
#200 = ORIENTED_EDGE ( 'NONE', *, *, #29, .T. ) ;
#201 = UNCERTAINTY_MEASURE_WITH_UNIT (LENGTH_MEASURE( 1.000000000000000082E-05 ), #104, 'distance_accuracy_value', 'NONE');
#202 = DIRECTION ( 'NONE',  ( 1.000000000000000000, 0.000000000000000000, -0.000000000000000000 ) ) ;
#203 = AXIS2_PLACEMENT_3D ( 'NONE', #20, #76, #105 ) ;
#204 = PRODUCT_CONTEXT ( 'NONE', #40, 'mechanical' ) ;
#205 = STYLED_ITEM ( 'NONE', ( #263 ), #103 ) ;
#206 = MECHANICAL_DESIGN_GEOMETRIC_PRESENTATION_REPRESENTATION (  '', ( #149 ), #171 ) ;
#207 = FACE_OUTER_BOUND ( 'NONE', #248, .T. ) ;
#208 = CYLINDRICAL_SURFACE ( 'NONE', #289, 2.499999999999993339 ) ;
#209 = CARTESIAN_POINT ( 'NONE',  ( 0.000000000000000000, 0.000000000000000000, 0.000000000000000000 ) ) ;
#210 = DIRECTION ( 'NONE',  ( -1.000000000000000000, 0.000000000000000000, 0.000000000000000000 ) ) ;
#211 = EDGE_CURVE ( 'NONE', #27, #61, #307, .T. ) ;
#212 = LINE ( 'NONE', #135, #352 ) ;
#213 = EDGE_LOOP ( 'NONE', ( #121, #296 ) ) ;
#214 = ORIENTED_EDGE ( 'NONE', *, *, #97, .T. ) ;
#215 = CARTESIAN_POINT ( 'NONE',  ( -6.000000000000000888, 0.000000000000000000, 3.000000000000000000 ) ) ;
#216 = VERTEX_POINT ( 'NONE', #47 ) ;
#217 =( NAMED_UNIT ( * ) SI_UNIT ( $, .STERADIAN. ) SOLID_ANGLE_UNIT ( ) );
#218 = ADVANCED_FACE ( 'NONE', ( #14 ), #43, .T. ) ;
#219 = ORIENTED_EDGE ( 'NONE', *, *, #107, .F. ) ;
#220 = DIRECTION ( 'NONE',  ( 1.000000000000000000, 0.000000000000000000, 0.000000000000000000 ) ) ;
#221 = SURFACE_STYLE_FILL_AREA ( #34 ) ;
#222 = ORIENTED_EDGE ( 'NONE', *, *, #251, .F. ) ;
#223 = DIRECTION ( 'NONE',  ( 0.000000000000000000, 0.000000000000000000, 1.000000000000000000 ) ) ;
#224 = AXIS2_PLACEMENT_3D ( 'NONE', #169, #223, #64 ) ;
#225 = UNCERTAINTY_MEASURE_WITH_UNIT (LENGTH_MEASURE( 1.000000000000000082E-05 ), #156, 'distance_accuracy_value', 'NONE');
#226 = AXIS2_PLACEMENT_3D ( 'NONE', #100, #335, #99 ) ;
#227 = APPLICATION_PROTOCOL_DEFINITION ( 'draft international standard', 'automotive_design', 1998, #40 ) ;
#228 =( GEOMETRIC_REPRESENTATION_CONTEXT ( 3 ) GLOBAL_UNCERTAINTY_ASSIGNED_CONTEXT ( ( #225 ) ) GLOBAL_UNIT_ASSIGNED_CONTEXT ( ( #156, #44, #130 ) ) REPRESENTATION_CONTEXT ( 'NONE', 'WORKASPACE' ) );
#229 =( NAMED_UNIT ( * ) PLANE_ANGLE_UNIT ( ) SI_UNIT ( $, .RADIAN. ) );
#230 = MECHANICAL_DESIGN_GEOMETRIC_PRESENTATION_REPRESENTATION (  '', ( #281 ), #68 ) ;
#231 = DIRECTION ( 'NONE',  ( 0.000000000000000000, 0.000000000000000000, 1.000000000000000000 ) ) ;
#232 = LINE ( 'NONE', #127, #189 ) ;
#233 = DIRECTION ( 'NONE',  ( -0.000000000000000000, -0.000000000000000000, 1.000000000000000000 ) ) ;
#234 = DIRECTION ( 'NONE',  ( 1.000000000000000000, 0.000000000000000000, 0.000000000000000000 ) ) ;
#235 = DIRECTION ( 'NONE',  ( 1.000000000000000000, 0.000000000000000000, 0.000000000000000000 ) ) ;
#236 = DIRECTION ( 'NONE',  ( -0.000000000000000000, -0.000000000000000000, -1.000000000000000000 ) ) ;
#237 = FILL_AREA_STYLE ('',( #79 ) ) ;
#238 = ORIENTED_EDGE ( 'NONE', *, *, #37, .T. ) ;
#239 = CARTESIAN_POINT ( 'NONE',  ( 0.000000000000000000, 0.000000000000000000, 3.000000000000000000 ) ) ;
#240 = EDGE_CURVE ( 'NONE', #6, #54, #232, .T. ) ;
#241 = ORIENTED_EDGE ( 'NONE', *, *, #172, .F. ) ;
#242 = CARTESIAN_POINT ( 'NONE',  ( -6.000000000000000888, 0.000000000000000000, 0.000000000000000000 ) ) ;
#243 =( GEOMETRIC_REPRESENTATION_CONTEXT ( 3 ) GLOBAL_UNCERTAINTY_ASSIGNED_CONTEXT ( ( #195 ) ) GLOBAL_UNIT_ASSIGNED_CONTEXT ( ( #186, #24, #320 ) ) REPRESENTATION_CONTEXT ( 'NONE', 'WORKASPACE' ) );
#244 = ORIENTED_EDGE ( 'NONE', *, *, #10, .T. ) ;
#245 = FACE_OUTER_BOUND ( 'NONE', #321, .T. ) ;
#246 = DIRECTION ( 'NONE',  ( -0.000000000000000000, -0.000000000000000000, -1.000000000000000000 ) ) ;
#247 = MECHANICAL_DESIGN_GEOMETRIC_PRESENTATION_REPRESENTATION (  '', ( #205 ), #33 ) ;
#248 = EDGE_LOOP ( 'NONE', ( #329, #92, #238, #274 ) ) ;
#249 = CARTESIAN_POINT ( 'NONE',  ( 0.000000000000000000, 0.000000000000000000, 3.000000000000000000 ) ) ;
#250 = ORIENTED_EDGE ( 'NONE', *, *, #280, .F. ) ;
#251 = EDGE_CURVE ( 'NONE', #216, #174, #339, .T. ) ;
#252 = VECTOR ( 'NONE', #12, 1000.000000000000000 ) ;
#253 = ORIENTED_EDGE ( 'NONE', *, *, #166, .T. ) ;
#254 = PRODUCT_DEFINITION_SHAPE ( 'NONE', 'NONE',  #120 ) ;
#255 = PRODUCT_DEFINITION_FORMATION_WITH_SPECIFIED_SOURCE ( 'ANY', '', #98, .NOT_KNOWN. ) ;
#256 = FACE_OUTER_BOUND ( 'NONE', #89, .T. ) ;
#257 = ADVANCED_FACE ( 'NONE', ( #207 ), #265, .F. ) ;
#258 = AXIS2_PLACEMENT_3D ( 'NONE', #48, #151, #22 ) ;
#259 = DIRECTION ( 'NONE',  ( -0.000000000000000000, -0.000000000000000000, 1.000000000000000000 ) ) ;
#260 = DIRECTION ( 'NONE',  ( -0.000000000000000000, -0.000000000000000000, -1.000000000000000000 ) ) ;
#261 = AXIS2_PLACEMENT_3D ( 'NONE', #145, #246, #88 ) ;
#262 = FILL_AREA_STYLE_COLOUR ( '', #11 ) ;
#263 = PRESENTATION_STYLE_ASSIGNMENT (( #45 ) ) ;
#264 = ADVANCED_FACE ( 'NONE', ( #313 ), #71, .T. ) ;
#265 = CYLINDRICAL_SURFACE ( 'NONE', #140, 2.499999999999993339 ) ;
#266 = DIRECTION ( 'NONE',  ( 1.000000000000000000, 0.000000000000000000, 0.000000000000000000 ) ) ;
#267 = CARTESIAN_POINT ( 'NONE',  ( 2.499999999999996891, 0.000000000000000000, 2.999999999999999112 ) ) ;
#268 = DIRECTION ( 'NONE',  ( -0.000000000000000000, -0.000000000000000000, 1.000000000000000000 ) ) ;
#269 = AXIS2_PLACEMENT_3D ( 'NONE', #113, #194, #300 ) ;
#270 = PRESENTATION_STYLE_ASSIGNMENT (( #124 ) ) ;
#271 = SURFACE_STYLE_FILL_AREA ( #237 ) ;
#272 = EDGE_LOOP ( 'NONE', ( #138, #250 ) ) ;
#273 = CARTESIAN_POINT ( 'NONE',  ( 4.000000000000000000, 4.898587196589412829E-16, 15.00000000000000000 ) ) ;
#274 = ORIENTED_EDGE ( 'NONE', *, *, #308, .F. ) ;
#275 = CARTESIAN_POINT ( 'NONE',  ( 0.000000000000000000, 0.000000000000000000, 2.999999999999999112 ) ) ;
#276 = EDGE_LOOP ( 'NONE', ( #115, #106, #253 ) ) ;
#277 =( LENGTH_UNIT ( ) NAMED_UNIT ( * ) SI_UNIT ( .MILLI., .METRE. ) );
#278 = EDGE_LOOP ( 'NONE', ( #350, #170, #200, #214 ) ) ;
#279 = EDGE_CURVE ( 'NONE', #348, #25, #212, .T. ) ;
#280 = EDGE_CURVE ( 'NONE', #61, #27, #295, .T. ) ;
#281 = STYLED_ITEM ( 'NONE', ( #62 ), #134 ) ;
#282 = EDGE_CURVE ( 'NONE', #301, #190, #180, .T. ) ;
#283 = APPLICATION_PROTOCOL_DEFINITION ( 'draft international standard', 'automotive_design', 1998, #67 ) ;
#284 = CARTESIAN_POINT ( 'NONE',  ( 6.000000000000000888, 7.347880794884120722E-16, 3.000000000000000000 ) ) ;
#285 = AXIS2_PLACEMENT_3D ( 'NONE', #154, #344, #235 ) ;
#286 = CARTESIAN_POINT ( 'NONE',  ( 2.499999999999993339, 0.000000000000000000, 15.00000000000000000 ) ) ;
#287 = FILL_AREA_STYLE_COLOUR ( '', #331 ) ;
#288 = CARTESIAN_POINT ( 'NONE',  ( -4.000000000000000000, 0.000000000000000000, 15.00000000000000000 ) ) ;
#289 = AXIS2_PLACEMENT_3D ( 'NONE', #315, #233, #304 ) ;
#290 = DIRECTION ( 'NONE',  ( 1.000000000000000000, 0.000000000000000000, 0.000000000000000000 ) ) ;
#291 = CARTESIAN_POINT ( 'NONE',  ( 0.000000000000000000, 0.000000000000000000, 2.999999999999999112 ) ) ;
#292 = DIRECTION ( 'NONE',  ( 1.000000000000000000, 0.000000000000000000, 0.000000000000000000 ) ) ;
#293 = ADVANCED_FACE ( 'NONE', ( #349 ), #52, .F. ) ;
#294 = CARTESIAN_POINT ( 'NONE',  ( -2.499999999999990230, 3.061616997868373280E-16, 15.00000000000000178 ) ) ;
#295 = CIRCLE ( 'NONE', #285, 4.000000000000000000 ) ;
#296 = ORIENTED_EDGE ( 'NONE', *, *, #107, .T. ) ;
#297 = ORIENTED_EDGE ( 'NONE', *, *, #196, .F. ) ;
#298 = AXIS2_PLACEMENT_3D ( 'NONE', #249, #90, #143 ) ;
#299 = ORIENTED_EDGE ( 'NONE', *, *, #280, .T. ) ;
#300 = DIRECTION ( 'NONE',  ( 1.000000000000000000, 0.000000000000000000, 0.000000000000000000 ) ) ;
#301 = VERTEX_POINT ( 'NONE', #153 ) ;
#302 = SURFACE_STYLE_USAGE ( .BOTH. , #199 ) ;
#303 = EDGE_LOOP ( 'NONE', ( #241, #35 ) ) ;
#304 = DIRECTION ( 'NONE',  ( 1.000000000000000000, 0.000000000000000000, 0.000000000000000000 ) ) ;
#305 = CIRCLE ( 'NONE', #69, 2.499999999999996891 ) ;
#306 = CIRCLE ( 'NONE', #224, 4.000000000000000000 ) ;
#307 = CIRCLE ( 'NONE', #8, 4.000000000000000000 ) ;
#308 = EDGE_CURVE ( 'NONE', #174, #323, #72, .T. ) ;
#309 = SHAPE_DEFINITION_REPRESENTATION ( #254, #83 ) ;
#310 = DIRECTION ( 'NONE',  ( 1.000000000000000000, 0.000000000000000000, 0.000000000000000000 ) ) ;
#311 = DIRECTION ( 'NONE',  ( -0.000000000000000000, -0.000000000000000000, 1.000000000000000000 ) ) ;
#312 = DIRECTION ( 'NONE',  ( 1.000000000000000000, 0.000000000000000000, -0.000000000000000000 ) ) ;
#313 = FACE_OUTER_BOUND ( 'NONE', #109, .T. ) ;
#314 = VECTOR ( 'NONE', #260, 1000.000000000000000 ) ;
#315 = CARTESIAN_POINT ( 'NONE',  ( 0.000000000000000000, 0.000000000000000000, 15.00000000000000000 ) ) ;
#316 = CARTESIAN_POINT ( 'NONE',  ( 0.000000000000000000, 0.000000000000000000, 3.000000000000000000 ) ) ;
#317 = SURFACE_SIDE_STYLE ('',( #341 ) ) ;
#318 = PRESENTATION_STYLE_ASSIGNMENT (( #49 ) ) ;
#319 = DIRECTION ( 'NONE',  ( -0.000000000000000000, -0.000000000000000000, -1.000000000000000000 ) ) ;
#320 =( NAMED_UNIT ( * ) SI_UNIT ( $, .STERADIAN. ) SOLID_ANGLE_UNIT ( ) );
#321 = EDGE_LOOP ( 'NONE', ( #136, #117 ) ) ;
#322 = DIRECTION ( 'NONE',  ( 1.000000000000000000, 0.000000000000000000, 0.000000000000000000 ) ) ;
#323 = VERTEX_POINT ( 'NONE', #338 ) ;
#324 = DIRECTION ( 'NONE',  ( 1.000000000000000000, 0.000000000000000000, 0.000000000000000000 ) ) ;
#325 = VECTOR ( 'NONE', #50, 1000.000000000000000 ) ;
#326 = ORIENTED_EDGE ( 'NONE', *, *, #282, .F. ) ;
#327 = FACE_OUTER_BOUND ( 'NONE', #278, .T. ) ;
#328 = FACE_OUTER_BOUND ( 'NONE', #163, .T. ) ;
#329 = ORIENTED_EDGE ( 'NONE', *, *, #161, .F. ) ;
#330 = COLOUR_RGB ( '',0.7921568627450980005, 0.8196078431372548767, 0.9333333333333333481 ) ;
#331 = COLOUR_RGB ( '',0.7921568627450980005, 0.8196078431372548767, 0.9333333333333333481 ) ;
#332 = ADVANCED_FACE ( 'NONE', ( #126, #51 ), #15, .T. ) ;
#333 = ORIENTED_EDGE ( 'NONE', *, *, #146, .F. ) ;
#334 = CIRCLE ( 'NONE', #226, 6.000000000000000888 ) ;
#335 = DIRECTION ( 'NONE',  ( 0.000000000000000000, 0.000000000000000000, 1.000000000000000000 ) ) ;
#336 = PRESENTATION_LAYER_ASSIGNMENT (  '', '', ( #281 ) ) ;
#337 = ADVANCED_FACE ( 'NONE', ( #256 ), #111, .F. ) ;
#338 = CARTESIAN_POINT ( 'NONE',  ( 2.499999999999990230, 0.000000000000000000, 15.00000000000000178 ) ) ;
#339 = LINE ( 'NONE', #267, #31 ) ;
#340 = CARTESIAN_POINT ( 'NONE',  ( 0.000000000000000000, 0.000000000000000000, 2.999999999999999112 ) ) ;
#341 = SURFACE_STYLE_FILL_AREA ( #128 ) ;
#342 = DIRECTION ( 'NONE',  ( 0.000000000000000000, 0.000000000000000000, 1.000000000000000000 ) ) ;
#343 = COLOUR_RGB ( '',0.7921568627450980005, 0.8196078431372548767, 0.9333333333333333481 ) ;
#344 = DIRECTION ( 'NONE',  ( 0.000000000000000000, 0.000000000000000000, 1.000000000000000000 ) ) ;
#345 = CARTESIAN_POINT ( 'NONE',  ( -6.000000000000000888, 0.000000000000000000, 3.000000000000000000 ) ) ;
#346 = EDGE_CURVE ( 'NONE', #25, #142, #334, .T. ) ;
#347 = DIRECTION ( 'NONE',  ( 0.000000000000000000, 0.000000000000000000, 1.000000000000000000 ) ) ;
#348 = VERTEX_POINT ( 'NONE', #284 ) ;
#349 = FACE_OUTER_BOUND ( 'NONE', #276, .T. ) ;
#350 = ORIENTED_EDGE ( 'NONE', *, *, #279, .F. ) ;
#351 = CARTESIAN_POINT ( 'NONE',  ( 2.499999999999996891, 0.000000000000000000, 2.999999999999999112 ) ) ;
#352 = VECTOR ( 'NONE', #53, 1000.000000000000000 ) ;
#353 = ORIENTED_EDGE ( 'NONE', *, *, #29, .F. ) ;
#354 = CARTESIAN_POINT ( 'NONE',  ( 0.000000000000000000, 0.000000000000000000, 3.000000000000000000 ) ) ;
ENDSEC;
END-ISO-10303-21;
