ISO-10303-21;
HEADER;
FILE_DESCRIPTION (( 'STEP AP214' ),
    '1' );
FILE_NAME ('Verrou6.STEP',
    '2021-04-17T18:36:46',
    ( '' ),
    ( '' ),
    'SwSTEP 2.0',
    'SolidWorks 2020',
    '' );
FILE_SCHEMA (( 'AUTOMOTIVE_DESIGN' ));
ENDSEC;

DATA;
#1 = DIRECTION ( 'NONE',  ( 0.000000000000000000, -0.000000000000000000, 1.000000000000000000 ) ) ;
#2 = ORIENTED_EDGE ( 'NONE', *, *, #85, .F. ) ;
#3 = CARTESIAN_POINT ( 'NONE',  ( 44.99999999999999289, 7.000000000000000000, -2.000000000000001776 ) ) ;
#4 = DIRECTION ( 'NONE',  ( 1.000000000000000000, 4.956352788505176087E-16, 0.000000000000000000 ) ) ;
#5 = DIRECTION ( 'NONE',  ( -0.000000000000000000, -0.000000000000000000, -1.000000000000000000 ) ) ;
#6 =( NAMED_UNIT ( * ) PLANE_ANGLE_UNIT ( ) SI_UNIT ( $, .RADIAN. ) );
#7 = CARTESIAN_POINT ( 'NONE',  ( 59.99999999999998579, 11.99999999999997691, 20.99999999999999645 ) ) ;
#8 = ADVANCED_FACE ( 'NONE', ( #120 ), #377, .F. ) ;
#9 = SURFACE_STYLE_USAGE ( .BOTH. , #323 ) ;
#10 = CARTESIAN_POINT ( 'NONE',  ( 54.99999999999999289, 2.000000000000010658, 20.99999999999999645 ) ) ;
#11 = STYLED_ITEM ( 'NONE', ( #359 ), #65 ) ;
#12 = PRESENTATION_LAYER_ASSIGNMENT (  '', '', ( #11 ) ) ;
#13 = EDGE_CURVE ( 'NONE', #21, #176, #249, .T. ) ;
#14 = EDGE_LOOP ( 'NONE', ( #396, #23, #263, #231 ) ) ;
#15 = DIRECTION ( 'NONE',  ( -4.956352788505171156E-16, 1.000000000000000000, 0.000000000000000000 ) ) ;
#16 = AXIS2_PLACEMENT_3D ( 'NONE', #62, #379, #345 ) ;
#17 = ORIENTED_EDGE ( 'NONE', *, *, #335, .T. ) ;
#18 = VECTOR ( 'NONE', #130, 1000.000000000000000 ) ;
#19 = ORIENTED_EDGE ( 'NONE', *, *, #368, .F. ) ;
#20 = CARTESIAN_POINT ( 'NONE',  ( 48.24999999999999289, 7.000000000000000000, -2.000000000000001776 ) ) ;
#21 = VERTEX_POINT ( 'NONE', #195 ) ;
#22 = FACE_OUTER_BOUND ( 'NONE', #391, .T. ) ;
#23 = ORIENTED_EDGE ( 'NONE', *, *, #368, .T. ) ;
#24 = CARTESIAN_POINT ( 'NONE',  ( 54.99999999999999289, 11.99999999999997513, 20.99999999999999645 ) ) ;
#25 = DIRECTION ( 'NONE',  ( -0.000000000000000000, -0.000000000000000000, 1.000000000000000000 ) ) ;
#26 = EDGE_LOOP ( 'NONE', ( #47, #305, #19, #331, #148, #207, #236, #79 ) ) ;
#27 = VECTOR ( 'NONE', #277, 1000.000000000000000 ) ;
#28 = DIRECTION ( 'NONE',  ( 1.000000000000000000, 0.000000000000000000, 0.000000000000000000 ) ) ;
#29 = EDGE_CURVE ( 'NONE', #176, #110, #348, .T. ) ;
#30 = CARTESIAN_POINT ( 'NONE',  ( 59.99999999999999289, 2.000000000000012434, 8.000000000000000000 ) ) ;
#31 = ORIENTED_EDGE ( 'NONE', *, *, #187, .T. ) ;
#32 = CARTESIAN_POINT ( 'NONE',  ( 54.99999999999999289, 2.000000000000010658, 23.00000000000000000 ) ) ;
#33 = AXIS2_PLACEMENT_3D ( 'NONE', #298, #302, #241 ) ;
#34 = EDGE_LOOP ( 'NONE', ( #178, #104, #143, #172 ) ) ;
#35 = CARTESIAN_POINT ( 'NONE',  ( 34.99999999999998579, 13.99999999999996625, 23.00000000000000000 ) ) ;
#36 = ORIENTED_EDGE ( 'NONE', *, *, #237, .T. ) ;
#37 = CARTESIAN_POINT ( 'NONE',  ( 0.000000000000000000, 0.000000000000000000, 23.00000000000000000 ) ) ;
#38 = APPLICATION_PROTOCOL_DEFINITION ( 'draft international standard', 'automotive_design', 1998, #405 ) ;
#39 = LINE ( 'NONE', #7, #252 ) ;
#40 = CARTESIAN_POINT ( 'NONE',  ( 34.99999999999998579, 13.99999999999996625, 8.000000000000000000 ) ) ;
#41 = EDGE_CURVE ( 'NONE', #338, #110, #318, .T. ) ;
#42 = SURFACE_SIDE_STYLE ('',( #353 ) ) ;
#43 = EDGE_CURVE ( 'NONE', #330, #328, #39, .T. ) ;
#44 = VECTOR ( 'NONE', #232, 1000.000000000000000 ) ;
#45 = CARTESIAN_POINT ( 'NONE',  ( 34.99999999999998579, 13.99999999999996625, 23.00000000000000000 ) ) ;
#46 = EDGE_LOOP ( 'NONE', ( #135, #240, #184, #265, #372, #394, #17, #313 ) ) ;
#47 = ORIENTED_EDGE ( 'NONE', *, *, #360, .T. ) ;
#48 = CARTESIAN_POINT ( 'NONE',  ( 34.99999999999998579, 11.99999999999996625, 20.99999999999999645 ) ) ;
#49 = VECTOR ( 'NONE', #147, 1000.000000000000000 ) ;
#50 = VECTOR ( 'NONE', #308, 1000.000000000000000 ) ;
#51 = ORIENTED_EDGE ( 'NONE', *, *, #149, .T. ) ;
#52 = FACE_OUTER_BOUND ( 'NONE', #136, .T. ) ;
#53 = ORIENTED_EDGE ( 'NONE', *, *, #387, .F. ) ;
#54 = DIRECTION ( 'NONE',  ( 1.000000000000000000, 0.000000000000000000, 0.000000000000000000 ) ) ;
#55 = ORIENTED_EDGE ( 'NONE', *, *, #262, .T. ) ;
#56 = ADVANCED_FACE ( 'NONE', ( #256 ), #253, .F. ) ;
#57 = LINE ( 'NONE', #392, #325 ) ;
#58 = CARTESIAN_POINT ( 'NONE',  ( 44.99999999999999289, 7.000000000000000000, -2.000000000000001776 ) ) ;
#59 = ADVANCED_FACE ( 'NONE', ( #254 ), #383, .F. ) ;
#60 = LINE ( 'NONE', #401, #49 ) ;
#61 = DIRECTION ( 'NONE',  ( -0.000000000000000000, -0.000000000000000000, 1.000000000000000000 ) ) ;
#62 = CARTESIAN_POINT ( 'NONE',  ( 0.000000000000000000, 0.000000000000000000, 8.000000000000000000 ) ) ;
#63 = DIRECTION ( 'NONE',  ( -0.000000000000000000, 0.000000000000000000, 1.000000000000000000 ) ) ;
#64 = CARTESIAN_POINT ( 'NONE',  ( 54.99999999999998579, 13.99999999999997691, 23.00000000000000000 ) ) ;
#65 = MANIFOLD_SOLID_BREP ( 'Enlèv. mat.-Extru.7', #119 ) ;
#66 = CARTESIAN_POINT ( 'NONE',  ( 54.99999999999998579, 13.99999999999997691, 8.000000000000000000 ) ) ;
#67 =( NAMED_UNIT ( * ) SI_UNIT ( $, .STERADIAN. ) SOLID_ANGLE_UNIT ( ) );
#68 = CARTESIAN_POINT ( 'NONE',  ( 0.000000000000000000, 0.000000000000000000, 8.000000000000000000 ) ) ;
#69 = AXIS2_PLACEMENT_3D ( 'NONE', #272, #364, #86 ) ;
#70 = CARTESIAN_POINT ( 'NONE',  ( 34.99999999999998579, 13.99999999999996625, 23.00000000000000000 ) ) ;
#71 = ADVANCED_FACE ( 'NONE', ( #357 ), #72, .F. ) ;
#72 = PLANE ( 'NONE',  #134 ) ;
#73 = CARTESIAN_POINT ( 'NONE',  ( 54.99999999999998579, 11.99999999999997513, 8.000000000000000000 ) ) ;
#74 = VERTEX_POINT ( 'NONE', #287 ) ;
#75 = EDGE_LOOP ( 'NONE', ( #300, #363, #200, #398 ) ) ;
#76 = CARTESIAN_POINT ( 'NONE',  ( 59.99999999999999289, 2.000000000000012434, 20.99999999999999645 ) ) ;
#77 = EDGE_CURVE ( 'NONE', #113, #78, #324, .T. ) ;
#78 = VERTEX_POINT ( 'NONE', #193 ) ;
#79 = ORIENTED_EDGE ( 'NONE', *, *, #154, .T. ) ;
#80 = LINE ( 'NONE', #20, #206 ) ;
#81 = VERTEX_POINT ( 'NONE', #10 ) ;
#82 = VECTOR ( 'NONE', #115, 1000.000000000000000 ) ;
#83 = DIRECTION ( 'NONE',  ( 4.956352788505175101E-16, -1.000000000000000000, 0.000000000000000000 ) ) ;
#84 = EDGE_LOOP ( 'NONE', ( #303, #268 ) ) ;
#85 = EDGE_CURVE ( 'NONE', #176, #90, #321, .T. ) ;
#86 = DIRECTION ( 'NONE',  ( 1.000000000000000000, 0.000000000000000000, -0.000000000000000000 ) ) ;
#87 = CARTESIAN_POINT ( 'NONE',  ( 34.99999999999999289, 0.000000000000000000, 8.000000000000000000 ) ) ;
#88 = CARTESIAN_POINT ( 'NONE',  ( 44.99999999999999289, 7.000000000000000000, 20.99999999999999645 ) ) ;
#89 = DIRECTION ( 'NONE',  ( 1.000000000000000000, 0.000000000000000000, 0.000000000000000000 ) ) ;
#90 = VERTEX_POINT ( 'NONE', #70 ) ;
#91 = LINE ( 'NONE', #181, #27 ) ;
#92 = EDGE_CURVE ( 'NONE', #21, #78, #163, .T. ) ;
#93 = PLANE ( 'NONE',  #33 ) ;
#94 = FILL_AREA_STYLE ('',( #382 ) ) ;
#95 = VECTOR ( 'NONE', #173, 1000.000000000000000 ) ;
#96 =( NAMED_UNIT ( * ) PLANE_ANGLE_UNIT ( ) SI_UNIT ( $, .RADIAN. ) );
#97 =( NAMED_UNIT ( * ) PLANE_ANGLE_UNIT ( ) SI_UNIT ( $, .RADIAN. ) );
#98 = CARTESIAN_POINT ( 'NONE',  ( 54.99999999999998579, 13.99999999999997691, 23.00000000000000000 ) ) ;
#99 = VECTOR ( 'NONE', #367, 1000.000000000000000 ) ;
#100 = PRESENTATION_STYLE_ASSIGNMENT (( #9 ) ) ;
#101 = DIRECTION ( 'NONE',  ( 4.956352788505176087E-16, -1.000000000000000000, 0.000000000000000000 ) ) ;
#102 = VECTOR ( 'NONE', #213, 1000.000000000000000 ) ;
#103 = PRESENTATION_LAYER_ASSIGNMENT (  '', '', ( #239 ) ) ;
#104 = ORIENTED_EDGE ( 'NONE', *, *, #151, .T. ) ;
#105 = EDGE_LOOP ( 'NONE', ( #31, #180, #295, #309 ) ) ;
#106 = CARTESIAN_POINT ( 'NONE',  ( 0.000000000000000000, 0.000000000000000000, 8.000000000000000000 ) ) ;
#107 = ORIENTED_EDGE ( 'NONE', *, *, #260, .T. ) ;
#108 = ORIENTED_EDGE ( 'NONE', *, *, #41, .F. ) ;
#109 = DIRECTION ( 'NONE',  ( -0.000000000000000000, -0.000000000000000000, 1.000000000000000000 ) ) ;
#110 = VERTEX_POINT ( 'NONE', #374 ) ;
#111 = PLANE ( 'NONE',  #69 ) ;
#112 = ADVANCED_FACE ( 'NONE', ( #378 ), #211, .F. ) ;
#113 = VERTEX_POINT ( 'NONE', #87 ) ;
#114 = VECTOR ( 'NONE', #282, 1000.000000000000000 ) ;
#115 = DIRECTION ( 'NONE',  ( 1.000000000000000000, 0.000000000000000000, 0.000000000000000000 ) ) ;
#116 = DIRECTION ( 'NONE',  ( 1.000000000000000000, 0.000000000000000000, 0.000000000000000000 ) ) ;
#117 = CARTESIAN_POINT ( 'NONE',  ( 34.99999999999998579, 11.99999999999996625, 8.000000000000000000 ) ) ;
#118 = LINE ( 'NONE', #32, #114 ) ;
#119 = CLOSED_SHELL ( 'NONE', ( #112, #288, #283, #228, #59, #404, #71, #259, #56, #169, #131, #8 ) ) ;
#120 = FACE_OUTER_BOUND ( 'NONE', #334, .T. ) ;
#121 = DIRECTION ( 'NONE',  ( 0.000000000000000000, 0.000000000000000000, -1.000000000000000000 ) ) ;
#122 = ORIENTED_EDGE ( 'NONE', *, *, #149, .F. ) ;
#123 = EDGE_CURVE ( 'NONE', #338, #138, #91, .T. ) ;
#124 = CARTESIAN_POINT ( 'NONE',  ( 54.99999999999998579, 13.99999999999997691, 23.00000000000000000 ) ) ;
#125 = DIRECTION ( 'NONE',  ( 1.000000000000000000, -0.000000000000000000, 0.000000000000000000 ) ) ;
#126 = LINE ( 'NONE', #40, #144 ) ;
#127 = DIRECTION ( 'NONE',  ( -1.000000000000000000, -4.956352788505171156E-16, 0.000000000000000000 ) ) ;
#128 = FACE_OUTER_BOUND ( 'NONE', #327, .T. ) ;
#129 = UNCERTAINTY_MEASURE_WITH_UNIT (LENGTH_MEASURE( 1.000000000000000082E-05 ), #219, 'distance_accuracy_value', 'NONE');
#130 = DIRECTION ( 'NONE',  ( -0.000000000000000000, -0.000000000000000000, -1.000000000000000000 ) ) ;
#131 = ADVANCED_FACE ( 'NONE', ( #275 ), #346, .F. ) ;
#132 = VERTEX_POINT ( 'NONE', #183 ) ;
#133 = LINE ( 'NONE', #76, #95 ) ;
#134 = AXIS2_PLACEMENT_3D ( 'NONE', #160, #258, #351 ) ;
#135 = ORIENTED_EDGE ( 'NONE', *, *, #337, .T. ) ;
#136 = EDGE_LOOP ( 'NONE', ( #55, #233, #266, #152 ) ) ;
#137 = CARTESIAN_POINT ( 'NONE',  ( 34.99999999999999289, 2.000000000000000000, 20.99999999999999645 ) ) ;
#138 = VERTEX_POINT ( 'NONE', #342 ) ;
#139 = CARTESIAN_POINT ( 'NONE',  ( 0.000000000000000000, 14.00000000000000000, 8.000000000000000000 ) ) ;
#140 = ORIENTED_EDGE ( 'NONE', *, *, #77, .F. ) ;
#141 = LINE ( 'NONE', #400, #399 ) ;
#142 = CARTESIAN_POINT ( 'NONE',  ( 54.99999999999998579, 13.99999999999997691, 23.00000000000000000 ) ) ;
#143 = ORIENTED_EDGE ( 'NONE', *, *, #123, .F. ) ;
#144 = VECTOR ( 'NONE', #314, 1000.000000000000000 ) ;
#145 = COLOUR_RGB ( '',0.7921568627450980005, 0.8196078431372548767, 0.9333333333333333481 ) ;
#146 = CARTESIAN_POINT ( 'NONE',  ( 44.99999999999999289, 7.000000000000000000, 23.00000000000000000 ) ) ;
#147 = DIRECTION ( 'NONE',  ( -1.000000000000000000, -0.000000000000000000, -0.000000000000000000 ) ) ;
#148 = ORIENTED_EDGE ( 'NONE', *, *, #387, .T. ) ;
#149 = EDGE_CURVE ( 'NONE', #74, #297, #358, .T. ) ;
#150 = DIRECTION ( 'NONE',  ( -1.000000000000000000, -4.956352788505176087E-16, -0.000000000000000000 ) ) ;
#151 = EDGE_CURVE ( 'NONE', #328, #138, #311, .T. ) ;
#152 = ORIENTED_EDGE ( 'NONE', *, *, #260, .F. ) ;
#153 = CARTESIAN_POINT ( 'NONE',  ( 41.74999999999998579, 7.000000000000000000, -2.000000000000001776 ) ) ;
#154 = EDGE_CURVE ( 'NONE', #90, #278, #245, .T. ) ;
#155 = PRODUCT_RELATED_PRODUCT_CATEGORY ( 'part', '', ( #162 ) ) ;
#156 = FILL_AREA_STYLE ('',( #224 ) ) ;
#157 = EDGE_CURVE ( 'NONE', #74, #132, #217, .T. ) ;
#158 = CARTESIAN_POINT ( 'NONE',  ( 54.99999999999999289, 0.000000000000000000, 23.00000000000000000 ) ) ;
#159 = CARTESIAN_POINT ( 'NONE',  ( 34.99999999999999289, 2.000000000000000000, 20.99999999999999645 ) ) ;
#160 = CARTESIAN_POINT ( 'NONE',  ( 59.99999999999998579, 11.99999999999997691, 8.000000000000000000 ) ) ;
#161 = CARTESIAN_POINT ( 'NONE',  ( 34.99999999999998579, 13.99999999999996625, 23.00000000000000000 ) ) ;
#162 = PRODUCT ( 'Verrou6', 'Verrou6', '', ( #316 ) ) ;
#163 = LINE ( 'NONE', #158, #18 ) ;
#164 = EDGE_CURVE ( 'NONE', #202, #81, #118, .T. ) ;
#165 =( GEOMETRIC_REPRESENTATION_CONTEXT ( 3 ) GLOBAL_UNCERTAINTY_ASSIGNED_CONTEXT ( ( #168 ) ) GLOBAL_UNIT_ASSIGNED_CONTEXT ( ( #223, #96, #315 ) ) REPRESENTATION_CONTEXT ( 'NONE', 'WORKASPACE' ) );
#166 = AXIS2_PLACEMENT_3D ( 'NONE', #139, #205, #201 ) ;
#167 = EDGE_CURVE ( 'NONE', #110, #278, #60, .T. ) ;
#168 = UNCERTAINTY_MEASURE_WITH_UNIT (LENGTH_MEASURE( 1.000000000000000082E-05 ), #223, 'distance_accuracy_value', 'NONE');
#169 = ADVANCED_FACE ( 'NONE', ( #247 ), #182, .F. ) ;
#170 = CARTESIAN_POINT ( 'NONE',  ( 34.99999999999999289, 2.000000000000000000, 8.000000000000000000 ) ) ;
#171 = ORIENTED_EDGE ( 'NONE', *, *, #360, .F. ) ;
#172 = ORIENTED_EDGE ( 'NONE', *, *, #227, .F. ) ;
#173 = DIRECTION ( 'NONE',  ( -1.000000000000000000, -4.956352788505176087E-16, -0.000000000000000000 ) ) ;
#174 = CIRCLE ( 'NONE', #214, 3.250000000000002665 ) ;
#175 = VERTEX_POINT ( 'NONE', #307 ) ;
#176 = VERTEX_POINT ( 'NONE', #142 ) ;
#177 = CARTESIAN_POINT ( 'NONE',  ( 34.99999999999999289, 0.000000000000000000, 23.00000000000000000 ) ) ;
#178 = ORIENTED_EDGE ( 'NONE', *, *, #43, .T. ) ;
#179 = DIRECTION ( 'NONE',  ( 0.000000000000000000, -0.000000000000000000, 1.000000000000000000 ) ) ;
#180 = ORIENTED_EDGE ( 'NONE', *, *, #243, .T. ) ;
#181 = CARTESIAN_POINT ( 'NONE',  ( 59.99999999999998579, 11.99999999999997691, 8.000000000000000000 ) ) ;
#182 = CYLINDRICAL_SURFACE ( 'NONE', #341, 3.250000000000002665 ) ;
#183 = CARTESIAN_POINT ( 'NONE',  ( 41.74999999999998579, 7.000000000000000000, 23.00000000000000000 ) ) ;
#184 = ORIENTED_EDGE ( 'NONE', *, *, #41, .T. ) ;
#185 = DIRECTION ( 'NONE',  ( 0.000000000000000000, -0.000000000000000000, 1.000000000000000000 ) ) ;
#186 = AXIS2_PLACEMENT_3D ( 'NONE', #58, #61, #89 ) ;
#187 = EDGE_CURVE ( 'NONE', #202, #175, #242, .T. ) ;
#188 = ORIENTED_EDGE ( 'NONE', *, *, #29, .T. ) ;
#189 = FACE_BOUND ( 'NONE', #84, .T. ) ;
#190 = DIRECTION ( 'NONE',  ( -4.956352788505171156E-16, 1.000000000000000000, -0.000000000000000000 ) ) ;
#191 = APPLICATION_PROTOCOL_DEFINITION ( 'draft international standard', 'automotive_design', 1998, #343 ) ;
#192 = DIRECTION ( 'NONE',  ( -6.938893903907252043E-16, 1.000000000000000000, 0.000000000000000000 ) ) ;
#193 = CARTESIAN_POINT ( 'NONE',  ( 54.99999999999999289, 0.000000000000000000, 8.000000000000000000 ) ) ;
#194 = AXIS2_PLACEMENT_3D ( 'NONE', #376, #1, #306 ) ;
#195 = CARTESIAN_POINT ( 'NONE',  ( 54.99999999999999289, 0.000000000000000000, 23.00000000000000000 ) ) ;
#196 = AXIS2_PLACEMENT_3D ( 'NONE', #37, #284, #289 ) ;
#197 = CARTESIAN_POINT ( 'NONE',  ( 34.99999999999998579, 13.99999999999996625, 8.000000000000000000 ) ) ;
#198 = UNCERTAINTY_MEASURE_WITH_UNIT (LENGTH_MEASURE( 1.000000000000000082E-05 ), #320, 'distance_accuracy_value', 'NONE');
#199 = ORIENTED_EDGE ( 'NONE', *, *, #123, .T. ) ;
#200 = ORIENTED_EDGE ( 'NONE', *, *, #244, .T. ) ;
#201 = DIRECTION ( 'NONE',  ( 0.000000000000000000, -0.000000000000000000, -1.000000000000000000 ) ) ;
#202 = VERTEX_POINT ( 'NONE', #280 ) ;
#203 = ORIENTED_EDGE ( 'NONE', *, *, #167, .F. ) ;
#204 = COLOUR_RGB ( '',0.7921568627450980005, 0.8196078431372548767, 0.9333333333333333481 ) ;
#205 = DIRECTION ( 'NONE',  ( 0.000000000000000000, -1.000000000000000000, 0.000000000000000000 ) ) ;
#206 = VECTOR ( 'NONE', #109, 1000.000000000000000 ) ;
#207 = ORIENTED_EDGE ( 'NONE', *, *, #262, .F. ) ;
#208 = LINE ( 'NONE', #177, #299 ) ;
#209 = ORIENTED_EDGE ( 'NONE', *, *, #154, .F. ) ;
#210 = FACE_BOUND ( 'NONE', #389, .T. ) ;
#211 = CYLINDRICAL_SURFACE ( 'NONE', #186, 3.250000000000002665 ) ;
#212 = EDGE_CURVE ( 'NONE', #293, #132, #174, .T. ) ;
#213 = DIRECTION ( 'NONE',  ( -0.000000000000000000, -0.000000000000000000, -1.000000000000000000 ) ) ;
#214 = AXIS2_PLACEMENT_3D ( 'NONE', #146, #250, #344 ) ;
#215 = FACE_OUTER_BOUND ( 'NONE', #26, .T. ) ;
#216 = ORIENTED_EDGE ( 'NONE', *, *, #167, .T. ) ;
#217 = LINE ( 'NONE', #153, #292 ) ;
#218 = ORIENTED_EDGE ( 'NONE', *, *, #225, .T. ) ;
#219 =( LENGTH_UNIT ( ) NAMED_UNIT ( * ) SI_UNIT ( .MILLI., .METRE. ) );
#220 = DIRECTION ( 'NONE',  ( -1.000000000000000000, -6.071532165918823844E-16, -0.000000000000000000 ) ) ;
#221 = CIRCLE ( 'NONE', #310, 3.250000000000002665 ) ;
#222 = DIRECTION ( 'NONE',  ( 0.000000000000000000, 0.000000000000000000, 1.000000000000000000 ) ) ;
#223 =( LENGTH_UNIT ( ) NAMED_UNIT ( * ) SI_UNIT ( .MILLI., .METRE. ) );
#224 = FILL_AREA_STYLE_COLOUR ( '', #145 ) ;
#225 = EDGE_CURVE ( 'NONE', #297, #74, #381, .T. ) ;
#226 = AXIS2_PLACEMENT_3D ( 'NONE', #403, #63, #375 ) ;
#227 = EDGE_CURVE ( 'NONE', #330, #338, #276, .T. ) ;
#228 = ADVANCED_FACE ( 'NONE', ( #215 ), #93, .F. ) ;
#229 = AXIS2_PLACEMENT_3D ( 'NONE', #88, #185, #28 ) ;
#230 =( GEOMETRIC_REPRESENTATION_CONTEXT ( 3 ) GLOBAL_UNCERTAINTY_ASSIGNED_CONTEXT ( ( #129 ) ) GLOBAL_UNIT_ASSIGNED_CONTEXT ( ( #219, #97, #67 ) ) REPRESENTATION_CONTEXT ( 'NONE', 'WORKASPACE' ) );
#231 = ORIENTED_EDGE ( 'NONE', *, *, #337, .F. ) ;
#232 = DIRECTION ( 'NONE',  ( 4.956352788505175101E-16, -1.000000000000000000, 0.000000000000000000 ) ) ;
#233 = ORIENTED_EDGE ( 'NONE', *, *, #77, .T. ) ;
#234 = ORIENTED_EDGE ( 'NONE', *, *, #157, .T. ) ;
#235 = DIRECTION ( 'NONE',  ( -0.000000000000000000, -0.000000000000000000, -1.000000000000000000 ) ) ;
#236 = ORIENTED_EDGE ( 'NONE', *, *, #237, .F. ) ;
#237 = EDGE_CURVE ( 'NONE', #90, #406, #332, .T. ) ;
#238 = CARTESIAN_POINT ( 'NONE',  ( 48.24999999999999289, 7.000000000000000000, 23.00000000000000000 ) ) ;
#239 = STYLED_ITEM ( 'NONE', ( #100 ), #322 ) ;
#240 = ORIENTED_EDGE ( 'NONE', *, *, #227, .T. ) ;
#241 = DIRECTION ( 'NONE',  ( -4.956352788505176087E-16, 1.000000000000000000, 0.000000000000000000 ) ) ;
#242 = LINE ( 'NONE', #30, #390 ) ;
#243 = EDGE_CURVE ( 'NONE', #175, #270, #395, .T. ) ;
#244 = EDGE_CURVE ( 'NONE', #297, #293, #80, .T. ) ;
#245 = LINE ( 'NONE', #35, #50 ) ;
#246 = VECTOR ( 'NONE', #281, 1000.000000000000000 ) ;
#247 = FACE_OUTER_BOUND ( 'NONE', #75, .T. ) ;
#248 = AXIS2_PLACEMENT_3D ( 'NONE', #352, #222, #350 ) ;
#249 = LINE ( 'NONE', #64, #246 ) ;
#250 = DIRECTION ( 'NONE',  ( 0.000000000000000000, 0.000000000000000000, 1.000000000000000000 ) ) ;
#251 = ORIENTED_EDGE ( 'NONE', *, *, #13, .T. ) ;
#252 = VECTOR ( 'NONE', #386, 1000.000000000000000 ) ;
#253 = PLANE ( 'NONE',  #356 ) ;
#254 = FACE_OUTER_BOUND ( 'NONE', #46, .T. ) ;
#255 = SHAPE_DEFINITION_REPRESENTATION ( #319, #322 ) ;
#256 = FACE_OUTER_BOUND ( 'NONE', #105, .T. ) ;
#257 = PLANE ( 'NONE',  #196 ) ;
#258 = DIRECTION ( 'NONE',  ( -4.956352788505176087E-16, 1.000000000000000000, 0.000000000000000000 ) ) ;
#259 = ADVANCED_FACE ( 'NONE', ( #210, #326 ), #111, .F. ) ;
#260 = EDGE_CURVE ( 'NONE', #406, #21, #339, .T. ) ;
#261 = PRODUCT_DEFINITION_CONTEXT ( 'detailed design', #405, 'design' ) ;
#262 = EDGE_CURVE ( 'NONE', #406, #113, #208, .T. ) ;
#263 = ORIENTED_EDGE ( 'NONE', *, *, #43, .F. ) ;
#264 = LINE ( 'NONE', #197, #44 ) ;
#265 = ORIENTED_EDGE ( 'NONE', *, *, #29, .F. ) ;
#266 = ORIENTED_EDGE ( 'NONE', *, *, #92, .F. ) ;
#267 = PLANE ( 'NONE',  #166 ) ;
#268 = ORIENTED_EDGE ( 'NONE', *, *, #317, .F. ) ;
#269 = CARTESIAN_POINT ( 'NONE',  ( 34.99999999999999289, 0.000000000000000000, 23.00000000000000000 ) ) ;
#270 = VERTEX_POINT ( 'NONE', #137 ) ;
#271 = VECTOR ( 'NONE', #190, 1000.000000000000000 ) ;
#272 = CARTESIAN_POINT ( 'NONE',  ( 59.99999999999999289, 2.000000000000012434, 20.99999999999999645 ) ) ;
#273 = VECTOR ( 'NONE', #220, 1000.000000000000000 ) ;
#274 = VECTOR ( 'NONE', #192, 1000.000000000000000 ) ;
#275 = FACE_OUTER_BOUND ( 'NONE', #301, .T. ) ;
#276 = LINE ( 'NONE', #402, #279 ) ;
#277 = DIRECTION ( 'NONE',  ( -1.000000000000000000, -4.956352788505176087E-16, -0.000000000000000000 ) ) ;
#278 = VERTEX_POINT ( 'NONE', #329 ) ;
#279 = VECTOR ( 'NONE', #121, 1000.000000000000000 ) ;
#280 = CARTESIAN_POINT ( 'NONE',  ( 54.99999999999999289, 2.000000000000010214, 8.000000000000000000 ) ) ;
#281 = DIRECTION ( 'NONE',  ( -4.956352788505171156E-16, 1.000000000000000000, -0.000000000000000000 ) ) ;
#282 = DIRECTION ( 'NONE',  ( 0.000000000000000000, 0.000000000000000000, 1.000000000000000000 ) ) ;
#283 = ADVANCED_FACE ( 'NONE', ( #22 ), #267, .F. ) ;
#284 = DIRECTION ( 'NONE',  ( -0.000000000000000000, 0.000000000000000000, 1.000000000000000000 ) ) ;
#285 = CARTESIAN_POINT ( 'NONE',  ( 59.99999999999999289, 2.000000000000012434, 8.000000000000000000 ) ) ;
#286 = CARTESIAN_POINT ( 'NONE',  ( 34.99999999999999289, 0.000000000000000000, 23.00000000000000000 ) ) ;
#287 = CARTESIAN_POINT ( 'NONE',  ( 41.74999999999998579, 7.000000000000000000, 20.99999999999999645 ) ) ;
#288 = ADVANCED_FACE ( 'NONE', ( #52 ), #294, .F. ) ;
#289 = DIRECTION ( 'NONE',  ( 1.000000000000000000, 0.000000000000000000, 0.000000000000000000 ) ) ;
#290 = SURFACE_STYLE_USAGE ( .BOTH. , #42 ) ;
#291 = DIRECTION ( 'NONE',  ( 4.956352788505171156E-16, -1.000000000000000000, 0.000000000000000000 ) ) ;
#292 = VECTOR ( 'NONE', #340, 1000.000000000000000 ) ;
#293 = VERTEX_POINT ( 'NONE', #238 ) ;
#294 = PLANE ( 'NONE',  #407 ) ;
#295 = ORIENTED_EDGE ( 'NONE', *, *, #361, .F. ) ;
#296 = VECTOR ( 'NONE', #125, 1000.000000000000000 ) ;
#297 = VERTEX_POINT ( 'NONE', #304 ) ;
#298 = CARTESIAN_POINT ( 'NONE',  ( 34.99999999999998579, 13.99999999999996625, 23.00000000000000000 ) ) ;
#299 = VECTOR ( 'NONE', #235, 1000.000000000000000 ) ;
#300 = ORIENTED_EDGE ( 'NONE', *, *, #157, .F. ) ;
#301 = EDGE_LOOP ( 'NONE', ( #365, #347, #140, #53 ) ) ;
#302 = DIRECTION ( 'NONE',  ( 1.000000000000000000, 4.956352788505176087E-16, -0.000000000000000000 ) ) ;
#303 = ORIENTED_EDGE ( 'NONE', *, *, #212, .F. ) ;
#304 = CARTESIAN_POINT ( 'NONE',  ( 48.24999999999999289, 7.000000000000000000, 20.99999999999999645 ) ) ;
#305 = ORIENTED_EDGE ( 'NONE', *, *, #151, .F. ) ;
#306 = DIRECTION ( 'NONE',  ( 1.000000000000000000, 0.000000000000000000, 0.000000000000000000 ) ) ;
#307 = CARTESIAN_POINT ( 'NONE',  ( 34.99999999999999289, 2.000000000000000000, 8.000000000000000000 ) ) ;
#308 = DIRECTION ( 'NONE',  ( -0.000000000000000000, -0.000000000000000000, -1.000000000000000000 ) ) ;
#309 = ORIENTED_EDGE ( 'NONE', *, *, #164, .F. ) ;
#310 = AXIS2_PLACEMENT_3D ( 'NONE', #371, #336, #54 ) ;
#311 = LINE ( 'NONE', #117, #102 ) ;
#312 = MECHANICAL_DESIGN_GEOMETRIC_PRESENTATION_REPRESENTATION (  '', ( #239 ), #230 ) ;
#313 = ORIENTED_EDGE ( 'NONE', *, *, #164, .T. ) ;
#314 = DIRECTION ( 'NONE',  ( 4.956352788505175101E-16, -1.000000000000000000, 0.000000000000000000 ) ) ;
#315 =( NAMED_UNIT ( * ) SI_UNIT ( $, .STERADIAN. ) SOLID_ANGLE_UNIT ( ) );
#316 = PRODUCT_CONTEXT ( 'NONE', #343, 'mechanical' ) ;
#317 = EDGE_CURVE ( 'NONE', #132, #293, #221, .T. ) ;
#318 = LINE ( 'NONE', #66, #271 ) ;
#319 = PRODUCT_DEFINITION_SHAPE ( 'NONE', 'NONE',  #349 ) ;
#320 =( LENGTH_UNIT ( ) NAMED_UNIT ( * ) SI_UNIT ( .MILLI., .METRE. ) );
#321 = LINE ( 'NONE', #161, #273 ) ;
#322 = ADVANCED_BREP_SHAPE_REPRESENTATION ( 'Verrou6', ( #65, #248 ), #333 ) ;
#323 = SURFACE_SIDE_STYLE ('',( #355 ) ) ;
#324 = LINE ( 'NONE', #68, #296 ) ;
#325 = VECTOR ( 'NONE', #15, 1000.000000000000000 ) ;
#326 = FACE_OUTER_BOUND ( 'NONE', #14, .T. ) ;
#327 = EDGE_LOOP ( 'NONE', ( #36, #107, #251, #366 ) ) ;
#328 = VERTEX_POINT ( 'NONE', #48 ) ;
#329 = CARTESIAN_POINT ( 'NONE',  ( 34.99999999999999289, 14.00000000000000000, 8.000000000000000000 ) ) ;
#330 = VERTEX_POINT ( 'NONE', #24 ) ;
#331 = ORIENTED_EDGE ( 'NONE', *, *, #243, .F. ) ;
#332 = LINE ( 'NONE', #45, #385 ) ;
#333 =( GEOMETRIC_REPRESENTATION_CONTEXT ( 3 ) GLOBAL_UNCERTAINTY_ASSIGNED_CONTEXT ( ( #198 ) ) GLOBAL_UNIT_ASSIGNED_CONTEXT ( ( #320, #6, #384 ) ) REPRESENTATION_CONTEXT ( 'NONE', 'WORKASPACE' ) );
#334 = EDGE_LOOP ( 'NONE', ( #203, #108, #199, #171 ) ) ;
#335 = EDGE_CURVE ( 'NONE', #78, #202, #141, .T. ) ;
#336 = DIRECTION ( 'NONE',  ( 0.000000000000000000, 0.000000000000000000, 1.000000000000000000 ) ) ;
#337 = EDGE_CURVE ( 'NONE', #81, #330, #57, .T. ) ;
#338 = VERTEX_POINT ( 'NONE', #73 ) ;
#339 = LINE ( 'NONE', #269, #82 ) ;
#340 = DIRECTION ( 'NONE',  ( -0.000000000000000000, -0.000000000000000000, 1.000000000000000000 ) ) ;
#341 = AXIS2_PLACEMENT_3D ( 'NONE', #3, #25, #116 ) ;
#342 = CARTESIAN_POINT ( 'NONE',  ( 34.99999999999998579, 11.99999999999996625, 8.000000000000000000 ) ) ;
#343 = APPLICATION_CONTEXT ( 'automotive_design' ) ;
#344 = DIRECTION ( 'NONE',  ( 1.000000000000000000, 0.000000000000000000, 0.000000000000000000 ) ) ;
#345 = DIRECTION ( 'NONE',  ( 1.000000000000000000, 0.000000000000000000, 0.000000000000000000 ) ) ;
#346 = PLANE ( 'NONE',  #226 ) ;
#347 = ORIENTED_EDGE ( 'NONE', *, *, #335, .F. ) ;
#348 = LINE ( 'NONE', #98, #370 ) ;
#349 = PRODUCT_DEFINITION ( 'UNKNOWN', '', #408, #261 ) ;
#350 = DIRECTION ( 'NONE',  ( 1.000000000000000000, 0.000000000000000000, 0.000000000000000000 ) ) ;
#351 = DIRECTION ( 'NONE',  ( -1.000000000000000000, -4.956352788505176087E-16, 0.000000000000000000 ) ) ;
#352 = CARTESIAN_POINT ( 'NONE',  ( 0.000000000000000000, 0.000000000000000000, 0.000000000000000000 ) ) ;
#353 = SURFACE_STYLE_FILL_AREA ( #94 ) ;
#354 = AXIS2_PLACEMENT_3D ( 'NONE', #124, #127, #291 ) ;
#355 = SURFACE_STYLE_FILL_AREA ( #156 ) ;
#356 = AXIS2_PLACEMENT_3D ( 'NONE', #285, #101, #4 ) ;
#357 = FACE_OUTER_BOUND ( 'NONE', #34, .T. ) ;
#358 = CIRCLE ( 'NONE', #229, 3.250000000000002665 ) ;
#359 = PRESENTATION_STYLE_ASSIGNMENT (( #290 ) ) ;
#360 = EDGE_CURVE ( 'NONE', #278, #138, #264, .T. ) ;
#361 = EDGE_CURVE ( 'NONE', #81, #270, #133, .T. ) ;
#362 = ORIENTED_EDGE ( 'NONE', *, *, #317, .T. ) ;
#363 = ORIENTED_EDGE ( 'NONE', *, *, #225, .F. ) ;
#364 = DIRECTION ( 'NONE',  ( 0.000000000000000000, -0.000000000000000000, 1.000000000000000000 ) ) ;
#365 = ORIENTED_EDGE ( 'NONE', *, *, #187, .F. ) ;
#366 = ORIENTED_EDGE ( 'NONE', *, *, #85, .T. ) ;
#367 = DIRECTION ( 'NONE',  ( 0.000000000000000000, 0.000000000000000000, 1.000000000000000000 ) ) ;
#368 = EDGE_CURVE ( 'NONE', #270, #328, #380, .T. ) ;
#369 = EDGE_LOOP ( 'NONE', ( #122, #234, #362, #393 ) ) ;
#370 = VECTOR ( 'NONE', #5, 1000.000000000000000 ) ;
#371 = CARTESIAN_POINT ( 'NONE',  ( 44.99999999999999289, 7.000000000000000000, 23.00000000000000000 ) ) ;
#372 = ORIENTED_EDGE ( 'NONE', *, *, #13, .F. ) ;
#373 = DIRECTION ( 'NONE',  ( -4.956352788505171156E-16, 1.000000000000000000, -0.000000000000000000 ) ) ;
#374 = CARTESIAN_POINT ( 'NONE',  ( 54.99999999999999289, 14.00000000000000000, 8.000000000000000000 ) ) ;
#375 = DIRECTION ( 'NONE',  ( 1.000000000000000000, 0.000000000000000000, 0.000000000000000000 ) ) ;
#376 = CARTESIAN_POINT ( 'NONE',  ( 44.99999999999999289, 7.000000000000000000, 20.99999999999999645 ) ) ;
#377 = PLANE ( 'NONE',  #16 ) ;
#378 = FACE_OUTER_BOUND ( 'NONE', #369, .T. ) ;
#379 = DIRECTION ( 'NONE',  ( -0.000000000000000000, 0.000000000000000000, 1.000000000000000000 ) ) ;
#380 = LINE ( 'NONE', #159, #274 ) ;
#381 = CIRCLE ( 'NONE', #194, 3.250000000000002665 ) ;
#382 = FILL_AREA_STYLE_COLOUR ( '', #204 ) ;
#383 = PLANE ( 'NONE',  #354 ) ;
#384 =( NAMED_UNIT ( * ) SI_UNIT ( $, .STERADIAN. ) SOLID_ANGLE_UNIT ( ) );
#385 = VECTOR ( 'NONE', #83, 1000.000000000000000 ) ;
#386 = DIRECTION ( 'NONE',  ( -1.000000000000000000, -4.956352788505176087E-16, -0.000000000000000000 ) ) ;
#387 = EDGE_CURVE ( 'NONE', #175, #113, #126, .T. ) ;
#388 = MECHANICAL_DESIGN_GEOMETRIC_PRESENTATION_REPRESENTATION (  '', ( #11 ), #165 ) ;
#389 = EDGE_LOOP ( 'NONE', ( #218, #51 ) ) ;
#390 = VECTOR ( 'NONE', #150, 1000.000000000000000 ) ;
#391 = EDGE_LOOP ( 'NONE', ( #188, #216, #209, #2 ) ) ;
#392 = CARTESIAN_POINT ( 'NONE',  ( 54.99999999999998579, 13.99999999999997691, 20.99999999999999645 ) ) ;
#393 = ORIENTED_EDGE ( 'NONE', *, *, #244, .F. ) ;
#394 = ORIENTED_EDGE ( 'NONE', *, *, #92, .T. ) ;
#395 = LINE ( 'NONE', #170, #99 ) ;
#396 = ORIENTED_EDGE ( 'NONE', *, *, #361, .T. ) ;
#397 = DIRECTION ( 'NONE',  ( 0.000000000000000000, 1.000000000000000000, 0.000000000000000000 ) ) ;
#398 = ORIENTED_EDGE ( 'NONE', *, *, #212, .T. ) ;
#399 = VECTOR ( 'NONE', #373, 1000.000000000000000 ) ;
#400 = CARTESIAN_POINT ( 'NONE',  ( 54.99999999999998579, 13.99999999999997691, 8.000000000000000000 ) ) ;
#401 = CARTESIAN_POINT ( 'NONE',  ( 0.000000000000000000, 14.00000000000000000, 8.000000000000000000 ) ) ;
#402 = CARTESIAN_POINT ( 'NONE',  ( 54.99999999999998579, 11.99999999999997513, 23.00000000000000000 ) ) ;
#403 = CARTESIAN_POINT ( 'NONE',  ( 0.000000000000000000, 0.000000000000000000, 8.000000000000000000 ) ) ;
#404 = ADVANCED_FACE ( 'NONE', ( #189, #128 ), #257, .T. ) ;
#405 = APPLICATION_CONTEXT ( 'automotive_design' ) ;
#406 = VERTEX_POINT ( 'NONE', #286 ) ;
#407 = AXIS2_PLACEMENT_3D ( 'NONE', #106, #397, #179 ) ;
#408 = PRODUCT_DEFINITION_FORMATION_WITH_SPECIFIED_SOURCE ( 'ANY', '', #162, .NOT_KNOWN. ) ;
ENDSEC;
END-ISO-10303-21;
