  0
SECTION
  2
HEADER
  9
$ACADVER
  1
AC1015
  9
$ACADMAINTVER
 70
     6
  9
$DWGCODEPAGE
  3
ANSI_1252
  9
$INSBASE
 10
0.0
 20
0.0
 30
0.0
  9
$EXTMIN
 10
-17.4384087577
 20
-17.4384087577
 30
0.0
  9
$EXTMAX
 10
17.4384087577
 20
17.4384087577
 30
0.0
  9
$LIMMIN
 10
0.0
 20
0.0
  9
$LIMMAX
 10
420.0
 20
297.0
  9
$ORTHOMODE
 70
     0
  9
$REGENMODE
 70
     1
  9
$FILLMODE
 70
     1
  9
$QTEXTMODE
 70
     0
  9
$MIRRTEXT
 70
     1
  9
$LTSCALE
 40
1.0
  9
$ATTMODE
 70
     1
  9
$TEXTSIZE
 40
3.5
  9
$TRACEWID
 40
1.0
  9
$TEXTSTYLE
  7
Standard
  9
$CLAYER
  8
0
  9
$CELTYPE
  6
ByLayer
  9
$CECOLOR
 62
   256
  9
$CELTSCALE
 40
1.0
  9
$DISPSILH
 70
     0
  9
$DIMSCALE
 40
1.0
  9
$DIMASZ
 40
3.302
  9
$DIMEXO
 40
1.0
  9
$DIMDLI
 40
3.75
  9
$DIMRND
 40
0.0
  9
$DIMDLE
 40
0.0
  9
$DIMEXE
 40
1.0
  9
$DIMTP
 40
0.0
  9
$DIMTM
 40
0.0
  9
$DIMTXT
 40
3.5
  9
$DIMCEN
 40
2.5
  9
$DIMTSZ
 40
0.0
  9
$DIMTOL
 70
     0
  9
$DIMLIM
 70
     0
  9
$DIMTIH
 70
     1
  9
$DIMTOH
 70
     1
  9
$DIMSE1
 70
     0
  9
$DIMSE2
 70
     0
  9
$DIMTAD
 70
     1
  9
$DIMZIN
 70
     0
  9
$DIMBLK
  1

  9
$DIMASO
 70
     1
  9
$DIMSHO
 70
     1
  9
$DIMPOST
  1

  9
$DIMAPOST
  1

  9
$DIMALT
 70
     0
  9
$DIMALTD
 70
     3
  9
$DIMALTF
 40
0.0393700787
  9
$DIMLFAC
 40
1.0
  9
$DIMTOFL
 70
     1
  9
$DIMTVP
 40
0.0
  9
$DIMTIX
 70
     0
  9
$DIMSOXD
 70
     0
  9
$DIMSAH
 70
     0
  9
$DIMBLK1
  1

  9
$DIMBLK2
  1

  9
$DIMSTYLE
  2
ISO-25
  9
$DIMCLRD
 70
     0
  9
$DIMCLRE
 70
     0
  9
$DIMCLRT
 70
     0
  9
$DIMTFAC
 40
1.0
  9
$DIMGAP
 40
1.524
  9
$DIMJUST
 70
     0
  9
$DIMSD1
 70
     0
  9
$DIMSD2
 70
     0
  9
$DIMTOLJ
 70
     0
  9
$DIMTZIN
 70
     0
  9
$DIMALTZ
 70
     0
  9
$DIMALTTZ
 70
     0
  9
$DIMUPT
 70
     0
  9
$DIMDEC
 70
     2
  9
$DIMTDEC
 70
     2
  9
$DIMALTU
 70
     2
  9
$DIMALTTD
 70
     3
  9
$DIMTXSTY
  7
Standard
  9
$DIMAUNIT
 70
     0
  9
$DIMADEC
 70
     2
  9
$DIMALTRND
 40
0.0
  9
$DIMAZIN
 70
     0
  9
$DIMDSEP
 70
    44
  9
$DIMATFIT
 70
     3
  9
$DIMFRAC
 70
     0
  9
$DIMLDRBLK
  1

  9
$DIMLUNIT
 70
     2
  9
$DIMLWD
 70
    -2
  9
$DIMLWE
 70
    -2
  9
$DIMTMOVE
 70
     0
  9
$LUNITS
 70
     2
  9
$LUPREC
 70
     2
  9
$SKETCHINC
 40
1.0
  9
$FILLETRAD
 40
10.0
  9
$AUNITS
 70
     0
  9
$AUPREC
 70
     2
  9
$MENU
  1
.
  9
$ELEVATION
 40
0.0
  9
$PELEVATION
 40
0.0
  9
$THICKNESS
 40
0.0
  9
$LIMCHECK
 70
     0
  9
$CHAMFERA
 40
0.0
  9
$CHAMFERB
 40
0.0
  9
$CHAMFERC
 40
0.0
  9
$CHAMFERD
 40
0.0
  9
$SKPOLY
 70
     0
  9
$TDCREATE
 40
2459280.506673414
  9
$TDUCREATE
 40
2459280.465006748
  9
$TDUPDATE
 40
2459280.506717361
  9
$TDUUPDATE
 40
2459280.465050695
  9
$TDINDWG
 40
0.0000000116
  9
$TDUSRTIMER
 40
0.0000000116
  9
$USRTIMER
 70
     1
  9
$ANGBASE
 50
0.0
  9
$ANGDIR
 70
     0
  9
$PDMODE
 70
     0
  9
$PDSIZE
 40
-1.0
  9
$PLINEWID
 40
0.0
  9
$SPLFRAME
 70
     0
  9
$SPLINETYPE
 70
     6
  9
$SPLINESEGS
 70
     8
  9
$HANDSEED
  5
1E3
  9
$SURFTAB1
 70
     6
  9
$SURFTAB2
 70
     6
  9
$SURFTYPE
 70
     6
  9
$SURFU
 70
     6
  9
$SURFV
 70
     6
  9
$UCSBASE
  2

  9
$UCSNAME
  2

  9
$UCSORG
 10
0.0
 20
0.0
 30
0.0
  9
$UCSXDIR
 10
1.0
 20
0.0
 30
0.0
  9
$UCSYDIR
 10
0.0
 20
1.0
 30
0.0
  9
$UCSORTHOREF
  2

  9
$UCSORTHOVIEW
 70
     0
  9
$UCSORGTOP
 10
0.0
 20
0.0
 30
0.0
  9
$UCSORGBOTTOM
 10
0.0
 20
0.0
 30
0.0
  9
$UCSORGLEFT
 10
0.0
 20
0.0
 30
0.0
  9
$UCSORGRIGHT
 10
0.0
 20
0.0
 30
0.0
  9
$UCSORGFRONT
 10
0.0
 20
0.0
 30
0.0
  9
$UCSORGBACK
 10
0.0
 20
0.0
 30
0.0
  9
$PUCSBASE
  2

  9
$PUCSNAME
  2

  9
$PUCSORG
 10
0.0
 20
0.0
 30
0.0
  9
$PUCSXDIR
 10
1.0
 20
0.0
 30
0.0
  9
$PUCSYDIR
 10
0.0
 20
1.0
 30
0.0
  9
$PUCSORTHOREF
  2

  9
$PUCSORTHOVIEW
 70
     0
  9
$PUCSORGTOP
 10
0.0
 20
0.0
 30
0.0
  9
$PUCSORGBOTTOM
 10
0.0
 20
0.0
 30
0.0
  9
$PUCSORGLEFT
 10
0.0
 20
0.0
 30
0.0
  9
$PUCSORGRIGHT
 10
0.0
 20
0.0
 30
0.0
  9
$PUCSORGFRONT
 10
0.0
 20
0.0
 30
0.0
  9
$PUCSORGBACK
 10
0.0
 20
0.0
 30
0.0
  9
$USERI1
 70
     0
  9
$USERI2
 70
     0
  9
$USERI3
 70
     0
  9
$USERI4
 70
     0
  9
$USERI5
 70
     0
  9
$USERR1
 40
0.0
  9
$USERR2
 40
0.0
  9
$USERR3
 40
0.0
  9
$USERR4
 40
0.0
  9
$USERR5
 40
0.0
  9
$WORLDVIEW
 70
     1
  9
$SHADEDGE
 70
     3
  9
$SHADEDIF
 70
    70
  9
$TILEMODE
 70
     1
  9
$MAXACTVP
 70
    64
  9
$PINSBASE
 10
0.0
 20
0.0
 30
0.0
  9
$PLIMCHECK
 70
     0
  9
$PEXTMIN
 10
-17.4384087577
 20
-17.4384087577
 30
0.0
  9
$PEXTMAX
 10
17.4384087577
 20
17.4384087577
 30
0.0
  9
$PLIMMIN
 10
-21.0155182464
 20
-18.779824816
  9
$PLIMMAX
 10
32.1045576616
 20
18.779824816
  9
$UNITMODE
 70
     0
  9
$VISRETAIN
 70
     1
  9
$PLINEGEN
 70
     0
  9
$PSLTSCALE
 70
     1
  9
$TREEDEPTH
 70
  3020
  9
$CMLSTYLE
  2
Standard
  9
$CMLJUST
 70
     0
  9
$CMLSCALE
 40
20.0
  9
$PROXYGRAPHICS
 70
     1
  9
$MEASUREMENT
 70
     1
  9
$CELWEIGHT
370
    -1
  9
$ENDCAPS
280
     0
  9
$JOINSTYLE
280
     0
  9
$LWDISPLAY
290
     1
  9
$INSUNITS
 70
     4
  9
$HYPERLINKBASE
  1

  9
$STYLESHEET
  1

  9
$XEDIT
290
     1
  9
$CEPSNTYPE
380
     0
  9
$PSTYLEMODE
290
     1
  9
$FINGERPRINTGUID
  2
{B85FAE7F-9122-4BF9-AB0D-8978057766AE}
  9
$VERSIONGUID
  2
{FAEB1C32-E019-11D5-929B-00C0DF256EC4}
  9
$EXTNAMES
290
     1
  9
$PSVPSCALE
 40
0.0
  9
$OLESTARTUP
290
     0
  0
ENDSEC
  0
SECTION
  2
CLASSES
  0
CLASS
  1
ACDBDICTIONARYWDFLT
  2
AcDbDictionaryWithDefault
  3
ObjectDBX Classes
 90
        0
280
     0
281
     0
  0
CLASS
  1
VISUALSTYLE
  2
AcDbVisualStyle
  3
ObjectDBX Classes
 90
     4095
280
     0
281
     0
  0
CLASS
  1
MATERIAL
  2
AcDbMaterial
  3
ObjectDBX Classes
 90
     1153
280
     0
281
     0
  0
CLASS
  1
SCALE
  2
AcDbScale
  3
ObjectDBX Classes
 90
     1153
280
     0
281
     0
  0
CLASS
  1
TABLESTYLE
  2
AcDbTableStyle
  3
ObjectDBX Classes
 90
     4095
280
     0
281
     0
  0
CLASS
  1
MLEADERSTYLE
  2
AcDbMLeaderStyle
  3
ACDB_MLEADERSTYLE_CLASS
 90
     4095
280
     0
281
     0
  0
CLASS
  1
SUN
  2
AcDbSun
  3
SCENEOE
 90
     1153
280
     0
281
     0
  0
CLASS
  1
ACDBPLACEHOLDER
  2
AcDbPlaceHolder
  3
ObjectDBX Classes
 90
        0
280
     0
281
     0
  0
CLASS
  1
LAYOUT
  2
AcDbLayout
  3
ObjectDBX Classes
 90
        0
280
     0
281
     0
  0
ENDSEC
  0
SECTION
  2
TABLES
  0
TABLE
  2
VPORT
  5
8
330
0
100
AcDbSymbolTable
 70
     1
  0
VPORT
  5
29
330
8
100
AcDbSymbolTableRecord
100
AcDbViewportTableRecord
  2
*Active
 70
     0
 10
0.0
 20
0.0
 11
1.0
 21
1.0
 12
0.0
 22
0.0
 13
0.0
 23
0.0
 14
10.0
 24
10.0
 15
10.0
 25
10.0
 16
0.0
 26
0.0
 36
1.0
 17
0.0
 27
0.0
 37
0.0
 40
35.5743538657
 41
1.0
 42
50.0
 43
0.0
 44
0.0
 50
0.0
 51
0.0
 71
     0
 72
   100
 73
     1
 74
     3
 75
     0
 76
     0
 77
     0
 78
     0
281
     0
 65
     1
110
0.0
120
0.0
130
0.0
111
1.0
121
0.0
131
0.0
112
0.0
122
1.0
132
0.0
 79
     0
146
0.0
  0
ENDTAB
  0
TABLE
  2
LTYPE
  5
5
330
0
100
AcDbSymbolTable
 70
     6
  0
LTYPE
  5
14
330
5
100
AcDbSymbolTableRecord
100
AcDbLinetypeTableRecord
  2
ByBlock
 70
     0
  3

 72
    65
 73
     0
 40
0.0
  0
LTYPE
  5
15
330
5
100
AcDbSymbolTableRecord
100
AcDbLinetypeTableRecord
  2
ByLayer
 70
     0
  3

 72
    65
 73
     0
 40
0.0
  0
LTYPE
  5
16
330
5
100
AcDbSymbolTableRecord
100
AcDbLinetypeTableRecord
  2
Continuous
 70
     0
  3
Solid line
 72
    65
 73
     0
 40
0.0
  0
LTYPE
  5
6E
330
5
100
AcDbSymbolTableRecord
100
AcDbLinetypeTableRecord
  2
HIDDEN
 70
     0
  3
Hidden __ __ __ __ __ __ __ __ __ __ __ __ __ __
 72
    65
 73
     2
 40
1.905
 49
1.27
 74
     0
 49
-0.635
 74
     0
  0
LTYPE
  5
6F
330
5
100
AcDbSymbolTableRecord
100
AcDbLinetypeTableRecord
  2
PHANTOM
 70
     0
  3
Phantom ______  __  __  ______  __  __  ______
 72
    65
 73
     6
 40
12.7
 49
6.35
 74
     0
 49
-1.27
 74
     0
 49
1.27
 74
     0
 49
-1.27
 74
     0
 49
1.27
 74
     0
 49
-1.27
 74
     0
  0
LTYPE
  5
70
330
5
100
AcDbSymbolTableRecord
100
AcDbLinetypeTableRecord
  2
CENTER
 70
     0
  3
Center ____ _ ____ _ ____ _ ____ _ ____ _ ____
 72
    65
 73
     4
 40
10.16
 49
6.35
 74
     0
 49
-1.27
 74
     0
 49
1.27
 74
     0
 49
-1.27
 74
     0
  0
LTYPE
  5
71
330
5
100
AcDbSymbolTableRecord
100
AcDbLinetypeTableRecord
  2
CENTERX2
 70
     0
  3
Center (2x) ________  __  ________  __  _____
 72
    65
 73
     4
 40
20.32
 49
12.7
 74
     0
 49
-2.54
 74
     0
 49
2.54
 74
     0
 49
-2.54
 74
     0
  0
LTYPE
  5
72
330
5
100
AcDbSymbolTableRecord
100
AcDbLinetypeTableRecord
  2
DOT2
 70
     0
  3
Dot (.5x) ........................................
 72
    65
 73
     2
 40
0.635
 49
0.0
 74
     0
 49
-0.635
 74
     0
  0
ENDTAB
  0
TABLE
  2
LAYER
  5
2
330
0
100
AcDbSymbolTable
 70
     1
  0
LAYER
  5
10
330
2
100
AcDbSymbolTableRecord
100
AcDbLayerTableRecord
  2
0
 70
     0
 62
     7
  6
Continuous
370
    -3
390
F
  0
ENDTAB
  0
TABLE
  2
STYLE
  5
3
330
0
100
AcDbSymbolTable
 70
     1
  0
STYLE
  5
11
330
3
100
AcDbSymbolTableRecord
100
AcDbTextStyleTableRecord
  2
Standard
 70
     0
 40
0.0
 41
1.0
 50
0.0
 71
     0
 42
3.5
  3
txt
  4

  0
ENDTAB
  0
TABLE
  2
VIEW
  5
6
330
0
100
AcDbSymbolTable
 70
     0
  0
ENDTAB
  0
TABLE
  2
UCS
  5
7
330
0
100
AcDbSymbolTable
 70
     0
  0
ENDTAB
  0
TABLE
  2
APPID
  5
9
330
0
100
AcDbSymbolTable
 70
     1
  0
APPID
  5
12
330
9
100
AcDbSymbolTableRecord
100
AcDbRegAppTableRecord
  2
ACAD
 70
     0
  0
ENDTAB
  0
TABLE
  2
DIMSTYLE
  5
A
330
0
100
AcDbSymbolTable
 70
     1
100
AcDbDimStyleTable
  0
DIMSTYLE
105
27
330
A
100
AcDbSymbolTableRecord
100
AcDbDimStyleTableRecord
  2
ISO-25
 70
     0
 41
2.5
 42
0.625
 43
3.75
 44
1.25
 73
     0
 74
     0
 77
     1
 78
     8
140
2.5
141
2.5
143
0.0393700787
147
0.625
171
     3
172
     1
178
     0
271
     2
272
     2
274
     3
278
    44
283
     0
284
     8
340
11
  0
ENDTAB
  0
TABLE
  2
BLOCK_RECORD
  5
1
330
0
100
AcDbSymbolTable
 70
     9
  0
BLOCK_RECORD
  5
1F
330
1
100
AcDbSymbolTableRecord
100
AcDbBlockTableRecord
  2
*Model_Space
340
22
  0
BLOCK_RECORD
  5
1B
330
1
100
AcDbSymbolTableRecord
100
AcDbBlockTableRecord
  2
*Paper_Space
340
1E
  0
BLOCK_RECORD
  5
23
330
1
100
AcDbSymbolTableRecord
100
AcDbBlockTableRecord
  2
*Paper_Space0
340
26
  0
BLOCK_RECORD
  5
B3
330
1
100
AcDbSymbolTableRecord
100
AcDbBlockTableRecord
  2
*Paper_Space1
340
B4
  0
BLOCK_RECORD
  5
D3
330
1
100
AcDbSymbolTableRecord
100
AcDbBlockTableRecord
  2
*Paper_Space2
340
D4
  0
BLOCK_RECORD
  5
D8
330
1
100
AcDbSymbolTableRecord
100
AcDbBlockTableRecord
  2
*Paper_Space3
340
D9
  0
BLOCK_RECORD
  5
E4
330
1
100
AcDbSymbolTableRecord
100
AcDbBlockTableRecord
  2
*Paper_Space4
340
E5
  0
BLOCK_RECORD
  5
F2
330
1
100
AcDbSymbolTableRecord
100
AcDbBlockTableRecord
  2
*Paper_Space5
340
F3
  0
BLOCK_RECORD
  5
FE
330
1
100
AcDbSymbolTableRecord
100
AcDbBlockTableRecord
  2
*Paper_Space6
340
FF
  0
BLOCK_RECORD
  5
143
330
1
100
AcDbSymbolTableRecord
100
AcDbBlockTableRecord
  2
*Paper_Space7
340
144
  0
BLOCK_RECORD
  5
188
330
1
100
AcDbSymbolTableRecord
100
AcDbBlockTableRecord
  2
*Paper_Space8
340
189
  0
ENDTAB
  0
ENDSEC
  0
SECTION
  2
BLOCKS
  0
BLOCK
  5
20
330
1F
100
AcDbEntity
  8
0
100
AcDbBlockBegin
  2
*Model_Space
 70
     0
 10
0.0
 20
0.0
 30
0.0
  3
*Model_Space
  1

  0
ENDBLK
  5
21
330
1F
100
AcDbEntity
  8
0
100
AcDbBlockEnd
  0
BLOCK
  5
1C
330
1B
100
AcDbEntity
 67
     1
  8
0
100
AcDbBlockBegin
  2
*Paper_Space
 70
     0
 10
0.0
 20
0.0
 30
0.0
  3
*Paper_Space
  1

  0
ENDBLK
  5
1D
330
1B
100
AcDbEntity
 67
     1
  8
0
100
AcDbBlockEnd
  0
BLOCK
  5
24
330
23
100
AcDbEntity
  8
0
100
AcDbBlockBegin
  2
*Paper_Space0
 70
     0
 10
0.0
 20
0.0
 30
0.0
  3
*Paper_Space0
  1

  0
LINE
  5
AF
330
23
100
AcDbEntity
  8
0
  6
Continuous
 62
     7
370
    25
100
AcDbLine
 10
-17.4384087577
 20
0.0
 30
0.0
 11
-17.4384087577
 21
-2.5
 31
0.0
  0
LINE
  5
B0
330
23
100
AcDbEntity
  8
0
  6
Continuous
 62
     7
370
    25
100
AcDbLine
 10
17.4384087577
 20
-2.5
 30
0.0
 11
17.4384087577
 21
0.0
 31
0.0
  0
LINE
  5
B1
330
23
100
AcDbEntity
  8
0
  6
Continuous
 62
     7
370
    25
100
AcDbLine
 10
17.4384087577
 20
-2.5
 30
0.0
 11
-17.4384087577
 21
-2.5
 31
0.0
  0
LINE
  5
B2
330
23
100
AcDbEntity
  8
0
  6
Continuous
 62
     7
370
    25
100
AcDbLine
 10
17.4384087577
 20
0.0
 30
0.0
 11
-17.4384087577
 21
0.0
 31
0.0
  0
VIEWPORT
  5
1D1
330
23
100
AcDbEntity
  8
0
100
AcDbViewport
 10
0.0
 20
0.0
 30
0.0
 40
205.6
 41
156.0
 68
     1
 69
     1
 12
0.0
 22
0.0
 13
0.0
 23
0.0
 14
10.0
 24
10.0
 15
10.0
 25
10.0
 16
0.0
 26
0.0
 36
1.0
 17
0.0
 27
0.0
 37
0.0
 42
50.0
 43
0.0
 44
0.0
 45
35.5743538657
 50
0.0
 51
0.0
 72
   100
 90
   557152
  1

281
     0
 71
     1
 74
     0
110
0.0
120
0.0
130
0.0
111
1.0
121
0.0
131
0.0
112
0.0
122
1.0
132
0.0
 79
     0
146
0.0
  0
ENDBLK
  5
25
330
23
100
AcDbEntity
  8
0
100
AcDbBlockEnd
  0
BLOCK
  5
B5
330
B3
100
AcDbEntity
  8
0
100
AcDbBlockBegin
  2
*Paper_Space1
 70
     0
 10
0.0
 20
0.0
 30
0.0
  3
*Paper_Space1
  1

  0
CIRCLE
  5
B7
330
B3
100
AcDbEntity
  8
0
  6
Continuous
 62
     7
370
    25
100
AcDbCircle
 10
6.6192780145
 20
-3.095
 30
0.0
 40
1.000000000000001
  0
CIRCLE
  5
B8
330
B3
100
AcDbEntity
  8
0
  6
Continuous
 62
     7
370
    25
100
AcDbCircle
 10
0.0
 20
0.0
 30
0.0
 40
17.43840875768198
  0
LINE
  5
C6
330
B3
100
AcDbEntity
  8
0
  6
Continuous
 62
     7
370
    25
100
AcDbLine
 10
-3.1714439709
 20
-5.9
 30
0.0
 11
-2.1481752643
 21
-5.9
 31
0.0
  0
LINE
  5
C7
330
B3
100
AcDbEntity
  8
0
  6
Continuous
 62
     7
370
    25
100
AcDbLine
 10
-15.1848360874
 20
3.9
 30
0.0
 11
-12.42
 21
3.9
 31
0.0
  0
LINE
  5
C8
330
B3
100
AcDbEntity
  8
0
  6
Continuous
 62
     7
370
    25
100
AcDbLine
 10
-12.42
 20
3.9
 30
0.0
 11
-12.42
 21
3.4
 31
0.0
  0
LINE
  5
C9
330
B3
100
AcDbEntity
  8
0
  6
Continuous
 62
     7
370
    25
100
AcDbLine
 10
-12.92
 20
2.9
 30
0.0
 11
-14.8949778891
 21
2.9
 31
0.0
  0
ARC
  5
CA
330
B3
100
AcDbEntity
  8
0
  6
Continuous
 62
     7
370
    25
100
AcDbCircle
 10
6.6192780145
 20
-7.9104198575
 30
0.0
 40
9.995000000000104
100
AcDbArc
 50
151.5433702392
 51
168.3962193938
  0
ARC
  5
CB
330
B3
100
AcDbEntity
  8
0
  6
Continuous
 62
     7
370
    25
100
AcDbCircle
 10
-6.415
 20
5.9
 30
0.0
 40
9.994999999999997
100
AcDbArc
 50
194.6026067534
 51
295.1444474229
  0
ARC
  5
CC
330
B3
100
AcDbEntity
  8
0
  6
Continuous
 62
     7
370
    25
100
AcDbCircle
 10
0.0
 20
0.0
 30
0.0
 40
16.43840875768201
100
AcDbArc
 50
168.1339867087
 51
339.2307789183
  0
ARC
  5
CD
330
B3
100
AcDbEntity
  8
0
  6
Continuous
 62
     7
370
    25
100
AcDbCircle
 10
-6.415
 20
5.9
 30
0.0
 40
8.99499999999943
100
AcDbArc
 50
181.0988967111
 51
192.8468475001
  0
ARC
  5
CE
330
B3
100
AcDbEntity
  8
0
  6
Continuous
 62
     7
370
    25
100
AcDbCircle
 10
-12.92
 20
3.4
 30
0.0
 40
0.5000000000000036
100
AcDbArc
 50
270.0
 51
0.0
  0
ARC
  5
CF
330
B3
100
AcDbEntity
  8
0
  6
Continuous
 62
     7
370
    25
100
AcDbCircle
 10
-6.415
 20
5.9
 30
0.0
 40
8.99500000000001
100
AcDbArc
 50
199.4824812354
 51
313.3439088311
  0
ARC
  5
D0
330
B3
100
AcDbEntity
  8
0
  6
Continuous
 62
     7
370
    25
100
AcDbCircle
 10
6.6192780145
 20
-7.9104198575
 30
0.0
 40
9.995000000000005
100
AcDbArc
 50
21.8587158242
 51
133.3439088311
  0
ARC
  5
D1
330
B3
100
AcDbEntity
  8
0
  6
Continuous
 62
     7
370
    25
100
AcDbCircle
 10
0.0
 20
0.0
 30
0.0
 40
16.438408757682
100
AcDbArc
 50
345.2361621836
 51
159.6092132573
  0
ARC
  5
D2
330
B3
100
AcDbEntity
  8
0
  6
Continuous
 62
     7
370
    25
100
AcDbCircle
 10
6.6192780145
 20
-7.9104198575
 30
0.0
 40
8.995000000000001
100
AcDbArc
 50
13.3784579371
 51
167.08506743
  0
VIEWPORT
  5
1D3
330
B3
100
AcDbEntity
  8
0
100
AcDbViewport
 10
0.0
 20
0.0
 30
0.0
 40
205.6
 41
156.0
 68
     1
 69
     1
 12
0.0
 22
0.0
 13
0.0
 23
0.0
 14
10.0
 24
10.0
 15
10.0
 25
10.0
 16
0.0
 26
0.0
 36
1.0
 17
0.0
 27
0.0
 37
0.0
 42
50.0
 43
0.0
 44
0.0
 45
35.5743538657
 50
0.0
 51
0.0
 72
   100
 90
   557152
  1

281
     0
 71
     1
 74
     0
110
0.0
120
0.0
130
0.0
111
1.0
121
0.0
131
0.0
112
0.0
122
1.0
132
0.0
 79
     0
146
0.0
  0
ENDBLK
  5
B6
330
B3
100
AcDbEntity
  8
0
100
AcDbBlockEnd
  0
BLOCK
  5
D5
330
D3
100
AcDbEntity
  8
0
100
AcDbBlockBegin
  2
*Paper_Space2
 70
     0
 10
0.0
 20
0.0
 30
0.0
  3
*Paper_Space2
  1

  0
CIRCLE
  5
D7
330
D3
100
AcDbEntity
  8
0
  6
Continuous
 62
     7
370
    25
100
AcDbCircle
 10
0.0
 20
0.0
 30
0.0
 40
17.43840875768198
  0
VIEWPORT
  5
1D5
330
D3
100
AcDbEntity
  8
0
100
AcDbViewport
 10
0.0
 20
0.0
 30
0.0
 40
205.6
 41
156.0
 68
     1
 69
     1
 12
0.0
 22
0.0
 13
0.0
 23
0.0
 14
10.0
 24
10.0
 15
10.0
 25
10.0
 16
0.0
 26
0.0
 36
1.0
 17
0.0
 27
0.0
 37
0.0
 42
50.0
 43
0.0
 44
0.0
 45
35.5743538657
 50
0.0
 51
0.0
 72
   100
 90
   557152
  1

281
     0
 71
     1
 74
     0
110
0.0
120
0.0
130
0.0
111
1.0
121
0.0
131
0.0
112
0.0
122
1.0
132
0.0
 79
     0
146
0.0
  0
ENDBLK
  5
D6
330
D3
100
AcDbEntity
  8
0
100
AcDbBlockEnd
  0
BLOCK
  5
DA
330
D8
100
AcDbEntity
  8
0
100
AcDbBlockBegin
  2
*Paper_Space3
 70
     0
 10
0.0
 20
0.0
 30
0.0
  3
*Paper_Space3
  1

  0
LINE
  5
E0
330
D8
100
AcDbEntity
  8
0
  6
Continuous
 62
     7
370
    25
100
AcDbLine
 10
0.0
 20
-17.4384087577
 30
0.0
 11
2.5
 21
-17.4384087577
 31
0.0
  0
LINE
  5
E1
330
D8
100
AcDbEntity
  8
0
  6
Continuous
 62
     7
370
    25
100
AcDbLine
 10
2.5
 20
17.4384087577
 30
0.0
 11
0.0
 21
17.4384087577
 31
0.0
  0
LINE
  5
E2
330
D8
100
AcDbEntity
  8
0
  6
Continuous
 62
     7
370
    25
100
AcDbLine
 10
2.5
 20
17.4384087577
 30
0.0
 11
2.5
 21
-17.4384087577
 31
0.0
  0
LINE
  5
E3
330
D8
100
AcDbEntity
  8
0
  6
Continuous
 62
     7
370
    25
100
AcDbLine
 10
0.0
 20
17.4384087577
 30
0.0
 11
0.0
 21
-17.4384087577
 31
0.0
  0
VIEWPORT
  5
1D7
330
D8
100
AcDbEntity
  8
0
100
AcDbViewport
 10
0.0
 20
0.0
 30
0.0
 40
205.6
 41
156.0
 68
     1
 69
     1
 12
0.0
 22
0.0
 13
0.0
 23
0.0
 14
10.0
 24
10.0
 15
10.0
 25
10.0
 16
0.0
 26
0.0
 36
1.0
 17
0.0
 27
0.0
 37
0.0
 42
50.0
 43
0.0
 44
0.0
 45
35.5743538657
 50
0.0
 51
0.0
 72
   100
 90
   557152
  1

281
     0
 71
     1
 74
     0
110
0.0
120
0.0
130
0.0
111
1.0
121
0.0
131
0.0
112
0.0
122
1.0
132
0.0
 79
     0
146
0.0
  0
ENDBLK
  5
DB
330
D8
100
AcDbEntity
  8
0
100
AcDbBlockEnd
  0
BLOCK
  5
E6
330
E4
100
AcDbEntity
  8
0
100
AcDbBlockBegin
  2
*Paper_Space4
 70
     0
 10
0.0
 20
0.0
 30
0.0
  3
*Paper_Space4
  1

  0
LINE
  5
EE
330
E4
100
AcDbEntity
  8
0
  6
Continuous
 62
     7
370
    25
100
AcDbLine
 10
0.0
 20
17.4384087577
 30
0.0
 11
-2.5
 21
17.4384087577
 31
0.0
  0
LINE
  5
EF
330
E4
100
AcDbEntity
  8
0
  6
Continuous
 62
     7
370
    25
100
AcDbLine
 10
-2.5
 20
-17.4384087577
 30
0.0
 11
0.0
 21
-17.4384087577
 31
0.0
  0
LINE
  5
F0
330
E4
100
AcDbEntity
  8
0
  6
Continuous
 62
     7
370
    25
100
AcDbLine
 10
-2.5
 20
-17.4384087577
 30
0.0
 11
-2.5
 21
17.4384087577
 31
0.0
  0
LINE
  5
F1
330
E4
100
AcDbEntity
  8
0
  6
Continuous
 62
     7
370
    25
100
AcDbLine
 10
0.0
 20
-17.4384087577
 30
0.0
 11
0.0
 21
17.4384087577
 31
0.0
  0
VIEWPORT
  5
1D9
330
E4
100
AcDbEntity
  8
0
100
AcDbViewport
 10
0.0
 20
0.0
 30
0.0
 40
205.6
 41
156.0
 68
     1
 69
     1
 12
0.0
 22
0.0
 13
0.0
 23
0.0
 14
10.0
 24
10.0
 15
10.0
 25
10.0
 16
0.0
 26
0.0
 36
1.0
 17
0.0
 27
0.0
 37
0.0
 42
50.0
 43
0.0
 44
0.0
 45
35.5743538657
 50
0.0
 51
0.0
 72
   100
 90
   557152
  1

281
     0
 71
     1
 74
     0
110
0.0
120
0.0
130
0.0
111
1.0
121
0.0
131
0.0
112
0.0
122
1.0
132
0.0
 79
     0
146
0.0
  0
ENDBLK
  5
E7
330
E4
100
AcDbEntity
  8
0
100
AcDbBlockEnd
  0
BLOCK
  5
F4
330
F2
100
AcDbEntity
  8
0
100
AcDbBlockBegin
  2
*Paper_Space5
 70
     0
 10
0.0
 20
0.0
 30
0.0
  3
*Paper_Space5
  1

  0
LINE
  5
FA
330
F2
100
AcDbEntity
  8
0
  6
Continuous
 62
     7
370
    25
100
AcDbLine
 10
17.4384087577
 20
0.0
 30
0.0
 11
17.4384087577
 21
2.5
 31
0.0
  0
LINE
  5
FB
330
F2
100
AcDbEntity
  8
0
  6
Continuous
 62
     7
370
    25
100
AcDbLine
 10
-17.4384087577
 20
2.5
 30
0.0
 11
-17.4384087577
 21
0.0
 31
0.0
  0
LINE
  5
FC
330
F2
100
AcDbEntity
  8
0
  6
Continuous
 62
     7
370
    25
100
AcDbLine
 10
-17.4384087577
 20
2.5
 30
0.0
 11
17.4384087577
 21
2.5
 31
0.0
  0
LINE
  5
FD
330
F2
100
AcDbEntity
  8
0
  6
Continuous
 62
     7
370
    25
100
AcDbLine
 10
-17.4384087577
 20
0.0
 30
0.0
 11
17.4384087577
 21
0.0
 31
0.0
  0
VIEWPORT
  5
1DB
330
F2
100
AcDbEntity
  8
0
100
AcDbViewport
 10
0.0
 20
0.0
 30
0.0
 40
205.6
 41
156.0
 68
     1
 69
     1
 12
0.0
 22
0.0
 13
0.0
 23
0.0
 14
10.0
 24
10.0
 15
10.0
 25
10.0
 16
0.0
 26
0.0
 36
1.0
 17
0.0
 27
0.0
 37
0.0
 42
50.0
 43
0.0
 44
0.0
 45
35.5743538657
 50
0.0
 51
0.0
 72
   100
 90
   557152
  1

281
     0
 71
     1
 74
     0
110
0.0
120
0.0
130
0.0
111
1.0
121
0.0
131
0.0
112
0.0
122
1.0
132
0.0
 79
     0
146
0.0
  0
ENDBLK
  5
F5
330
F2
100
AcDbEntity
  8
0
100
AcDbBlockEnd
  0
BLOCK
  5
100
330
FE
100
AcDbEntity
  8
0
100
AcDbBlockBegin
  2
*Paper_Space6
 70
     0
 10
0.0
 20
0.0
 30
0.0
  3
*Paper_Space6
  1

  0
LWPOLYLINE
  5
107
330
FE
100
AcDbEntity
  8
0
  6
Continuous
 62
     7
370
    25
100
AcDbPolyline
 90
      143
 70
   128
 43
0.0
 10
10.5630501327
 20
-8.1389393233
 10
10.5509810559
 20
-7.5021257418
 10
10.5147974515
 20
-6.8526240933
 10
10.4545701504
 20
-6.1917058079
 10
10.3704170505
 20
-5.5206646641
 10
10.2625028854
 20
-4.8408142566
 10
10.1310389021
 20
-4.1534854243
 10
9.9762824476
 20
-3.4600236457
 10
9.7985364649
 20
-2.761786405
 10
9.5981489001
 20
-2.0601405341
 10
9.3755120213
 20
-1.356459538
 10
9.1310616506
 20
-0.6521209051
 10
8.8652763111
 20
0.0514965885
 10
8.5786762901
 20
0.7530155787
 10
8.2718226205
 20
1.4510628089
 10
7.9453159829
 20
2.1442718191
 10
7.5997955294
 20
2.8312856199
 10
7.2359376323
 20
3.5107593497
 10
6.8544545608
 20
4.1813629066
 10
6.4560930857
 20
4.8417835528
 10
6.0416330184
 20
5.4907284838
 10
5.6118856839
 20
6.1269273594
 10
5.1676923329
 20
6.7491347905
 10
4.7099224946
 20
7.3561327767
 10
4.239472275
 20
7.9467330911
 10
3.7572626025
 20
8.5197796057
 10
3.2642374253
 20
9.0741505552
 10
2.7613618631
 20
9.6087607323
 10
2.2496203186
 20
10.1225636125
 10
1.7300145499
 20
10.6145534026
 10
1.2035617096
 20
11.0837670094
 10
0.6712923539
 20
11.5292859252
 10
0.1342484251
 20
11.950238026
 10
-0.4065187881
 20
12.345799278
 10
-0.9499507086
 20
12.7151953518
 10
-1.4949835427
 20
13.0577031369
 10
-2.0405503632
 20
13.3726521585
 10
-2.5855831973
 20
13.659425889
 10
-3.1290151178
 20
13.9174629553
 10
-3.669782331
 20
14.1462582379
 10
-4.2068262598
 20
14.345363859
 10
-4.7390956155
 20
14.5143900603
 10
-5.2655484558
 20
14.6530059649
 10
-5.7851542245
 20
14.7609402256
 10
-6.296895769
 20
14.8379815562
 10
-6.7997713312
 20
14.8839791446
 10
-7.2927965085
 20
14.8988429484
 10
-7.7750061809
 20
14.8825438708
 10
-8.2454564005
 20
14.8351138183
 10
-8.7032262388
 20
14.7566456373
 10
-9.1474195899
 20
14.6472929329
 10
-9.5771669243
 20
14.5072697683
 10
-9.9916269916
 20
14.3368502453
 10
-10.3899884667
 20
14.1363679682
 10
-10.7714715383
 20
13.9062153904
 10
-11.1353294353
 20
13.6468430464
 10
-11.4808498889
 20
13.3587586698
 10
-11.8073565265
 20
13.0425261993
 10
-12.114210196
 20
12.6987646747
 10
-12.400810217
 20
12.3281470254
 10
-12.6665955565
 20
11.9313987528
 10
-12.9110459272
 20
11.5092965104
 10
-13.133682806
 20
11.062666583
 10
-13.3340703708
 20
10.5923832698
 10
-13.5118163535
 20
10.0993671724
 10
-13.666572808
 20
9.584583393
 10
-13.7980367913
 20
9.0490396449
 10
-13.9059509564
 20
8.4937842803
 10
-13.9901040563
 20
7.9199042376
 10
-14.0503313574
 20
7.3285229139
 10
-14.0865149619
 20
6.7207979659
 10
-14.0985840386
 20
6.0979190437
 10
-14.0865149619
 20
5.4611054622
 10
-14.0503313574
 20
4.8116038137
 10
-13.9901040563
 20
4.1506855283
 10
-13.9059509564
 20
3.4796443846
 10
-13.7980367913
 20
2.799793977
 10
-13.666572808
 20
2.1124651447
 10
-13.5118163535
 20
1.4190033662
 10
-13.3340703708
 20
0.7207661254
 10
-13.133682806
 20
0.0191202546
 10
-12.9110459272
 20
-0.6845607416
 10
-12.6665955565
 20
-1.3888993745
 10
-12.400810217
 20
-2.0925168681
 10
-12.114210196
 20
-2.7940358582
 10
-11.8073565265
 20
-3.4920830885
 10
-11.4808498889
 20
-4.1852920986
 10
-11.1353294353
 20
-4.8723058995
 10
-10.7714715383
 20
-5.5517796293
 10
-10.3899884667
 20
-6.2223831862
 10
-9.9916269916
 20
-6.8828038324
 10
-9.5771669243
 20
-7.5317487634
 10
-9.1474195899
 20
-8.167947639
 10
-8.7032262388
 20
-8.79015507
 10
-8.2454564005
 20
-9.3971530563
 10
-7.7750061809
 20
-9.9877533707
 10
-7.2927965085
 20
-10.5607998853
 10
-6.7997713312
 20
-11.1151708348
 10
-6.296895769
 20
-11.6497810118
 10
-5.7851542245
 20
-12.1635838921
 10
-5.2655484558
 20
-12.6555736821
 10
-4.7390956155
 20
-13.1247872889
 10
-4.2068262598
 20
-13.5703062048
 10
-3.669782331
 20
-13.9912583055
 10
-3.1290151178
 20
-14.3868195576
 10
-2.5855831973
 20
-14.7562156313
 10
-2.0405503632
 20
-15.0987234165
 10
-1.4949835427
 20
-15.4136724381
 10
-0.9499507086
 20
-15.7004461686
 10
-0.4065187881
 20
-15.9584832349
 10
0.1342484251
 20
-16.1872785174
 10
0.6712923539
 20
-16.3863841386
 10
1.2035617096
 20
-16.5554103398
 10
1.7300145499
 20
-16.6940262444
 10
2.2496203186
 20
-16.8019605052
 10
2.7613618631
 20
-16.8790018358
 10
3.2642374253
 20
-16.9249994242
 10
3.7572626025
 20
-16.9398632279
 10
4.239472275
 20
-16.9235641504
 10
4.7099224946
 20
-16.8761340979
 10
5.1676923329
 20
-16.7976659168
 10
5.6118856839
 20
-16.6883132125
 10
6.0416330184
 20
-16.5482900478
 10
6.4560930857
 20
-16.3778705249
 10
6.8544545608
 20
-16.1773882477
 10
7.2359376323
 20
-15.94723567
 10
7.5997955294
 20
-15.687863326
 10
7.9453159829
 20
-15.3997789494
 10
8.2718226205
 20
-15.0835464788
 10
8.5786762901
 20
-14.7397849542
 10
8.8652763111
 20
-14.3691673049
 10
9.1310616506
 20
-13.9724190324
 10
9.3755120213
 20
-13.5503167899
 10
9.5981489001
 20
-13.1036868626
 10
9.7985364649
 20
-12.6334035494
 10
9.9762824476
 20
-12.140387452
 10
10.1310389021
 20
-11.6256036725
 10
10.2625028854
 20
-11.0900599245
 10
10.3704170505
 20
-10.5348045599
 10
10.4545701504
 20
-9.9609245171
 10
10.5147974515
 20
-9.3695431934
 10
10.5509810559
 20
-8.7618182454
 10
10.5630501327
 20
-8.1389393233
  0
LWPOLYLINE
  5
108
330
FE
100
AcDbEntity
  8
0
  6
Continuous
 62
     7
370
    25
100
AcDbPolyline
 90
       55
 70
   128
 43
0.0
 10
12.3308170857
 20
-7.1184291835
 10
12.3187480089
 20
-6.481615602
 10
12.2825644044
 20
-5.8321139535
 10
12.2223371034
 20
-5.1711956681
 10
12.1381840034
 20
-4.5001545243
 10
12.0302698383
 20
-3.8203041168
 10
11.8988058551
 20
-3.1329752845
 10
11.7440494006
 20
-2.439513506
 10
11.5663034179
 20
-1.7412762652
 10
11.3659158531
 20
-1.0396303944
 10
11.1432789742
 20
-0.3359493982
 10
10.8988286035
 20
0.3683892347
 10
10.633043264
 20
1.0720067283
 10
10.346443243
 20
1.7735257185
 10
10.0395895735
 20
2.4715729487
 10
9.7130829359
 20
3.1647819589
 10
9.3675624823
 20
3.8517957597
 10
9.0037045853
 20
4.5312694895
 10
8.6222215137
 20
5.2018730464
 10
8.2238600387
 20
5.8622936926
 10
7.8093999714
 20
6.5112386236
 10
7.3796526369
 20
7.1474374992
 10
6.9354592859
 20
7.7696449303
 10
6.4776894476
 20
8.3766429165
 10
6.007239228
 20
8.9672432309
 10
5.5250295555
 20
9.5402897455
 10
5.0320043782
 20
10.094660695
 10
4.5291288161
 20
10.6292708721
 10
4.0173872716
 20
11.1430737523
 10
3.4977815028
 20
11.6350635424
 10
2.9713286625
 20
12.1042771492
 10
2.4390593069
 20
12.549796065
 10
1.9020153781
 20
12.9707481657
 10
1.3612481648
 20
13.3663094178
 10
0.8178162444
 20
13.7357054915
 10
0.2727834102
 20
14.0782132767
 10
-0.2727834102
 20
14.3931622983
 10
-0.8178162444
 20
14.6799360288
 10
-1.3612481648
 20
14.9379730951
 10
-1.9020153781
 20
15.1667683776
 10
-2.4390593069
 20
15.3658739988
 10
-2.9713286625
 20
15.5349002001
 10
-3.4977815028
 20
15.6735161046
 10
-4.0173872716
 20
15.7814503654
 10
-4.5291288161
 20
15.858491696
 10
-5.0320043782
 20
15.9044892844
 10
-5.5250295555
 20
15.9193530881
 10
-6.007239228
 20
15.9030540106
 10
-6.4776894476
 20
15.8556239581
 10
-6.9354592859
 20
15.777155777
 10
-7.3796526369
 20
15.6678030727
 10
-7.8093999714
 20
15.5277799081
 10
-8.2238600387
 20
15.3573603851
 10
-8.6222215137
 20
15.156878108
 10
-8.7184957921
 20
15.1025140663
  0
LWPOLYLINE
  5
10F
330
FE
100
AcDbEntity
  8
0
  6
Continuous
 62
     7
370
    25
100
AcDbPolyline
 90
       33
 70
   128
 43
0.0
 10
-12.300106824
 20
7.4276486017
 10
-12.1568947817
 20
6.9199644259
 10
-11.9911169892
 20
6.4103361506
 10
-11.8034125846
 20
5.9007285924
 10
-11.5945052418
 20
5.3931064877
 10
-11.3652003804
 20
4.8894269183
 10
-11.1163820603
 20
4.3916317659
 10
-10.8490095734
 20
3.9016402255
 10
-10.5641137453
 20
3.4213414062
 10
-10.2627929608
 20
2.9525870479
 10
-9.9462089294
 20
2.4971843819
 10
-9.6155822064
 20
2.0568891637
 10
-9.2721874872
 20
1.6333989035
 10
-8.9173486926
 20
1.228346322
 10
-8.5524338651
 20
0.8432930553
 10
-8.1788498941
 20
0.4797236343
 10
-7.7980370918
 20
0.1390397615
 10
-7.4114636407
 20
-0.1774450937
 10
-7.0206199325
 20
-0.4685107583
 10
-6.6270128227
 20
-0.7330350603
 10
-6.2321598206
 20
-0.9699981551
 10
-5.837583239
 20
-1.1784864572
 10
-5.4448043249
 20
-1.3576961627
 10
-5.0553373948
 20
-1.5069363481
 10
-4.6706839959
 20
-1.625631634
 10
-4.2923271176
 20
-1.7133244038
 10
-3.9217254737
 20
-1.7696765674
 10
-3.5603078785
 20
-1.7944708653
 10
-3.2094677381
 20
-1.7876117058
 10
-2.8705576785
 20
-1.7491255335
 10
-2.5448843306
 20
-1.6791607277
 10
-2.2337032925
 20
-1.5779870302
 10
-1.9382142889
 20
-1.4459945051
  0
LWPOLYLINE
  5
110
330
FE
100
AcDbEntity
  8
0
  6
Continuous
 62
     7
370
    25
100
AcDbPolyline
 90
       34
 70
   128
 43
0.0
 10
9.4721798188
 20
-10.9297563032
 10
9.3057163284
 20
-10.3925781462
 10
9.1170332244
 20
-9.8546670758
 10
8.906786302
 20
-9.3178926798
 10
8.675706305
 20
-8.7841205954
 10
8.4245963854
 20
-8.2552060249
 10
8.1543293121
 20
-7.7329872876
 10
7.8658444376
 20
-7.2192794303
 10
7.5601444327
 20
-6.7158679193
 10
7.2382918023
 20
-6.2245024342
 10
6.9014051918
 20
-5.746890787
 10
6.5506554994
 20
-5.2846929862
 10
6.1872618065
 20
-4.8395154672
 10
5.8124871407
 20
-4.4129055091
 10
5.4276340855
 20
-4.0063458566
 10
5.0340402536
 20
-3.6212495667
 10
4.6330736374
 20
-3.2589550975
 10
4.2261278545
 20
-2.9207216558
 10
3.814617304
 20
-2.6077248211
 10
3.3999722503
 20
-2.3210524591
 10
2.9836338526
 20
-2.0617009413
 10
2.5670491553
 20
-1.8305716815
 10
2.1516660589
 20
-1.6284680028
 10
1.7389282875
 20
-1.456092346
 10
1.3302703712
 20
-1.3140438276
 10
0.9271126597
 20
-1.2028161578
 10
0.5308563861
 20
-1.1227959245
 10
0.1428787966
 20
-1.0742612497
 10
-0.2354716366
 20
-1.0573808227
 10
-0.6028799015
 20
-1.0722133137
 10
-0.9580690176
 20
-1.1187071704
 10
-1.2998044735
 20
-1.1967007966
 10
-1.6268985182
 20
-1.3059231142
 10
-1.9382142889
 20
-1.4459945051
  0
LWPOLYLINE
  5
111
330
FE
100
AcDbEntity
  8
0
  6
Continuous
 62
     7
370
    25
100
AcDbPolyline
 90
       68
 70
   128
 43
0.0
 10
9.4721798188
 20
-10.9297563032
 10
9.5950907242
 20
-10.4078107263
 10
9.6945605962
 20
-9.866499596
 10
9.7703842331
 20
-9.3069396114
 10
9.8224052144
 20
-8.7302851179
 10
9.8505162232
 20
-8.1377257263
 10
9.8546592679
 20
-7.5304838584
 10
9.8348258016
 20
-6.9098122252
 10
9.7910567398
 20
-6.2769912426
 10
9.7234423759
 20
-5.6333263902
 10
9.6321221953
 20
-4.9801455179
 10
9.517284587
 20
-4.3187961067
 10
9.3791664555
 20
-3.6506424887
 10
9.2180527321
 20
-2.9770630332
 10
9.0342757865
 20
-2.2994473024
 10
8.828214742
 20
-1.6191931852
 10
8.6002946925
 20
-0.9377040134
 10
8.3509858263
 20
-0.2563856667
 10
8.0808024557
 20
0.4233563276
 10
7.7903019561
 20
1.1001196943
 10
7.4800836162
 20
1.7725083028
 10
7.1507874016
 20
2.4391350474
 10
6.8030926346
 20
3.098624709
 10
6.4377165931
 20
3.7496167918
 10
6.0554130304
 20
4.3907683303
 10
5.6569706205
 20
5.0207566594
 10
5.243211331
 20
5.6382821431
 10
4.8149887277
 20
6.242070856
 10
4.3731862134
 20
6.8308772106
 10
3.9187152055
 20
7.4034865275
 10
3.4525132561
 20
7.9587175411
 10
2.9755421177
 20
8.4954248362
 10
2.4887857588
 20
9.0125012112
 10
1.9932483347
 20
9.5088799624
 10
1.4899521154
 20
9.9835370838
 10
0.979935377
 20
10.4354933807
 10
0.4642502598
 20
10.8638164886
 10
-0.0560394025
 20
11.2676227975
 10
-0.5798602771
 20
11.6460792742
 10
-1.1061317465
 20
11.9984051809
 10
-1.6337681378
 20
12.3238736863
 10
-2.1616809622
 20
12.6218133642
 10
-2.6887811609
 20
12.8916095794
 10
-3.2139813511
 20
13.132705755
 10
-3.7361980701
 20
13.3446045212
 10
-4.2543540095
 20
13.526868741
 10
-4.7673802384
 20
13.6791224119
 10
-5.2742184081
 20
13.8010514419
 10
-5.7738229357
 20
13.8924042972
 10
-6.2651631609
 20
13.9529925212
 10
-6.7472254722
 20
13.9826911233
 10
-7.219015398
 20
13.9814388368
 10
-7.6795596583
 20
13.9492382449
 10
-8.1279081721
 20
13.8861557761
 10
-8.5631360179
 20
13.7923215664
 10
-8.9843453415
 20
13.6679291913
 10
-9.3906672079
 20
13.5132352663
 10
-9.7812633947
 20
13.3285589177
 10
-10.1553281205
 20
13.114281124
 10
-10.5120897077
 20
12.87084393
 10
-10.850812174
 20
12.598749535
 10
-11.1707967511
 20
12.2985592569
 10
-11.4713833263
 20
11.9708923737
 10
-11.7519518036
 20
11.6164248468
 10
-12.0119233838
 20
11.2358879256
 10
-12.2507617578
 20
10.8300666398
 10
-12.4679742134
 20
10.3997981792
 10
-12.6631126518
 20
9.9459701672
  0
LWPOLYLINE
  5
114
330
FE
100
AcDbEntity
  8
0
  6
Continuous
 62
     7
370
    25
100
AcDbPolyline
 90
       31
 70
   128
 43
0.0
 10
-13.143091693
 20
8.3063364649
 10
-13.0272307777
 20
7.7812747659
 10
-12.8883729611
 20
7.2515422326
 10
-12.7269931983
 20
6.7189507835
 10
-12.5436434791
 20
6.1853221162
 10
-12.3389509403
 20
5.6524814758
 10
-12.1136157206
 20
5.1222514122
 10
-11.8684085659
 20
4.5964455458
 10
-11.6041681925
 20
4.0768623644
 10
-11.3217984191
 20
3.5652790714
 10
-11.0222650746
 20
3.0634455071
 10
-10.7065926952
 20
2.5730781635
 10
-10.3758610193
 20
2.095854313
 10
-10.0312012952
 20
1.6334062713
 10
-9.673792411
 20
1.1873158146
 10
-9.3048568625
 20
0.7591087689
 10
-8.9256565719
 20
0.3502497909
 10
-8.5374885713
 20
-0.0378626415
 10
-8.1416805662
 20
-0.4039010127
 10
-7.7395863946
 20
-0.7466133103
 10
-7.3325813956
 20
-1.0648273071
 10
-6.9220577056
 20
-1.3574545711
 10
-6.5094194967
 20
-1.623494188
 10
-6.0960781734
 20
-1.8620361852
 10
-5.683447545
 20
-2.0722646438
 10
-5.2729389901
 20
-2.25346049
 10
-4.865956629
 20
-2.4050039541
 10
-4.4638925207
 20
-2.5263766906
 10
-4.0681219015
 20
-2.6171635514
 10
-3.6799984814
 20
-2.6770540052
 10
-3.3008498135
 20
-2.7058432005
  0
LWPOLYLINE
  5
115
330
FE
100
AcDbEntity
  8
0
  6
Continuous
 62
     7
370
    25
100
AcDbPolyline
 90
       66
 70
   128
 43
0.0
 10
-13.143091693
 20
8.3063364649
 10
-13.2408560821
 20
7.7565951678
 10
-13.3144093035
 20
7.188331922
 10
-13.363596141
 20
6.6027459089
 10
-13.3883127976
 20
6.0010728657
 10
-13.388507115
 20
5.3845824772
 10
-13.364178683
 20
4.7545756965
 10
-13.3153788408
 20
4.1123819999
 10
-13.2422105688
 20
3.4593565813
 10
-13.1448282707
 20
2.7968774922
 10
-13.0234374482
 20
2.1263427338
 10
-12.8782942673
 20
1.4491673067
 10
-12.7097050172
 20
0.7667802253
 10
-12.5180254648
 20
0.0806215017
 10
-12.303660103
 20
-0.6078608927
 10
-12.067061298
 20
-1.2972140832
 10
-11.808728334
 20
-1.9859833571
 10
-11.52920636
 20
-2.6727152344
 10
-11.2290852393
 20
-3.3559605342
 10
-10.9089983045
 20
-4.0342774332
 10
-10.5696210215
 20
-4.7062345083
 10
-10.2116695634
 20
-5.3704137575
 10
-9.8358993
 20
-6.0254135917
 10
-9.443103203
 20
-6.6698517929
 10
-9.0341101732
 20
-7.3023684308
 10
-8.6097832912
 20
-7.9216287327
 10
-8.1710179956
 20
-8.5263259001
 10
-7.718740194
 20
-9.1151838666
 10
-7.253904309
 20
-9.6869599904
 10
-6.7774912637
 20
-10.2404476769
 10
-6.2905064121
 20
-10.7744789248
 10
-5.7939774175
 20
-11.2879267909
 10
-5.2889520837
 20
-11.7797077681
 10
-4.776496144
 20
-12.2487840723
 10
-4.2576910122
 20
-12.6941658317
 10
-3.7336315005
 20
-13.1149131764
 10
-3.2054235092
 20
-13.5101382212
 10
-2.6741816929
 20
-13.8790069398
 10
-2.1410271084
 20
-14.2207409244
 10
-1.6070848491
 20
-14.5346190282
 10
-1.0734816704
 20
-14.8199788879
 10
-0.5413436121
 20
-15.0762183208
 10
-0.0117936223
 20
-15.3027965958
 10
0.5140508123
 20
-15.4992355744
 10
1.0350800247
 20
-15.66512072
 10
1.5501945095
 20
-15.8001019722
 10
2.0583072425
 20
-15.9038944859
 10
2.5583459753
 20
-15.9762792322
 10
3.0492554976
 20
-16.0171034607
 10
3.5299998641
 20
-16.0262810218
 10
3.9995645806
 20
-16.0037925483
 10
4.4569587449
 20
-15.9496854969
 10
4.9012171375
 20
-15.8640740473
 10
5.3314022592
 20
-15.7471388616
 10
5.7466063087
 20
-15.5991267032
 10
6.1459530987
 20
-15.4203499158
 10
6.5285999048
 20
-15.2111857643
 10
6.8937392439
 20
-14.9720756389
 10
7.2406005781
 20
-14.7035241234
 10
7.5684519408
 20
-14.4060979307
 10
7.8766014813
 20
-14.0804247063
 10
8.1643989249
 20
-13.7271917045
 10
8.4312369451
 20
-13.3471443379
 10
8.6765524449
 20
-12.9410846039
 10
8.8998277456
 20
-12.5098693932
 10
9.1005916789
 20
-12.0544086806
  0
LWPOLYLINE
  5
116
330
FE
100
AcDbEntity
  8
0
  6
Continuous
 62
     7
370
    25
100
AcDbPolyline
 90
       44
 70
   128
 43
0.0
 10
9.1005916789
 20
-12.0544086806
 10
8.99679699
 20
-11.5522927996
 10
8.8693293057
 20
-11.0448439591
 10
8.7186846038
 20
-10.5340366461
 10
8.5454490438
 20
-10.0218584157
 10
8.3502966866
 20
-9.5103021569
 10
8.1339868715
 20
-9.001358339
 10
7.8973612613
 20
-8.497007266
 10
7.6413405683
 20
-7.9992113715
 10
7.3669209706
 20
-7.5099075831
 10
7.0751702369
 20
-7.0309997852
 10
6.7672235716
 20
-6.5643514116
 10
6.4442791972
 20
-6.1117781946
 10
6.1075936926
 20
-5.6750410997
 10
5.7584771037
 20
-5.2558394742
 10
5.3982878455
 20
-4.8558044346
 10
5.0284274172
 20
-4.4764925202
 10
4.6503349482
 20
-4.1193796364
 10
4.2654815992
 20
-3.785855312
 10
3.8753648373
 20
-3.4772172925
 10
3.4815026096
 20
-3.1946664907
 10
3.085427437
 20
-2.9393023139
 10
2.6886804507
 20
-2.7121183859
 10
2.2928053963
 20
-2.513998681
 10
1.8993426263
 20
-2.3457140844
 10
1.5098231074
 20
-2.2079193927
 10
1.1257624627
 20
-2.101150766
 10
0.748655075
 20
-2.0258236419
 10
0.3799682718
 20
-1.9822311188
 10
0.0211366163
 20
-1.9705428154
 10
-0.326443675
 20
-1.990804211
 10
-0.6614201648
 20
-2.0429364684
 10
-0.9824894569
 20
-2.1267367406
 10
-1.2884022686
 20
-2.2418789601
 10
-1.5779682909
 20
-2.3879151078
 10
-1.8500608201
 20
-2.5642769559
 10
-2.1036211424
 20
-2.7702782791
 10
-2.3376626528
 20
-3.0051175249
 10
-2.5512746939
 20
-3.2678809321
 10
-2.7436260997
 20
-3.5575460863
 10
-2.9139684297
 20
-3.8729858982
 10
-3.0616388805
 20
-4.2129729894
 10
-3.1860628653
 20
-4.5761844676
 10
-3.2867562495
 20
-4.9612070742
  0
LWPOLYLINE
  5
119
330
FE
100
AcDbEntity
  8
0
  6
Continuous
 62
     7
370
    25
100
AcDbPolyline
 90
       31
 70
   128
 43
0.0
 10
9.8408077708
 20
-8.4067577128
 10
9.7363664768
 20
-8.1718145115
 10
9.4852565572
 20
-7.642899941
 10
9.2149894839
 20
-7.1206812037
 10
8.9265046093
 20
-6.6069733465
 10
8.6208046045
 20
-6.1035618355
 10
8.2989519741
 20
-5.6121963503
 10
7.9620653636
 20
-5.1345847031
 10
7.6113156712
 20
-4.6723869023
 10
7.2479219783
 20
-4.2272093833
 10
6.8731473125
 20
-3.8005994252
 10
6.4882942573
 20
-3.3940397727
 10
6.0947004254
 20
-3.0089434829
 10
5.6937338092
 20
-2.6466490136
 10
5.2867880263
 20
-2.308415572
 10
4.8752774757
 20
-1.9954187372
 10
4.4606324221
 20
-1.7087463753
 10
4.0442940244
 20
-1.4493948575
 10
3.6277093271
 20
-1.2182655976
 10
3.2123262307
 20
-1.0161619189
 10
2.7995884593
 20
-0.8437862621
 10
2.3909305429
 20
-0.7017377437
 10
1.9877728315
 20
-0.5905100739
 10
1.5915165579
 20
-0.5104898407
 10
1.2035389683
 20
-0.4619551659
 10
0.8251885352
 20
-0.4450747388
 10
0.4577802703
 20
-0.4599072299
 10
0.1025911542
 20
-0.5064010866
 10
-0.2391443018
 20
-0.5843947128
 10
-0.5662383464
 20
-0.6936170303
 10
-0.8775541171
 20
-0.8336884212
  0
LWPOLYLINE
  5
11A
330
FE
100
AcDbEntity
  8
0
  6
Continuous
 62
     7
370
    25
100
AcDbPolyline
 90
       31
 70
   128
 43
0.0
 10
-10.7664617606
 20
6.5742521101
 10
-10.7427524128
 20
6.5130346763
 10
-10.53384507
 20
6.0054125716
 10
-10.3045402086
 20
5.5017330021
 10
-10.0557218885
 20
5.0039378497
 10
-9.7883494016
 20
4.5139463094
 10
-9.5034535735
 20
4.0336474901
 10
-9.202132789
 20
3.5648931318
 10
-8.8855487576
 20
3.1094904658
 10
-8.5549220346
 20
2.6691952476
 10
-8.2115273154
 20
2.2457049874
 10
-7.8566885208
 20
1.8406524059
 10
-7.4917736933
 20
1.4555991392
 10
-7.1181897223
 20
1.0920297182
 10
-6.73737692
 20
0.7513458453
 10
-6.3508034689
 20
0.4348609901
 10
-5.9599597607
 20
0.1437953255
 10
-5.5663526509
 20
-0.1207289765
 10
-5.1714996488
 20
-0.3576920713
 10
-4.7769230672
 20
-0.5661803734
 10
-4.3841441531
 20
-0.7453900789
 10
-3.994677223
 20
-0.8946302642
 10
-3.6100238241
 20
-1.0133255502
 10
-3.2316669459
 20
-1.1010183199
 10
-2.8610653019
 20
-1.1573704836
 10
-2.4996477067
 20
-1.1821647814
 10
-2.1488075663
 20
-1.1753056219
 10
-1.8098975067
 20
-1.1368194496
 10
-1.4842241588
 20
-1.0668546439
 10
-1.1730431207
 20
-0.9656809463
 10
-0.8775541171
 20
-0.8336884212
  0
LWPOLYLINE
  5
11F
330
FE
100
AcDbEntity
  8
0
  6
Continuous
 62
     7
370
    25
100
AcDbPolyline
 90
       51
 70
   128
 43
0.0
 10
-12.3150349311
 20
5.5936868178
 10
-12.3035185112
 20
5.3668817804
 10
-12.2547186691
 20
4.7246880838
 10
-12.181550397
 20
4.0716626652
 10
-12.0841680989
 20
3.4091835761
 10
-11.9627772765
 20
2.7386488176
 10
-11.8176340955
 20
2.0614733906
 10
-11.6490448455
 20
1.3790863092
 10
-11.457365293
 20
0.6929275856
 10
-11.2429999312
 20
0.0044451911
 10
-11.0064011262
 20
-0.6849079993
 10
-10.7480681622
 20
-1.3736772733
 10
-10.4685461883
 20
-2.0604091506
 10
-10.1684250675
 20
-2.7436544503
 10
-9.8483381328
 20
-3.4219713493
 10
-9.5089608497
 20
-4.0939284245
 10
-9.1510093916
 20
-4.7581076737
 10
-8.7752391282
 20
-5.4131075079
 10
-8.3824430312
 20
-6.0575457091
 10
-7.9734500015
 20
-6.690062347
 10
-7.5491231194
 20
-7.3093226488
 10
-7.1103578238
 20
-7.9140198163
 10
-6.6580800223
 20
-8.5028777827
 10
-6.1932441372
 20
-9.0746539065
 10
-5.7168310919
 20
-9.628141593
 10
-5.2298462404
 20
-10.1621728409
 10
-4.7333172458
 20
-10.675620707
 10
-4.228291912
 20
-11.1674016843
 10
-3.7158359723
 20
-11.6364779884
 10
-3.1970308404
 20
-12.0818597478
 10
-2.6729713287
 20
-12.5026070925
 10
-2.1447633374
 20
-12.8978321374
 10
-1.6135215211
 20
-13.266700856
 10
-1.0803669367
 20
-13.6084348405
 10
-0.5464246774
 20
-13.9223129443
 10
-0.0128214986
 20
-14.207672804
 10
0.5193165597
 20
-14.4639122369
 10
1.0488665495
 20
-14.6904905119
 10
1.5747109841
 20
-14.8869294905
 10
2.0957401965
 20
-15.0528146361
 10
2.6108546813
 20
-15.1877958884
 10
3.1189674143
 20
-15.2915884021
 10
3.6190061471
 20
-15.3639731484
 10
4.1099156694
 20
-15.4047973769
 10
4.5906600359
 20
-15.4139749379
 10
5.0602247524
 20
-15.3914864645
 10
5.5176189166
 20
-15.337379413
 10
5.9618773093
 20
-15.2517679634
 10
6.392062431
 20
-15.1348327777
 10
6.8072664804
 20
-14.9868206193
 10
6.9639765714
 20
-14.921161204
  0
LWPOLYLINE
  5
122
330
FE
100
AcDbEntity
  8
0
  6
Continuous
 62
     7
370
    25
100
AcDbPolyline
 90
       14
 70
   128
 43
0.0
 10
4.6805363706
 20
-6.0456180573
 10
4.668496534
 20
-5.8886286271
 10
4.6327870261
 20
-5.7230843841
 10
4.5746238916
 20
-5.554622739
 10
4.4959878062
 20
-5.388980451
 10
4.3995566274
 20
-5.2317982696
 10
4.2886142035
 20
-5.0884288454
 10
4.1669385455
 20
-4.9637544524
 10
4.0386731721
 20
-4.8620207273
 10
3.9081860068
 20
-4.7866920901
 10
3.7799206334
 20
-4.7403337674
 10
3.6582449754
 20
-4.724524436
 10
3.5473025515
 20
-4.739802464
 10
3.4734702231
 20
-4.7713651391
  0
LWPOLYLINE
  5
125
330
FE
100
AcDbEntity
  8
0
  6
Continuous
 62
     7
370
    25
100
AcDbPolyline
 90
       35
 70
   128
 43
0.0
 10
3.6198761989
 20
-6.6579241412
 10
3.6078363622
 20
-6.500934711
 10
3.5721268544
 20
-6.335390468
 10
3.5139637198
 20
-6.1669288228
 10
3.4353276344
 20
-6.0012865348
 10
3.3388964556
 20
-5.8441043534
 10
3.2279540317
 20
-5.7007349293
 10
3.1062783737
 20
-5.5760605362
 10
2.9780130003
 20
-5.4743268111
 10
2.847525835
 20
-5.398998174
 10
2.7192604616
 20
-5.3526398512
 10
2.5975848037
 20
-5.3368305199
 10
2.4866423797
 20
-5.3521085478
 10
2.3902112009
 20
-5.3979536601
 10
2.3115751155
 20
-5.4728046564
 10
2.253411981
 20
-5.5741125758
 10
2.2177024732
 20
-5.6984274987
 10
2.2056626365
 20
-5.8415160294
 10
2.2177024732
 20
-5.9985054596
 10
2.253411981
 20
-6.1640497026
 10
2.3115751155
 20
-6.3325113478
 10
2.3902112009
 20
-6.4981536358
 10
2.4866423797
 20
-6.6553358172
 10
2.5975848037
 20
-6.7987052413
 10
2.7192604616
 20
-6.9233796344
 10
2.847525835
 20
-7.0251133595
 10
2.9780130003
 20
-7.1004419966
 10
3.1062783737
 20
-7.1468003194
 10
3.2279540317
 20
-7.1626096507
 10
3.3388964556
 20
-7.1473316228
 10
3.4353276344
 20
-7.1014865105
 10
3.5139637198
 20
-7.0266355142
 10
3.5721268544
 20
-6.9253275948
 10
3.6078363622
 20
-6.8010126719
 10
3.6198761989
 20
-6.6579241412
  0
LINE
  5
129
330
FE
100
AcDbEntity
  8
0
  6
Continuous
 62
     7
370
    25
100
AcDbLine
 10
-8.7184957921
 20
15.1025140663
 30
0.0
 11
-10.4862627451
 21
14.0820039265
 31
0.0
  0
LINE
  5
12A
330
FE
100
AcDbEntity
  8
0
  6
Continuous
 62
     7
370
    25
100
AcDbLine
 10
6.9507288391
 20
-16.1230242061
 30
0.0
 11
8.7184957921
 21
-15.1025140663
 31
0.0
  0
LINE
  5
12B
330
FE
100
AcDbEntity
  8
0
  6
Continuous
 62
     7
370
    25
100
AcDbLine
 10
3.4734702231
 20
-4.7713651391
 30
0.0
 11
2.4128100514
 21
-5.3836712229
 31
0.0
  0
LINE
  5
12C
330
FE
100
AcDbEntity
  8
0
  6
Continuous
 62
     7
370
    25
100
AcDbLine
 10
3.412728784
 20
-7.1157689477
 30
0.0
 11
4.4733889558
 21
-6.5034628638
 31
0.0
  0
LINE
  5
12D
330
FE
100
AcDbEntity
  8
0
  6
Continuous
 62
     7
370
    25
100
AcDbLine
 10
-10.6536068827
 20
6.5967005918
 30
0.0
 11
-9.592946711
 21
7.2090066757
 31
0.0
  0
LINE
  5
12E
330
FE
100
AcDbEntity
  8
0
  6
Continuous
 62
     7
370
    25
100
AcDbLine
 10
-12.5050675216
 20
8.3625107058
 30
0.0
 11
-10.5500331753
 21
7.233893401
 31
0.0
  0
LINE
  5
12F
330
FE
100
AcDbEntity
  8
0
  6
Continuous
 62
     7
370
    25
100
AcDbLine
 10
-10.5500331753
 20
7.233893401
 30
0.0
 11
-10.5500331753
 21
6.8256229951
 31
0.0
  0
LINE
  5
130
330
FE
100
AcDbEntity
  8
0
  6
Continuous
 62
     7
370
    25
100
AcDbLine
 10
-10.9035865659
 20
6.6214546171
 30
0.0
 11
-12.300106824
 21
7.4276486017
 31
0.0
  0
LINE
  5
131
330
FE
100
AcDbEntity
  8
0
  6
Continuous
 62
     7
370
    25
100
AcDbLine
 10
-4.010316491
 20
-4.5435046379
 30
0.0
 11
-3.2867562495
 21
-4.9612070742
 31
0.0
  0
LINE
  5
132
330
FE
100
AcDbEntity
  8
0
  6
Continuous
 62
     7
370
    25
100
AcDbLine
 10
-12.6631126518
 20
9.9459701672
 30
0.0
 11
-11.60245248
 21
10.558276251
 31
0.0
  0
LINE
  5
133
330
FE
100
AcDbEntity
  8
0
  6
Continuous
 62
     7
370
    25
100
AcDbLine
 10
-9.4893730035
 20
7.8461994849
 30
0.0
 11
-9.4893730035
 21
7.4379290789
 31
0.0
  0
LINE
  5
134
330
FE
100
AcDbEntity
  8
0
  6
Continuous
 62
     7
370
    25
100
AcDbLine
 10
-11.4444073498
 20
8.9748167897
 30
0.0
 11
-9.4893730035
 21
7.8461994849
 31
0.0
  0
LINE
  5
135
330
FE
100
AcDbEntity
  8
0
  6
Continuous
 62
     7
370
    25
100
AcDbLine
 10
-1.9382142889
 20
-1.4459945051
 30
0.0
 11
-0.8775541171
 21
-0.8336884212
 31
0.0
  0
LINE
  5
136
330
FE
100
AcDbEntity
  8
0
  6
Continuous
 62
     7
370
    25
100
AcDbLine
 10
-3.2867562495
 20
-4.9612070742
 30
0.0
 11
-2.2260960778
 21
-4.3489009903
 31
0.0
  0
LINE
  5
137
330
FE
100
AcDbEntity
  8
0
  6
Continuous
 62
     7
370
    25
100
AcDbLine
 10
-10.5500331753
 20
7.233893401
 30
0.0
 11
-9.4893730035
 21
7.8461994849
 31
0.0
  0
LINE
  5
138
330
FE
100
AcDbEntity
  8
0
  6
Continuous
 62
     7
370
    25
100
AcDbLine
 10
-12.5050675216
 20
8.3625107058
 30
0.0
 11
-11.4444073498
 21
8.9748167897
 31
0.0
  0
LINE
  5
139
330
FE
100
AcDbEntity
  8
0
  6
Continuous
 62
     7
370
    25
100
AcDbLine
 10
-10.5500331753
 20
6.8256229951
 30
0.0
 11
-9.4893730035
 21
7.4379290789
 31
0.0
  0
ARC
  5
13A
330
FE
100
AcDbEntity
  8
0
  6
Continuous
 62
     7
370
    25
100
AcDbCircle
 10
3.6089027815
 20
-7.9815063691
 30
0.0
 40
8.764513184325809
100
AcDbArc
 50
305.6608736335
 51
5.6513067599
  0
ARC
  5
13B
330
FE
100
AcDbEntity
  8
0
  6
Continuous
 62
     7
370
    25
100
AcDbCircle
 10
-2.6221376474
 20
10.1485431697
 30
0.0
 40
10.04301821461907
100
AcDbArc
 50
181.1557646326
 51
190.2438673736
  0
ARC
  5
13C
330
FE
100
AcDbEntity
  8
0
  6
Continuous
 62
     7
370
    25
100
AcDbCircle
 10
-10.765570359
 20
6.7906593966
 30
0.0
 40
0.2183545987142412
100
AcDbArc
 50
230.7967147643
 51
9.2140369905
  0
ARC
  5
13D
330
FE
100
AcDbEntity
  8
0
  6
Continuous
 62
     7
370
    25
100
AcDbCircle
 10
1.1812883333
 20
-5.4920468054
 30
0.0
 40
5.277546105432739
100
AcDbArc
 50
148.1339335907
 51
169.6458693456
  0
ARC
  5
13E
330
FE
100
AcDbEntity
  8
0
  6
Continuous
 62
     7
370
    25
100
AcDbCircle
 10
-5.4636906986
 20
8.2964541941
 30
0.0
 40
6.542188871194949
100
AcDbArc
 50
127.4175544229
 51
159.7737190386
  0
ARC
  5
13F
330
FE
100
AcDbEntity
  8
0
  6
Continuous
 62
     7
370
    25
100
AcDbCircle
 10
-9.7343739547
 20
7.4108857102
 30
0.0
 40
0.2464889650124935
100
AcDbArc
 50
305.0133328765
 51
6.2988475169
  0
ARC
  5
140
330
FE
100
AcDbEntity
  8
0
  6
Continuous
 62
     7
370
    25
100
AcDbCircle
 10
-1.5614774757
 20
10.7608492536
 30
0.0
 40
10.04301821461972
100
AcDbArc
 50
181.1557646326
 51
190.2438673736
  0
ARC
  5
141
330
FE
100
AcDbEntity
  8
0
  6
Continuous
 62
     7
370
    25
100
AcDbCircle
 10
1.7489479275
 20
-5.0819833777
 30
0.0
 40
4.04207677191019
100
AcDbArc
 50
133.2899377435
 51
169.5508505074
  0
ARC
  5
142
330
FE
100
AcDbEntity
  8
0
  6
Continuous
 62
     7
370
    25
100
AcDbCircle
 10
4.1853746336
 20
-6.0973702778
 30
0.0
 40
0.4978588536629433
100
AcDbArc
 50
305.3455294364
 51
5.966650957
  0
VIEWPORT
  5
1DD
330
FE
100
AcDbEntity
  8
0
100
AcDbViewport
 10
0.0
 20
0.0
 30
0.0
 40
205.6
 41
156.0
 68
     1
 69
     1
 12
0.0
 22
0.0
 13
0.0
 23
0.0
 14
10.0
 24
10.0
 15
10.0
 25
10.0
 16
0.0
 26
0.0
 36
1.0
 17
0.0
 27
0.0
 37
0.0
 42
50.0
 43
0.0
 44
0.0
 45
35.5743538657
 50
0.0
 51
0.0
 72
   100
 90
   557152
  1

281
     0
 71
     1
 74
     0
110
0.0
120
0.0
130
0.0
111
1.0
121
0.0
131
0.0
112
0.0
122
1.0
132
0.0
 79
     0
146
0.0
  0
ENDBLK
  5
101
330
FE
100
AcDbEntity
  8
0
100
AcDbBlockEnd
  0
BLOCK
  5
145
330
143
100
AcDbEntity
  8
0
100
AcDbBlockBegin
  2
*Paper_Space7
 70
     0
 10
0.0
 20
0.0
 30
0.0
  3
*Paper_Space7
  1

  0
LWPOLYLINE
  5
14C
330
143
100
AcDbEntity
  8
0
  6
Continuous
 62
     7
370
    25
100
AcDbPolyline
 90
      143
 70
   128
 43
0.0
 10
14.2561062462
 20
-5.3303712399
 10
14.2410107748
 20
-4.6650847473
 10
14.1957539107
 20
-3.9928953328
 10
14.1204242463
 20
-3.315118839
 10
14.0151692431
 20
-2.633082045
 10
13.8801949425
 20
-1.9481200699
 10
13.7157655632
 20
-1.261573759
 10
13.5222029833
 20
-0.5747870588
 10
13.2998861108
 20
0.1108956133
 10
13.0492501412
 20
0.7941320013
 10
12.7707857064
 20
1.473584638
 10
12.4650379135
 20
2.1479234629
 10
12.1326052782
 20
2.815828426
 10
11.7741385529
 20
3.4759920721
 10
11.3903394532
 20
4.1271220998
 10
10.9819592837
 20
4.7679438915
 10
10.5497974679
 20
5.3972030085
 10
10.0946999827
 20
6.0136676464
 10
9.617557703
 20
6.6161310468
 10
9.119304657
 20
7.2034138594
 10
8.6009161986
 20
7.7743664503
 10
8.0634070975
 20
8.3278711532
 10
7.507829553
 20
8.8628444565
 10
6.9352711342
 20
9.378239125
 10
6.3468526512
 20
9.8730462492
 10
5.7437259606
 20
10.3462972211
 10
5.1270717115
 20
10.7970656297
 10
4.4980970333
 20
11.2244690746
 10
3.8580331736
 20
11.6276708935
 10
3.2081330875
 20
12.0058817999
 10
2.5496689848
 20
12.3583614281
 10
1.8839298401
 20
12.6844197829
 10
1.2122188688
 20
12.9834185896
 10
0.5358509768
 20
13.2547725441
 10
-0.143849814
 20
13.4979504581
 10
-0.8255529573
 20
13.7124762996
 10
-1.5079239873
 20
13.8979301241
 10
-2.1896271307
 20
14.0539488971
 10
-2.8693279215
 20
14.1802272045
 10
-3.5456958134
 20
14.2765178505
 10
-4.2174067847
 20
14.3426323417
 10
-4.8831459295
 20
14.3784412559
 10
-5.5416100322
 20
14.3838744955
 10
-6.1915101183
 20
14.3589214245
 10
-6.831573978
 20
14.30363089
 10
-7.4605486561
 20
14.2181111255
 10
-8.0772029053
 20
14.1025295402
 10
-8.6803295958
 20
13.9571123904
 10
-9.2687480789
 20
13.782144337
 10
-9.8413064976
 20
13.5779678881
 10
-10.3968840422
 20
13.3449827288
 10
-10.9343931433
 20
13.0836449384
 10
-11.4527816017
 20
12.794466098
 10
-11.9510346476
 20
12.4780122887
 10
-12.4281769274
 20
12.1349029837
 10
-12.8832744125
 20
11.7658098356
 10
-13.3154362283
 20
11.3714553615
 10
-13.7238163978
 20
10.9526115288
 10
-14.1076154975
 20
10.5100982441
 10
-14.4660822228
 20
10.0447817478
 10
-14.7985148581
 20
9.5575729189
 10
-15.1042626511
 20
9.0494254915
 10
-15.3827270859
 20
8.521334188
 10
-15.6333630554
 20
7.9743327721
 10
-15.855679928
 20
7.4094920246
 10
-16.0492425078
 20
6.8279176478
 10
-16.2136718872
 20
6.2307481009
 10
-16.3486461877
 20
5.6191523713
 10
-16.453901191
 20
4.9943276864
 10
-16.5292308553
 20
4.3574971698
 10
-16.5744877194
 20
3.7099074472
 10
-16.5895831908
 20
3.0528262059
 10
-16.5744877194
 20
2.3875397132
 10
-16.5292308553
 20
1.7153502988
 10
-16.453901191
 20
1.0375738049
 10
-16.3486461877
 20
0.3555370109
 10
-16.2136718872
 20
-0.3294249641
 10
-16.0492425078
 20
-1.0159712751
 10
-15.855679928
 20
-1.7027579752
 10
-15.6333630554
 20
-2.3884406473
 10
-15.3827270859
 20
-3.0716770353
 10
-15.1042626511
 20
-3.751129672
 10
-14.7985148581
 20
-4.4254684969
 10
-14.4660822228
 20
-5.09337346
 10
-14.1076154975
 20
-5.7535371061
 10
-13.7238163978
 20
-6.4046671338
 10
-13.3154362283
 20
-7.0454889255
 10
-12.8832744125
 20
-7.6747480425
 10
-12.4281769274
 20
-8.2912126804
 10
-11.9510346476
 20
-8.8936760809
 10
-11.4527816017
 20
-9.4809588934
 10
-10.9343931433
 20
-10.0519114844
 10
-10.3968840422
 20
-10.6054161872
 10
-9.8413064976
 20
-11.1403894906
 10
-9.2687480789
 20
-11.655784159
 10
-8.6803295958
 20
-12.1505912833
 10
-8.0772029053
 20
-12.6238422552
 10
-7.4605486561
 20
-13.0746106637
 10
-6.831573978
 20
-13.5020141086
 10
-6.1915101183
 20
-13.9052159275
 10
-5.5416100322
 20
-14.2834268339
 10
-4.8831459295
 20
-14.6359064622
 10
-4.2174067847
 20
-14.9619648169
 10
-3.5456958134
 20
-15.2609636236
 10
-2.8693279215
 20
-15.5323175781
 10
-2.1896271307
 20
-15.7754954921
 10
-1.5079239873
 20
-15.9900213336
 10
-0.8255529573
 20
-16.1754751582
 10
-0.143849814
 20
-16.3314939311
 10
0.5358509768
 20
-16.4577722385
 10
1.2122188688
 20
-16.5540628845
 10
1.8839298401
 20
-16.6201773757
 10
2.5496689848
 20
-16.6559862899
 10
3.2081330875
 20
-16.6614195295
 10
3.8580331736
 20
-16.6364664586
 10
4.4980970333
 20
-16.581175924
 10
5.1270717115
 20
-16.4956561596
 10
5.7437259606
 20
-16.3800745742
 10
6.3468526512
 20
-16.2346574244
 10
6.9352711342
 20
-16.059689371
 10
7.507829553
 20
-15.8555129221
 10
8.0634070975
 20
-15.6225277628
 10
8.6009161986
 20
-15.3611899725
 10
9.119304657
 20
-15.072011132
 10
9.617557703
 20
-14.7555573227
 10
10.0946999827
 20
-14.4124480177
 10
10.5497974679
 20
-14.0433548696
 10
10.9819592837
 20
-13.6490003955
 10
11.3903394532
 20
-13.2301565629
 10
11.7741385529
 20
-12.7876432781
 10
12.1326052782
 20
-12.3223267819
 10
12.4650379135
 20
-11.8351179529
 10
12.7707857064
 20
-11.3269705255
 10
13.0492501412
 20
-10.7988792221
 10
13.2998861108
 20
-10.2518778061
 10
13.5222029833
 20
-9.6870370586
 10
13.7157655632
 20
-9.1054626818
 10
13.8801949425
 20
-8.5082931349
 10
14.0151692431
 20
-7.8966974053
 10
14.1204242463
 20
-7.2718727204
 10
14.1957539107
 20
-6.6350422038
 10
14.2410107748
 20
-5.9874524812
 10
14.2561062462
 20
-5.3303712399
  0
LWPOLYLINE
  5
14D
330
143
100
AcDbEntity
  8
0
  6
Continuous
 62
     7
370
    25
100
AcDbPolyline
 90
       58
 70
   128
 43
0.0
 10
15.4228447185
 20
-4.1915987229
 10
15.4077492471
 20
-3.5263122303
 10
15.362492383
 20
-2.8541228158
 10
15.2871627187
 20
-2.1763463219
 10
15.1819077154
 20
-1.4943095279
 10
15.0469334148
 20
-0.8093475529
 10
14.8825040355
 20
-0.1228012419
 10
14.6889414556
 20
0.5639854582
 10
14.4666245831
 20
1.2496681303
 10
14.2159886136
 20
1.9329045183
 10
13.9375241787
 20
2.612357155
 10
13.6317763858
 20
3.2866959799
 10
13.2993437505
 20
3.954600943
 10
12.9408770252
 20
4.6147645891
 10
12.5570779255
 20
5.2658946168
 10
12.148697756
 20
5.9067164085
 10
11.7165359402
 20
6.5359755255
 10
11.261438455
 20
7.1524401634
 10
10.7842961753
 20
7.7549035639
 10
10.2860431294
 20
8.3421863764
 10
9.7676546709
 20
8.9131389674
 10
9.2301455698
 20
9.4666436702
 10
8.6745680253
 20
10.0016169736
 10
8.1020096065
 20
10.517011642
 10
7.5135911235
 20
11.0118187662
 10
6.910464433
 20
11.4850697382
 10
6.2938101838
 20
11.9358381467
 10
5.6648355056
 20
12.3632415916
 10
5.024771646
 20
12.7664434105
 10
4.3748715598
 20
13.1446543169
 10
3.7164074572
 20
13.4971339452
 10
3.0506683124
 20
13.8231922999
 10
2.3789573411
 20
14.1221911066
 10
1.7025894491
 20
14.3935450611
 10
1.0228886584
 20
14.6367229751
 10
0.341185515
 20
14.8512488166
 10
-0.341185515
 20
15.0367026411
 10
-1.0228886584
 20
15.1927214141
 10
-1.7025894491
 20
15.3189997215
 10
-2.3789573411
 20
15.4152903675
 10
-3.0506683124
 20
15.4814048587
 10
-3.7164074572
 20
15.5172137729
 10
-4.3748715598
 20
15.5226470125
 10
-5.024771646
 20
15.4976939416
 10
-5.6648355056
 20
15.442403407
 10
-6.2938101838
 20
15.3568836425
 10
-6.910464433
 20
15.2413020572
 10
-7.5135911235
 20
15.0958849074
 10
-8.1020096065
 20
14.920916854
 10
-8.6745680253
 20
14.7167404051
 10
-9.2301455698
 20
14.4837552458
 10
-9.7676546709
 20
14.2224174554
 10
-10.2860431294
 20
13.933238615
 10
-10.7842961753
 20
13.6167848057
 10
-11.261438455
 20
13.2736755007
 10
-11.7165359402
 20
12.9045823526
 10
-12.148697756
 20
12.5102278785
 10
-12.1803476389
 20
12.4794724006
  0
LWPOLYLINE
  5
154
330
143
100
AcDbEntity
  8
0
  6
Continuous
 62
     7
370
    25
100
AcDbPolyline
 90
       33
 70
   128
 43
0.0
 10
-14.3401268394
 20
4.9272573416
 10
-14.1610035037
 20
4.4324197395
 10
-13.953655918
 20
3.9415456415
 10
-13.7188834885
 20
3.4565275594
 10
-13.4575913546
 20
2.9792354274
 10
-13.1707868999
 20
2.5115093936
 10
-12.8595758676
 20
2.0551527248
 10
-12.525158098
 20
1.6119248543
 10
-12.1688229024
 20
1.1835345991
 10
-11.7919440924
 20
0.771633571
 10
-11.3959746832
 20
0.3778098098
 10
-10.9824412917
 20
0.00358166
 10
-10.5529382511
 20
-0.3496080824
 10
-10.1091214634
 20
-0.6803977329
 10
-9.652702016
 20
-0.987511968
 10
-9.1854395844
 20
-1.269766742
 10
-8.7091356481
 20
-1.5260738526
 10
-8.225626545
 20
-1.7554451354
 10
-7.7367763919
 20
-1.9569962746
 10
-7.2444698973
 20
-2.1299502115
 10
-6.7506050954
 20
-2.2736401412
 10
-6.257086028
 20
-2.3875120828
 10
-5.7658154043
 20
-2.4711270153
 10
-5.2786872648
 20
-2.5241625705
 10
-4.7975796788
 20
-2.5464142756
 10
-4.3243475044
 20
-2.5377963416
 10
-3.8608152367
 20
-2.4983419939
 10
-3.4087699738
 20
-2.4282033446
 10
-2.9699545272
 20
-2.3276508054
 10
-2.546060702
 20
-2.1970720459
 10
-2.1387227747
 20
-2.0369704982
 10
-1.7495111924
 20
-1.8479634164
 10
-1.3799265179
 20
-1.6307794968
  0
LWPOLYLINE
  5
155
330
143
100
AcDbEntity
  8
0
  6
Continuous
 62
     7
370
    25
100
AcDbPolyline
 90
       34
 70
   128
 43
0.0
 10
12.891693544
 20
-8.5503041318
 10
12.6834883177
 20
-8.0306918761
 10
12.4474917738
 20
-7.5162224717
 10
12.1845241526
 20
-7.0086840316
 10
11.8954994362
 20
-6.5098405791
 10
11.5814221719
 20
-6.021425917
 10
11.2433839807
 20
-5.5451376012
 10
10.8825597633
 20
-5.082631041
 10
10.5002036168
 20
-4.6355137447
 10
10.0976444752
 20
-4.2053397336
 10
9.6762814912
 20
-3.7936041395
 10
9.237579173
 20
-3.4017380095
 10
8.7830622941
 20
-3.0311033308
 10
8.3143105937
 20
-2.6829882982
 10
7.8329532864
 20
-2.3586028359
 10
7.3406633992
 20
-2.0590743926
 10
6.8391519571
 20
-1.7854440227
 10
6.3301620358
 20
-1.5386627684
 10
5.8154627034
 20
-1.3195883537
 10
5.2968428722
 20
-1.1289822034
 10
4.7761050806
 20
-0.9675067968
 10
4.2550592282
 20
-0.8357233652
 10
3.7355162855
 20
-0.7340899409
 10
3.2192819993
 20
-0.6629597657
 10
2.7081506166
 20
-0.6225800627
 10
2.2038986486
 20
-0.6130911776
 10
1.7082786963
 20
-0.6345260902
 10
1.2230133586
 20
-0.6868103006
 10
0.7497892455
 20
-0.7697620872
 10
0.290251116
 20
-0.8830931391
 10
-0.1540038385
 20
-1.0264095579
 10
-0.5814315454
 20
-1.1992132265
 10
-0.9905464179
 20
-1.4009035408
 10
-1.3799265179
 20
-1.6307794968
  0
LWPOLYLINE
  5
156
330
143
100
AcDbEntity
  8
0
  6
Continuous
 62
     7
370
    25
100
AcDbPolyline
 90
       68
 70
   128
 43
0.0
 10
12.891693544
 20
-8.5503041318
 10
13.0454251091
 20
-7.9696851414
 10
13.1698376585
 20
-7.374974304
 10
13.264674535
 20
-6.7673984798
 10
13.3297400948
 20
-6.1482110686
 10
13.3649001106
 20
-5.5186894246
 10
13.3700820491
 20
-4.8801322209
 10
13.3452752201
 20
-4.2338567705
 10
13.2905307989
 20
-3.5811963089
 10
13.2059617207
 20
-2.9234972436
 10
13.0917424475
 20
-2.2621163762
 10
12.9481086081
 20
-1.5984181041
 10
12.7753565123
 20
-0.933771605
 10
12.5738425395
 20
-0.269548013
 10
12.3439824034
 20
0.3928824103
 10
12.0862502944
 20
1.0521531025
 10
11.8011779017
 20
1.7069040197
 10
11.4893533159
 20
2.3557844418
 10
11.1514198163
 20
2.9974557597
 10
10.7880745437
 20
3.6305942358
 10
10.4000670619
 20
4.2538937358
 10
9.9881978119
 20
4.8660684225
 10
9.5533164604
 20
5.4658554087
 10
9.0963201468
 20
6.0520173625
 10
8.6181516327
 20
6.6233450596
 10
8.119797357
 20
7.1786598785
 10
7.6022854007
 20
7.7168162309
 10
7.0666833664
 20
8.2367039261
 10
6.5140961755
 20
8.7372504605
 10
5.945663789
 20
9.2174232305
 10
5.3625588559
 20
9.6762316625
 10
4.7659842938
 20
10.1127292568
 10
4.1571708075
 20
10.5260155394
 10
3.5373743503
 20
10.9152379206
 10
2.9078735326
 20
11.2795934531
 10
2.2699669847
 20
11.6183304889
 10
1.6249706774
 20
11.9307502295
 10
0.9742152072
 20
12.2162081681
 10
0.3190430517
 20
12.4741154184
 10
-0.3391942002
 20
12.70393993
 10
-0.9991386365
 20
12.9052075861
 10
-1.6594288233
 20
13.077503181
 10
-2.3187026134
 20
13.2204712771
 10
-2.9755999563
 20
13.3338169381
 10
-3.6287657044
 20
13.4173063372
 10
-4.2768524076
 20
13.4707672398
 10
-4.9185230941
 20
13.4940893587
 10
-5.5524540279
 20
13.4872245813
 10
-6.1773374397
 20
13.4501870695
 10
-6.7918842247
 20
13.3830532298
 10
-7.3948266023
 20
13.2859615562
 10
-7.9849207311
 20
13.159112344
 10
-8.5609492751
 20
13.0027672773
 10
-9.1217239148
 20
12.8172488884
 10
-9.666087799
 20
12.6029398929
 10
-10.1929179308
 20
12.3602824001
 10
-10.7011274849
 20
12.0897770008
 10
-11.1896680491
 20
11.7919817346
 10
-11.6575317876
 20
11.4675109392
 10
-12.1037535199
 20
11.1170339821
 10
-12.5274127116
 20
10.7412738808
 10
-12.9276353742
 20
10.3410058103
 10
-13.3035958674
 20
9.9170555046
 10
-13.6545186026
 20
9.4702975529
 10
-13.979679643
 20
9.0016535957
 10
-14.2784081968
 20
8.5120904229
 10
-14.5500880012
 20
8.0026179802
 10
-14.7941585938
 20
7.4742872849
  0
LWPOLYLINE
  5
159
330
143
100
AcDbEntity
  8
0
  6
Continuous
 62
     7
370
    25
100
AcDbPolyline
 90
       31
 70
   128
 43
0.0
 10
-15.3944953087
 20
5.6253610186
 10
-15.2495815618
 20
5.1050036537
 10
-15.0759043003
 20
4.5858621121
 10
-14.8740575772
 20
4.0697120868
 10
-14.644731797
 20
3.5583190383
 10
-14.3887113549
 20
3.0534321561
 10
-14.1068719539
 20
2.5567783759
 10
-13.8001776087
 20
2.0700564725
 10
-13.4696773492
 20
1.5949312492
 10
-13.1165016319
 20
1.1330278437
 10
-12.7418584734
 20
0.6859261691
 10
-12.3470293184
 20
0.2551555103
 10
-11.9333646566
 20
-0.1578107074
 10
-11.5022794034
 20
-0.5515599574
 10
-11.0552480604
 20
-0.9247454438
 10
-10.5937996717
 20
-1.2760907078
 10
-10.1195125941
 20
-1.6043939938
 10
-9.6340090985
 20
-1.9085323599
 10
-9.1389498208
 20
-2.1874655188
 10
-8.6360280818
 20
-2.4402393963
 10
-8.1269640956
 20
-2.6659893942
 10
-7.6134990852
 20
-2.8639433481
 10
-7.0973893273
 20
-3.0334241682
 10
-6.5804001447
 20
-3.1738521555
 10
-6.0642998681
 20
-3.2847469843
 10
-5.5508537881
 20
-3.3657293455
 10
-5.0418181163
 20
-3.4165222438
 10
-4.5389339792
 20
-3.4369519449
 10
-4.0439214621
 20
-3.4269485704
 10
-3.5584737259
 20
-3.3865463362
 10
-3.0842512157
 20
-3.3158834357
  0
LWPOLYLINE
  5
15A
330
143
100
AcDbEntity
  8
0
  6
Continuous
 62
     7
370
    25
100
AcDbPolyline
 90
       66
 70
   128
 43
0.0
 10
-15.3944953087
 20
5.6253610186
 10
-15.516774715
 20
5.0222543742
 10
-15.6087718555
 20
4.4061463791
 10
-15.6702925926
 20
3.7783371796
 10
-15.7012071018
 20
3.1401516145
 10
-15.7014501454
 20
2.4929364193
 10
-15.6710212106
 20
1.8380573846
 10
-15.6099845102
 20
1.1768964735
 10
-15.5184688474
 20
0.5108489055
 10
-15.3966673438
 20
-0.1586797879
 10
-15.2448370319
 20
-0.8302767288
 10
-15.0632983125
 20
-1.5025246752
 10
-14.8524342792
 20
-2.1740050111
 10
-14.6126899093
 20
-2.8433007402
 10
-14.3445711249
 20
-3.5089994765
 10
-14.0486437256
 20
-4.1696964246
 10
-13.7255321945
 20
-4.823997344
 10
-13.3759183798
 20
-5.4705214916
 10
-13.0005400565
 20
-6.1079045351
 10
-12.6001893695
 20
-6.7348014326
 10
-12.1757111617
 20
-7.3498892704
 10
-11.7280011911
 20
-7.9518700549
 10
-11.258004241
 20
-8.5394734521
 10
-10.7667121257
 20
-9.1114594676
 10
-10.2551615978
 20
-9.6666210639
 10
-9.7244321606
 20
-10.2037867073
 10
-9.1756437896
 20
-10.7218228402
 10
-8.6099545693
 20
-11.2196362732
 10
-8.0285582495
 20
-11.6961764919
 10
-7.4326817258
 20
-12.1504378739
 10
-6.8235824508
 20
-12.5814618111
 10
-6.2025457808
 20
-12.988338732
 10
-5.5708822626
 20
-13.3702100217
 10
-4.9299248688
 20
-13.7262698336
 10
-4.2810261842
 20
-14.0557667901
 10
-3.6255555518
 20
-14.3580055677
 10
-2.9648961832
 20
-14.632348365
 10
-2.3004422396
 20
-14.8782162481
 10
-1.6335958896
 20
-15.0950903727
 10
-0.9657643504
 20
-15.2825130785
 10
-0.2983569183
 20
-15.4400888554
 10
0.3672180055
 20
-15.567485178
 10
1.0295558868
 20
-15.6644332074
 10
1.6872590223
 20
-15.7307283583
 10
2.3389394894
 20
-15.7662307309
 10
2.9832220746
 20
-15.770865406
 10
3.6187471762
 20
-15.7446226032
 10
4.2441736728
 20
-15.6875577017
 10
4.8581817536
 20
-15.5997911231
 10
5.4594757037
 20
-15.4815080773
 10
6.0467866384
 20
-15.3329581721
 10
6.6188751805
 20
-15.1544548859
 10
7.1745340762
 20
-14.9463749066
 10
7.7125907424
 20
-14.7091573363
 10
8.231909741
 20
-14.4433027652
 10
8.7313951756
 20
-14.1493722148
 10
9.2099930034
 20
-13.8279859541
 10
9.6666932601
 20
-13.4798221907
 10
10.1005321905
 20
-13.1056156396
 10
10.5105942831
 20
-12.706155973
 10
10.8960142014
 20
-12.2822861534
 10
11.2559786104
 20
-11.834900655
 10
11.5897278924
 20
-11.3649435764
 10
11.8965577508
 20
-10.8734066478
 10
12.1758206957
 20
-10.3613271384
 10
12.4269274105
 20
-9.8297856677
  0
LWPOLYLINE
  5
15B
330
143
100
AcDbEntity
  8
0
  6
Continuous
 62
     7
370
    25
100
AcDbPolyline
 90
       44
 70
   128
 43
0.0
 10
12.4269274105
 20
-9.8297856677
 10
12.2971055699
 20
-9.3303051751
 10
12.137674586
 20
-8.8315253333
 10
11.9492548057
 20
-8.3353868983
 10
11.7325793719
 20
-7.8438203483
 10
11.4884913702
 20
-7.3587383724
 10
11.2179405489
 20
-6.8820284279
 10
10.921979623
 20
-6.4155453968
 10
10.6017601788
 20
-5.9611043679
 10
10.2585281923
 20
-5.5204735746
 10
9.8936191818
 20
-5.0953675144
 10
9.5084530109
 20
-4.6874402781
 10
9.1045283638
 20
-4.2982791135
 10
8.6834169144
 20
-3.9293982496
 10
8.2467572103
 20
-3.5822330045
 10
7.7962482976
 20
-3.2581342006
 10
7.3336431098
 20
-2.9583629088
 10
6.860741647
 20
-2.6840855412
 10
6.3793839721
 20
-2.4363693132
 10
5.8914430515
 20
-2.2161780904
 10
5.3988174667
 20
-2.0243686384
 10
4.9034240274
 20
-1.8616872892
 10
4.4071903133
 20
-1.728767037
 10
3.9120471731
 20
-1.6261250756
 10
3.4199212125
 20
-1.5541607856
 10
2.9327272971
 20
-1.5131541805
 10
2.452361102
 20
-1.5032648174
 10
1.9806917355
 20
-1.5245311757
 10
1.5195544666
 20
-1.5768705081
 10
1.0707435837
 20
-1.6600791617
 10
0.6360054132
 20
-1.7738333711
 10
0.2170315245
 20
-1.9176905177
 10
-0.184547852
 20
-2.0910908526
 10
-0.5671701681
 20
-2.2933596735
 10
-0.9293466374
 20
-2.5237099512
 10
-1.2696680289
 20
-2.781245391
 10
-1.5868101494
 20
-3.0649639207
 10
-1.8795389966
 20
-3.3737615893
 10
-2.1467155606
 20
-3.706436863
 10
-2.3873002553
 20
-4.0616952999
 10
-2.600356964
 20
-4.4381545867
 10
-2.7850566815
 20
-4.8343499177
 10
-2.9406807398
 20
-5.2487396939
 10
-3.0666236046
 20
-5.6797115218
  0
LWPOLYLINE
  5
15E
330
143
100
AcDbEntity
  8
0
  6
Continuous
 62
     7
370
    25
100
AcDbPolyline
 90
       33
 70
   128
 43
0.0
 10
13.2309704739
 20
-7.007462562
 10
13.1475348572
 20
-6.8329589615
 10
12.884567236
 20
-6.3254205213
 10
12.5955425196
 20
-5.8265770688
 10
12.2814652553
 20
-5.3381624067
 10
11.9434270641
 20
-4.861874091
 10
11.5826028467
 20
-4.3993675307
 10
11.2002467002
 20
-3.9522502345
 10
10.7976875586
 20
-3.5220762233
 10
10.3763245746
 20
-3.1103406293
 10
9.9376222564
 20
-2.7184744993
 10
9.4831053775
 20
-2.3478398206
 10
9.0143536771
 20
-1.999724788
 10
8.5329963698
 20
-1.6753393257
 10
8.0407064826
 20
-1.3758108824
 10
7.5391950405
 20
-1.1021805125
 10
7.0302051192
 20
-0.8553992582
 10
6.5155057868
 20
-0.6363248435
 10
5.9968859556
 20
-0.4457186932
 10
5.476148164
 20
-0.2842432866
 10
4.9551023116
 20
-0.152459855
 10
4.4355593689
 20
-0.0508264307
 10
3.9193250827
 20
0.0203037445
 10
3.4081937
 20
0.0606834475
 10
2.903941732
 20
0.0701723326
 10
2.4083217797
 20
0.04873742
 10
1.923056442
 20
-0.0035467903
 10
1.4498323289
 20
-0.086498577
 10
0.9902941994
 20
-0.1998296289
 10
0.5460392449
 20
-0.3431460477
 10
0.118611538
 20
-0.5159497163
 10
-0.2905033345
 20
-0.7176400306
 10
-0.6798834345
 20
-0.9475159866
  0
LWPOLYLINE
  5
15F
330
143
100
AcDbEntity
  8
0
  6
Continuous
 62
     7
370
    25
100
AcDbPolyline
 90
       32
 70
   128
 43
0.0
 10
-13.2573057334
 20
4.6329697671
 10
-13.2536128346
 20
4.6248091517
 10
-13.0188404051
 20
4.1397910696
 10
-12.7575482712
 20
3.6624989376
 10
-12.4707438165
 20
3.1947729039
 10
-12.1595327842
 20
2.738416235
 10
-11.8251150146
 20
2.2951883645
 10
-11.468779819
 20
1.8667981093
 10
-11.091901009
 20
1.4548970812
 10
-10.6959315998
 20
1.06107332
 10
-10.2823982083
 20
0.6868451702
 10
-9.8528951677
 20
0.3336554278
 10
-9.40907838
 20
0.0028657773
 10
-8.9526589326
 20
-0.3042484578
 10
-8.485396501
 20
-0.5865032318
 10
-8.0090925647
 20
-0.8428103424
 10
-7.5255834616
 20
-1.0721816252
 10
-7.0367333085
 20
-1.2737327644
 10
-6.5444268139
 20
-1.4466867013
 10
-6.050562012
 20
-1.590376631
 10
-5.5570429446
 20
-1.7042485726
 10
-5.065772321
 20
-1.7878635051
 10
-4.5786441814
 20
-1.8408990603
 10
-4.0975365954
 20
-1.8631507654
 10
-3.624304421
 20
-1.8545328314
 10
-3.1607721533
 20
-1.8150784837
 10
-2.7087268904
 20
-1.7449398343
 10
-2.2699114438
 20
-1.6443872952
 10
-1.8460176186
 20
-1.5138085357
 10
-1.4386796913
 20
-1.353706988
 10
-1.049468109
 20
-1.1646999062
 10
-0.6798834345
 20
-0.9475159866
  0
LWPOLYLINE
  5
164
330
143
100
AcDbEntity
  8
0
  6
Continuous
 62
     7
370
    25
100
AcDbPolyline
 90
       56
 70
   128
 43
0.0
 10
-14.9792290367
 20
4.3292665074
 10
-15.0011640184
 20
3.8234151247
 10
-15.001407062
 20
3.1761999295
 10
-14.9709781272
 20
2.5213208948
 10
-14.9099414268
 20
1.8601599837
 10
-14.818425764
 20
1.1941124157
 10
-14.6966242604
 20
0.5245837223
 10
-14.5447939485
 20
-0.1470132186
 10
-14.3632552291
 20
-0.819261165
 10
-14.1523911958
 20
-1.4907415009
 10
-13.9126468259
 20
-2.16003723
 10
-13.6445280415
 20
-2.8257359663
 10
-13.3486006423
 20
-3.4864329144
 10
-13.0254891111
 20
-4.1407338338
 10
-12.6758752964
 20
-4.7872579814
 10
-12.3004969731
 20
-5.4246410249
 10
-11.9001462861
 20
-6.0515379224
 10
-11.4756680783
 20
-6.6666257602
 10
-11.0279581077
 20
-7.2686065447
 10
-10.5579611576
 20
-7.8562099419
 10
-10.0666690423
 20
-8.4281959574
 10
-9.5551185144
 20
-8.9833575537
 10
-9.0243890772
 20
-9.5205231971
 10
-8.4756007062
 20
-10.03855933
 10
-7.9099114859
 20
-10.5363727629
 10
-7.3285151661
 20
-11.0129129817
 10
-6.7326386424
 20
-11.4671743637
 10
-6.1235393674
 20
-11.8981983009
 10
-5.5025026974
 20
-12.3050752218
 10
-4.8708391792
 20
-12.6869465115
 10
-4.2298817854
 20
-13.0430063234
 10
-3.5809831008
 20
-13.3725032798
 10
-2.9255124684
 20
-13.6747420575
 10
-2.2648530999
 20
-13.9490848548
 10
-1.6003991562
 20
-14.1949527379
 10
-0.9335528062
 20
-14.4118268625
 10
-0.265721267
 20
-14.5992495682
 10
0.4016861651
 20
-14.7568253452
 10
1.0672610889
 20
-14.8842216678
 10
1.7295989702
 20
-14.9811696972
 10
2.3873021057
 20
-15.0474648481
 10
3.0389825728
 20
-15.0829672207
 10
3.683265158
 20
-15.0876018957
 10
4.3187902596
 20
-15.061359093
 10
4.9442167562
 20
-15.0042941915
 10
5.558224837
 20
-14.9165276129
 10
6.1595187871
 20
-14.7982445671
 10
6.7468297218
 20
-14.6496946619
 10
7.3189182639
 20
-14.4711913757
 10
7.8745771596
 20
-14.2631113963
 10
8.4126338257
 20
-14.0258938261
 10
8.9319528244
 20
-13.760039255
 10
9.431438259
 20
-13.4661087046
 10
9.9100360868
 20
-13.1447224439
 10
10.3667363435
 20
-12.7965586805
 10
10.6563055755
 20
-12.5519175516
  0
LWPOLYLINE
  5
167
330
143
100
AcDbEntity
  8
0
  6
Continuous
 62
     7
370
    25
100
AcDbPolyline
 90
       15
 70
   128
 43
0.0
 10
6.2719321612
 20
-4.9398563793
 10
6.256873262
 20
-4.778259615
 10
6.2122093772
 20
-4.6139804624
 10
6.1394614817
 20
-4.4526132511
 10
6.041106918
 20
-4.2996531478
 10
5.9204950327
 20
-4.1603090255
 10
5.7817331189
 20
-4.0393260811
 10
5.6295465472
 20
-3.9408242437
 10
5.4691178487
 20
-3.8681578753
 10
5.3059102304
 20
-3.8238015417
 10
5.1454815319
 20
-3.8092657448
 10
4.9932949602
 20
-3.8250454838
 10
4.8545330464
 20
-3.8706033984
 10
4.7339211611
 20
-3.9443880687
 10
4.6890358809
 20
-3.9838591117
  0
LWPOLYLINE
  5
16A
330
143
100
AcDbEntity
  8
0
  6
Continuous
 62
     7
370
    25
100
AcDbPolyline
 90
       35
 70
   128
 43
0.0
 10
5.5718890778
 20
-5.6231198895
 10
5.5568301786
 20
-5.4615231252
 10
5.5121662938
 20
-5.2972439726
 10
5.4394183984
 20
-5.1358767613
 10
5.3410638346
 20
-4.982916658
 10
5.2204519493
 20
-4.8435725357
 10
5.0816900355
 20
-4.7225895914
 10
4.9295034638
 20
-4.624087754
 10
4.7690747653
 20
-4.5514213855
 10
4.605867147
 20
-4.5070650519
 10
4.4454384485
 20
-4.4925292551
 10
4.2932518768
 20
-4.508308994
 10
4.154489963
 20
-4.5538669086
 10
4.0338780777
 20
-4.6276515789
 10
3.935523514
 20
-4.7271503562
 10
3.8627756185
 20
-4.8489749292
 10
3.8181117337
 20
-4.9889767081
 10
3.8030528345
 20
-5.1423881001
 10
3.8181117337
 20
-5.3039848644
 10
3.8627756185
 20
-5.468264017
 10
3.935523514
 20
-5.6296312284
 10
4.0338780777
 20
-5.7825913316
 10
4.154489963
 20
-5.9219354539
 10
4.2932518768
 20
-6.0429183983
 10
4.4454384485
 20
-6.1414202357
 10
4.605867147
 20
-6.2140866041
 10
4.7690747653
 20
-6.2584429377
 10
4.9295034638
 20
-6.2729787346
 10
5.0816900355
 20
-6.2571989956
 10
5.2204519493
 20
-6.211641081
 10
5.3410638346
 20
-6.1378564107
 10
5.4394183984
 20
-6.0383576334
 10
5.5121662938
 20
-5.9165330604
 10
5.5568301786
 20
-5.7765312816
 10
5.5718890778
 20
-5.6231198895
  0
LINE
  5
16E
330
143
100
AcDbEntity
  8
0
  6
Continuous
 62
     7
370
    25
100
AcDbLine
 10
-12.1803476389
 20
12.4794724006
 30
0.0
 11
-13.3470861112
 21
11.3406998836
 31
0.0
  0
LINE
  5
16F
330
143
100
AcDbEntity
  8
0
  6
Continuous
 62
     7
370
    25
100
AcDbLine
 10
11.0136091665
 20
-13.6182449176
 30
0.0
 11
12.1803476389
 21
-12.4794724006
 31
0.0
  0
LINE
  5
170
330
143
100
AcDbEntity
  8
0
  6
Continuous
 62
     7
370
    25
100
AcDbLine
 10
4.6890358809
 20
-3.9838591117
 30
0.0
 11
3.9889927975
 21
-4.6671226219
 31
0.0
  0
LINE
  5
171
330
143
100
AcDbEntity
  8
0
  6
Continuous
 62
     7
370
    25
100
AcDbLine
 10
5.3859491148
 20
-6.0983853677
 30
0.0
 11
6.0859921982
 21
-5.4151218575
 31
0.0
  0
LINE
  5
172
330
143
100
AcDbEntity
  8
0
  6
Continuous
 62
     7
370
    25
100
AcDbLine
 10
-12.2441815251
 20
4.5233079782
 30
0.0
 11
-11.5441384417
 21
5.2065714884
 31
0.0
  0
LINE
  5
173
330
143
100
AcDbEntity
  8
0
  6
Continuous
 62
     7
370
    25
100
AcDbLine
 10
-14.5964826827
 20
5.8540966675
 30
0.0
 11
-12.1512115436
 21
5.1895243677
 31
0.0
  0
LINE
  5
174
330
143
100
AcDbEntity
  8
0
  6
Continuous
 62
     7
370
    25
100
AcDbLine
 10
-12.1512115436
 20
5.1895243677
 30
0.0
 11
-12.1512115436
 21
4.7609407174
 31
0.0
  0
LINE
  5
175
330
143
100
AcDbEntity
  8
0
  6
Continuous
 62
     7
370
    25
100
AcDbLine
 10
-12.5934206044
 20
4.4525400143
 30
0.0
 11
-14.3401268394
 21
4.9272573416
 31
0.0
  0
LINE
  5
176
330
143
100
AcDbEntity
  8
0
  6
Continuous
 62
     7
370
    25
100
AcDbLine
 10
-3.9716209921
 20
-5.4337526236
 30
0.0
 11
-3.0666236046
 21
-5.6797115218
 31
0.0
  0
LINE
  5
177
330
143
100
AcDbEntity
  8
0
  6
Continuous
 62
     7
370
    25
100
AcDbLine
 10
-14.7941585938
 20
7.4742872849
 30
0.0
 11
-14.0941155104
 21
8.1575507951
 31
0.0
  0
LINE
  5
178
330
143
100
AcDbEntity
  8
0
  6
Continuous
 62
     7
370
    25
100
AcDbLine
 10
-11.4511684602
 20
5.8727878779
 30
0.0
 11
-11.4511684602
 21
5.4442042276
 31
0.0
  0
LINE
  5
179
330
143
100
AcDbEntity
  8
0
  6
Continuous
 62
     7
370
    25
100
AcDbLine
 10
-13.8964395993
 20
6.5373601777
 30
0.0
 11
-11.4511684602
 21
5.8727878779
 31
0.0
  0
LINE
  5
17A
330
143
100
AcDbEntity
  8
0
  6
Continuous
 62
     7
370
    25
100
AcDbLine
 10
-1.3799265179
 20
-1.6307794968
 30
0.0
 11
-0.6798834345
 21
-0.9475159866
 31
0.0
  0
LINE
  5
17B
330
143
100
AcDbEntity
  8
0
  6
Continuous
 62
     7
370
    25
100
AcDbLine
 10
-3.0666236046
 20
-5.6797115218
 30
0.0
 11
-2.3665805212
 21
-4.9964480116
 31
0.0
  0
LINE
  5
17C
330
143
100
AcDbEntity
  8
0
  6
Continuous
 62
     7
370
    25
100
AcDbLine
 10
-12.1512115436
 20
5.1895243677
 30
0.0
 11
-11.4511684602
 21
5.8727878779
 31
0.0
  0
LINE
  5
17D
330
143
100
AcDbEntity
  8
0
  6
Continuous
 62
     7
370
    25
100
AcDbLine
 10
-14.5964826827
 20
5.8540966675
 30
0.0
 11
-13.8964395993
 21
6.5373601777
 31
0.0
  0
LINE
  5
17E
330
143
100
AcDbEntity
  8
0
  6
Continuous
 62
     7
370
    25
100
AcDbLine
 10
-12.1512115436
 20
4.7609407174
 30
0.0
 11
-11.4511684602
 21
5.4442042276
 31
0.0
  0
ARC
  5
17F
330
143
100
AcDbEntity
  8
0
  6
Continuous
 62
     7
370
    25
100
AcDbCircle
 10
4.0010134253
 20
-4.5012154221
 30
0.0
 40
11.42602698189765
100
AcDbArc
 50
315.7129950309
 51
1.5527621149
  0
ARC
  5
180
330
143
100
AcDbEntity
  8
0
  6
Continuous
 62
     7
370
    25
100
AcDbCircle
 10
-6.5320367987
 20
7.6601763703
 30
0.0
 40
8.264212685370389
100
AcDbArc
 50
181.2888775705
 51
192.6234272297
  0
ARC
  5
181
330
143
100
AcDbEntity
  8
0
  6
Continuous
 62
     7
370
    25
100
AcDbCircle
 10
-12.4762081775
 20
4.7557089936
 30
0.0
 40
0.3250387407722252
100
AcDbArc
 50
248.862298024
 51
0.9222550965
  0
ARC
  5
182
330
143
100
AcDbEntity
  8
0
  6
Continuous
 62
     7
370
    25
100
AcDbCircle
 10
2.2513366719
 20
-6.7962858048
 30
0.0
 40
6.370376657419108
100
AcDbArc
 50
146.8836019871
 51
167.6498314675
  0
ARC
  5
183
330
143
100
AcDbEntity
  8
0
  6
Continuous
 62
     7
370
    25
100
AcDbCircle
 10
-5.0839278501
 20
4.3327951251
 30
0.0
 40
9.78837257206213
100
AcDbArc
 50
137.4053536497
 51
156.9991491124
  0
ARC
  5
184
330
143
100
AcDbEntity
  8
0
  6
Continuous
 62
     7
370
    25
100
AcDbCircle
 10
-11.7738284249
 20
5.4334368681
 30
0.0
 40
0.3228395714669434
100
AcDbArc
 50
315.3544713609
 51
1.9112857848
  0
ARC
  5
185
330
143
100
AcDbEntity
  8
0
  6
Continuous
 62
     7
370
    25
100
AcDbCircle
 10
-5.8319937153
 20
8.3434398805
 30
0.0
 40
8.264212685370476
100
AcDbArc
 50
181.2888775705
 51
192.6234272297
  0
ARC
  5
186
330
143
100
AcDbEntity
  8
0
  6
Continuous
 62
     7
370
    25
100
AcDbCircle
 10
3.0372869292
 20
-6.3185732142
 30
0.0
 40
5.563254306024747
100
AcDbArc
 50
140.0757319385
 51
166.2519282362
  0
ARC
  5
187
330
143
100
AcDbEntity
  8
0
  6
Continuous
 62
     7
370
    25
100
AcDbCircle
 10
5.6241726621
 20
-4.9604366559
 30
0.0
 40
0.6480863495352416
100
AcDbArc
 50
315.4459976926
 51
1.8197594532
  0
VIEWPORT
  5
1DF
330
143
100
AcDbEntity
  8
0
100
AcDbViewport
 10
0.0
 20
0.0
 30
0.0
 40
205.6
 41
156.0
 68
     1
 69
     1
 12
0.0
 22
0.0
 13
0.0
 23
0.0
 14
10.0
 24
10.0
 15
10.0
 25
10.0
 16
0.0
 26
0.0
 36
1.0
 17
0.0
 27
0.0
 37
0.0
 42
50.0
 43
0.0
 44
0.0
 45
35.5743538657
 50
0.0
 51
0.0
 72
   100
 90
   557152
  1

281
     0
 71
     1
 74
     0
110
0.0
120
0.0
130
0.0
111
1.0
121
0.0
131
0.0
112
0.0
122
1.0
132
0.0
 79
     0
146
0.0
  0
ENDBLK
  5
146
330
143
100
AcDbEntity
  8
0
100
AcDbBlockEnd
  0
BLOCK
  5
18A
330
188
100
AcDbEntity
  8
0
100
AcDbBlockBegin
  2
*Paper_Space8
 70
     0
 10
0.0
 20
0.0
 30
0.0
  3
*Paper_Space8
  1

  0
LWPOLYLINE
  5
191
330
188
100
AcDbEntity
  8
0
  6
Continuous
 62
     7
370
    25
100
AcDbPolyline
 90
      143
 70
   128
 43
0.0
 10
15.4282542597
 20
-2.8346481354
 10
15.4122883719
 20
-2.1053922125
 10
15.3644219624
 20
-1.3735408168
 10
15.284748732
 20
-0.6405265816
 10
15.1734246448
 20
0.0922155831
 10
15.0306676228
 20
0.8232513003
 10
14.8567571198
 20
1.5511495331
 10
14.6520335736
 20
2.2744853866
 10
14.4168977402
 20
2.9918428969
 10
14.1518099091
 20
3.701817803
 10
13.857289002
 20
4.4030202956
 10
13.5339115576
 20
5.094077738
 10
13.1823106024
 20
5.7736373527
 10
12.8031744117
 20
6.4403688699
 10
12.3972451625
 20
7.0929671314
 10
11.9653174802
 20
7.7301546453
 10
11.5082368837
 20
8.3506840873
 10
11.0268981296
 20
8.9533407417
 10
10.5222434612
 20
9.53694488
 10
9.9952607637
 20
10.1003540695
 10
9.4469816305
 20
10.6424654104
 10
8.8784793437
 20
11.1622176942
 10
8.2908667732
 20
11.6585934814
 10
7.6852941983
 20
12.1306210931
 10
7.0629470556
 20
12.5773765131
 10
6.425043619
 20
12.9979851968
 10
5.7728326144
 20
13.3916237827
 10
5.1075907755
 20
13.757521705
 10
4.4306203443
 20
14.0949627012
 10
3.7432465223
 20
14.4032862147
 10
3.0468148761
 20
14.6818886879
 10
2.3426887033
 20
14.9302247432
 10
1.6322463639
 20
15.1478082513
 10
0.9168785822
 20
15.334213282
 10
0.1979857241
 20
15.4890749389
 10
-0.5230249436
 20
15.612090073
 10
-1.2447420089
 20
15.7030178764
 10
-1.9657526767
 20
15.7616803536
 10
-2.6846455347
 20
15.7879626701
 10
-3.4000133164
 20
15.781813377
 10
-4.1104556558
 20
15.7432445118
 10
-4.8145818287
 20
15.672331575
 10
-5.5110134749
 20
15.5692133818
 10
-6.1983872969
 20
15.4340917911
 10
-6.875357728
 20
15.2672313096
 10
-7.540599567
 20
15.0689585747
 10
-8.1928105716
 20
14.8396617144
 10
-8.8307140082
 20
14.5797895882
 10
-9.4530611508
 20
14.289850908
 10
-10.0586337258
 20
13.9704132422
 10
-10.6462462963
 20
13.6221019053
 10
-11.2147485831
 20
13.2455987329
 10
-11.7630277163
 20
12.8416407478
 10
-12.2900104138
 20
12.4110187165
 10
-12.7946650822
 20
11.9545756021
 10
-13.2760038362
 20
11.4732049133
 10
-13.7330844328
 20
10.9678489558
 10
-14.165012115
 20
10.4394969876
 10
-14.5709413643
 20
9.8891832826
 10
-14.950077555
 20
9.3179851057
 10
-15.3016785102
 20
8.7270206041
 10
-15.6250559546
 20
8.1174466186
 10
-15.9195768616
 20
7.4904564189
 10
-16.1846646928
 20
6.8472773677
 10
-16.4198005262
 20
6.1891685183
 10
-16.6245240724
 20
5.5174181496
 10
-16.7984345754
 20
4.8333412445
 10
-16.9411915973
 20
4.1382769157
 10
-17.0525156846
 20
3.4335857843
 10
-17.132188915
 20
2.7206473161
 10
-17.1800553244
 20
2.0008571219
 10
-17.1960212123
 20
1.2756242246
 10
-17.1800553244
 20
0.5463683017
 10
-17.132188915
 20
-0.1854830941
 10
-17.0525156846
 20
-0.9184973292
 10
-16.9411915973
 20
-1.651239494
 10
-16.7984345754
 20
-2.3822752111
 10
-16.6245240724
 20
-3.110173444
 10
-16.4198005262
 20
-3.8335092975
 10
-16.1846646928
 20
-4.5508668078
 10
-15.9195768616
 20
-5.2608417138
 10
-15.6250559546
 20
-5.9620442064
 10
-15.3016785102
 20
-6.6531016488
 10
-14.950077555
 20
-7.3326612635
 10
-14.5709413643
 20
-7.9993927807
 10
-14.165012115
 20
-8.6519910422
 10
-13.7330844328
 20
-9.2891785561
 10
-13.2760038362
 20
-9.9097079981
 10
-12.7946650822
 20
-10.5123646526
 10
-12.2900104138
 20
-11.0959687908
 10
-11.7630277163
 20
-11.6593779803
 10
-11.2147485831
 20
-12.2014893212
 10
-10.6462462963
 20
-12.721241605
 10
-10.0586337258
 20
-13.2176173922
 10
-9.4530611508
 20
-13.6896450039
 10
-8.8307140082
 20
-14.136400424
 10
-8.1928105716
 20
-14.5570091076
 10
-7.540599567
 20
-14.9506476935
 10
-6.875357728
 20
-15.3165456158
 10
-6.1983872969
 20
-15.653986612
 10
-5.5110134749
 20
-15.9623101256
 10
-4.8145818287
 20
-16.2409125987
 10
-4.1104556558
 20
-16.4892486541
 10
-3.4000133164
 20
-16.7068321621
 10
-2.6846455347
 20
-16.8932371929
 10
-1.9657526767
 20
-17.0480988498
 10
-1.2447420089
 20
-17.1711139839
 10
-0.5230249436
 20
-17.2620417872
 10
0.1979857241
 20
-17.3207042644
 10
0.9168785822
 20
-17.3469865809
 10
1.6322463639
 20
-17.3408372878
 10
2.3426887033
 20
-17.3022684227
 10
3.0468148761
 20
-17.2313554858
 10
3.7432465223
 20
-17.1282372926
 10
4.4306203443
 20
-16.9931157019
 10
5.1075907755
 20
-16.8262552205
 10
5.7728326144
 20
-16.6279824855
 10
6.425043619
 20
-16.3986856252
 10
7.0629470556
 20
-16.138813499
 10
7.6852941983
 20
-15.8488748188
 10
8.2908667732
 20
-15.5294371531
 10
8.8784793437
 20
-15.1811258161
 10
9.4469816305
 20
-14.8046226438
 10
9.9952607637
 20
-14.4006646586
 10
10.5222434612
 20
-13.9700426274
 10
11.0268981296
 20
-13.5135995129
 10
11.5082368837
 20
-13.0322288241
 10
11.9653174802
 20
-12.5268728666
 10
12.3972451625
 20
-11.9985208985
 10
12.8031744117
 20
-11.4482071935
 10
13.1823106024
 20
-10.8770090166
 10
13.5339115576
 20
-10.286044515
 10
13.857289002
 20
-9.6764705295
 10
14.1518099091
 20
-9.0494803297
 10
14.4168977402
 20
-8.4063012786
 10
14.6520335736
 20
-7.7481924292
 10
14.8567571198
 20
-7.0764420605
 10
15.0306676228
 20
-6.3923651554
 10
15.1734246448
 20
-5.6973008266
 10
15.284748732
 20
-4.9926096951
 10
15.3644219624
 20
-4.279671227
 10
15.4122883719
 20
-3.5598810327
 10
15.4282542597
 20
-2.8346481354
  0
LWPOLYLINE
  5
192
330
188
100
AcDbEntity
  8
0
  6
Continuous
 62
     7
370
    25
100
AcDbPolyline
 90
       55
 70
   128
 43
0.0
 10
16.312137736
 20
-2.05513618
 10
16.2961718482
 20
-1.3258802571
 10
16.2483054387
 20
-0.5940288613
 10
16.1686322083
 20
0.1389853738
 10
16.0573081211
 20
0.8717275386
 10
15.9145510991
 20
1.6027632557
 10
15.7406405961
 20
2.3306614885
 10
15.5359170499
 20
3.053997342
 10
15.3007812165
 20
3.7713548523
 10
15.0356933853
 20
4.4813297584
 10
14.7411724783
 20
5.182532251
 10
14.4177950339
 20
5.8735896934
 10
14.0661940787
 20
6.5531493081
 10
13.687057888
 20
7.2198808253
 10
13.2811286387
 20
7.8724790868
 10
12.8492009565
 20
8.5096666007
 10
12.39212036
 20
9.1301960427
 10
11.9107816059
 20
9.7328526971
 10
11.4061269375
 20
10.3164568354
 10
10.87914424
 20
10.8798660249
 10
10.3308651068
 20
11.4219773658
 10
9.76236282
 20
11.9417296496
 10
9.1747502495
 20
12.4381054368
 10
8.5691776746
 20
12.9101330485
 10
7.9468305319
 20
13.3568884686
 10
7.3089270953
 20
13.7774971522
 10
6.6567160907
 20
14.1711357381
 10
5.9914742518
 20
14.5370336604
 10
5.3145038206
 20
14.8744746566
 10
4.6271299986
 20
15.1827981702
 10
3.9306983524
 20
15.4614006433
 10
3.2265721796
 20
15.7097366987
 10
2.5161298402
 20
15.9273202067
 10
1.8007620584
 20
16.1137252374
 10
1.0818692004
 20
16.2685868944
 10
0.3608585326
 20
16.3916020284
 10
-0.3608585327
 20
16.4825298318
 10
-1.0818692004
 20
16.541192309
 10
-1.8007620584
 20
16.5674746255
 10
-2.5161298402
 20
16.5613253324
 10
-3.2265721796
 20
16.5227564672
 10
-3.9306983524
 20
16.4518435304
 10
-4.6271299986
 20
16.3487253372
 10
-5.3145038206
 20
16.2136037465
 10
-5.9914742518
 20
16.046743265
 10
-6.6567160907
 20
15.8484705301
 10
-7.3089270953
 20
15.6191736698
 10
-7.9468305319
 20
15.3593015436
 10
-8.5691776746
 20
15.0693628634
 10
-9.1747502495
 20
14.7499251977
 10
-9.76236282
 20
14.4016138607
 10
-10.3308651068
 20
14.0251106884
 10
-10.87914424
 20
13.6211527032
 10
-11.4061269375
 20
13.190530672
 10
-11.5344232085
 20
13.0788065681
  0
LWPOLYLINE
  5
199
330
188
100
AcDbEntity
  8
0
  6
Continuous
 62
     7
370
    25
100
AcDbPolyline
 90
       33
 70
   128
 43
0.0
 10
-14.8168594879
 20
3.7100242429
 10
-14.6274077636
 20
3.1954233117
 10
-14.4081043576
 20
2.6898580799
 10
-14.1597947703
 20
2.1952776991
 10
-13.8834363323
 20
1.7135889702
 10
-13.5800945134
 20
1.2466489918
 10
-13.2509388151
 20
0.796258
 10
-12.8972382612
 20
0.3641524282
 10
-12.5203565058
 20
-0.0480017874
 10
-12.1217465755
 20
-0.4386156312
 10
-11.7029452674
 20
-0.806183134
 10
-11.2655672245
 20
-1.1492871793
 10
-10.8112987102
 20
-1.4666049669
 10
-10.3418911072
 20
-1.7569131124
 10
-9.8591541655
 20
-2.0190923646
 10
-9.3649490249
 20
-2.2521319197
 10
-8.8611810395
 20
-2.4551333192
 10
-8.3497924319
 20
-2.6273139132
 10
-7.8327548052
 20
-2.7680098782
 10
-7.3120615418
 20
-2.8766787763
 10
-6.7897201178
 20
-2.9529016463
 10
-6.2677443637
 20
-2.9963846192
 10
-5.7481467003
 20
-3.0069600512
 10
-5.2329303797
 20
-2.9845871698
 10
-4.7240817626
 20
-2.9293522313
 10
-4.2235626592
 20
-2.841468188
 10
-3.7333027665
 20
-2.7212738671
 10
-3.2551922282
 20
-2.5692326649
 10
-2.7910743475
 20
-2.3859307596
 10
-2.3427384802
 20
-2.1720748518
 10
-1.9119131366
 20
-1.9284894397
 10
-1.5002593169
 20
-1.6561136403
 10
-1.1093641075
 20
-1.3559975688
  0
LWPOLYLINE
  5
19A
330
188
100
AcDbEntity
  8
0
  6
Continuous
 62
     7
370
    25
100
AcDbPolyline
 90
       34
 70
   128
 43
0.0
 10
13.985168478
 20
-6.6023484115
 10
13.7649579791
 20
-6.0653158142
 10
13.5153536941
 20
-5.5385443667
 10
13.2372231588
 20
-5.0238649394
 10
12.9315330563
 20
-4.5230663755
 10
12.5993458568
 20
-4.0378892728
 10
12.2418161251
 20
-3.5700199347
 10
11.8601865075
 20
-3.121084509
 10
11.4557834132
 20
-2.6926433358
 10
11.0300124038
 20
-2.2861855245
 10
10.584353308
 20
-1.9031237782
 10
10.1203550787
 20
-1.5447894834
 10
9.6396304091
 20
-1.212428083
 10
9.1438501273
 20
-0.9071947472
 10
8.6347373896
 20
-0.6301503587
 10
8.1140616912
 20
-0.3822578254
 10
7.583632716
 20
-0.1643787339
 10
7.0452940466
 20
0.0227296456
 10
6.5009167573
 20
0.1784169908
 10
5.9523929101
 20
0.3021421877
 10
5.4016289793
 20
0.3934752114
 10
4.8505392248
 20
0.4520986209
 10
4.3010390388
 20
0.4778086618
 10
3.7550382889
 20
0.4705159754
 10
3.2144346799
 20
0.4302459082
 10
2.681107158
 20
0.3571384249
 10
2.1569093803
 20
0.251447621
 10
1.6436632722
 20
0.1135408404
 10
1.1431526949
 20
-0.0561026021
 10
0.6571172456
 20
-0.2568930861
 10
0.1872462108
 20
-0.488132735
 10
-0.2648273045
 20
-0.7490178421
 10
-0.6975320533
 20
-1.0386416632
 10
-1.1093641075
 20
-1.3559975688
  0
LWPOLYLINE
  5
19B
330
188
100
AcDbEntity
  8
0
  6
Continuous
 62
     7
370
    25
100
AcDbPolyline
 90
       68
 70
   128
 43
0.0
 10
13.985168478
 20
-6.6023484115
 10
14.1477643226
 20
-5.9382480837
 10
14.2793505948
 20
-5.2635055292
 10
14.3796558381
 20
-4.5795127099
 10
14.4484731278
 20
-3.8876806703
 10
14.485660497
 20
-3.1894366268
 10
14.49114123
 20
-2.4862210236
 10
14.4649040203
 20
-1.779484561
 10
14.407002994
 20
-1.0706852027
 10
14.3175575981
 20
-0.3612851678
 10
14.1967523542
 20
0.3472520852
 10
14.0448364778
 20
1.0534648777
 10
13.8621233641
 20
1.7558963264
 10
13.6489899416
 20
2.4530973487
 10
13.4058758943
 20
3.1436296522
 10
13.1332827549
 20
3.8260687016
 10
12.83177287
 20
4.4990066578
 10
12.5019682402
 20
5.1610552819
 10
12.1445492367
 20
5.810848799
 10
11.7602531978
 20
6.4470467162
 10
11.349872908
 20
7.0683365875
 10
10.9142549622
 20
7.6734367216
 10
10.4542980195
 20
8.2610988256
 10
9.9709509491
 20
8.8301105808
 10
9.4652108729
 20
9.3792981429
 10
8.9381211086
 20
9.9075285643
 10
8.3907690173
 20
10.4137121308
 10
7.8242837603
 20
10.8968046098
 10
7.2398339695
 20
11.3558094046
 10
6.638625337
 20
11.7897796101
 10
6.0218981276
 20
12.1978199666
 10
5.3909246201
 20
12.5790887062
 10
4.7470064828
 20
12.9327992898
 10
4.091472088
 20
13.2582220292
 10
3.425673772
 20
13.5546855929
 10
2.7509850449
 20
13.8215783906
 10
2.0687977573
 20
14.0583498353
 10
1.3805192292
 20
14.2645114787
 10
0.6875693464
 20
14.4396380193
 10
-0.0086223688
 20
14.5833681792
 10
-0.7066197058
 20
14.6954054501
 10
-1.4049827295
 20
14.7755187044
 10
-2.1022707504
 20
14.8235426723
 10
-2.7970452964
 20
14.8393782827
 10
-3.4878730808
 20
14.8229928673
 10
-4.1733289588
 20
14.7744202286
 10
-4.8519988677
 20
14.6937605695
 10
-5.5224827437
 20
14.5811802872
 10
-6.1833974107
 20
14.4369116293
 10
-6.8333794332
 20
14.2612522153
 10
-7.4710879293
 20
14.0545644221
 10
-8.0952073367
 20
13.8172746368
 10
-8.7044501269
 20
13.5498723768
 10
-9.2975594611
 20
13.2529092804
 10
-9.873311783
 20
12.9269979681
 10
-10.430519343
 20
12.5728107796
 10
-10.9680326485
 20
12.1910783861
 10
-11.4847428351
 20
11.7825882832
 10
-11.9795839545
 20
11.3481831667
 10
-12.451535173
 20
10.8887591934
 10
-12.8996228776
 20
10.4052641333
 10
-13.3229226849
 20
9.8986954135
 10
-13.7205613476
 20
9.3700980612
 10
-14.091718556
 20
8.8205625475
 10
-14.4356286305
 20
8.2512225378
 10
-14.7515821011
 20
7.6632525537
 10
-15.0389271708
 20
7.0578655489
 10
-15.2970710603
 20
6.4363104082
  0
LWPOLYLINE
  5
19F
330
188
100
AcDbEntity
  8
0
  6
Continuous
 62
     7
370
    25
100
AcDbPolyline
 90
       66
 70
   128
 43
0.0
 10
-15.9320236491
 20
4.3031895281
 10
-16.0613537795
 20
3.6195657395
 10
-16.1586555455
 20
2.9266587659
 10
-16.2237236153
 20
2.2259308193
 10
-16.2564206787
 20
1.5188606157
 10
-16.2566777364
 20
0.8069402551
 10
-16.2244942459
 20
0.0916720725
 10
-16.1599381228
 20
-0.6254345324
 10
-16.0631455969
 20
-1.3428662802
 10
-15.9343209255
 20
-2.0591092056
 10
-15.7737359617
 20
-2.7726518519
 10
-15.581729581
 20
-3.4819884605
 10
-15.3587069663
 20
-4.1856221489
 10
-15.1051387527
 20
-4.8820680691
 10
-14.8215600342
 20
-5.5698565412
 10
-14.5085692349
 20
-6.2475361546
 10
-14.1668268458
 20
-6.9136768311
 10
-13.7970540313
 20
-7.5668728427
 10
-13.4000311069
 20
-8.2057457779
 10
-12.9765958933
 20
-8.8289474504
 10
-12.5276419474
 20
-9.4351627446
 10
-12.0541166777
 20
-10.0231123903
 10
-11.5570193441
 20
-10.5915556626
 10
-11.0373989498
 20
-11.1392930001
 10
-10.4963520274
 20
-11.6651685361
 10
-9.9350203251
 20
-12.1680725381
 10
-9.3545883971
 20
-12.6469437493
 10
-8.7562811039
 20
-13.1007716284
 10
-8.1413610277
 20
-13.5285984819
 10
-7.5111258081
 20
-13.9295214851
 10
-6.8669054033
 20
-14.3026945873
 10
-6.2100592841
 20
-14.6473302975
 10
-5.5419735646
 20
-14.9627013457
 10
-4.8640580774
 20
-15.2481422178
 10
-4.1777433985
 20
-15.5030505603
 10
-3.4844778284
 20
-15.7268884509
 10
-2.7857243355
 20
-15.9191835343
 10
-2.0829574695
 20
-16.0795300183
 10
-1.3776602492
 20
-16.2075895307
 10
-0.6713210328
 20
-16.3030918329
 10
0.0345696221
 20
-16.3658353906
 10
0.7385221048
 20
-16.3956877986
 10
1.4390508947
 20
-16.3925860608
 10
2.1346776958
 20
-16.3565367226
 10
2.8239345568
 20
-16.2876158574
 10
3.5053669685
 20
-16.1859689059
 10
4.1775369333
 20
-16.0518103693
 10
4.8390259998
 20
-15.8854233567
 10
5.488438256
 20
-15.6871589873
 10
6.124403275
 20
-15.4574356501
 10
6.7455790072
 20
-15.1967381202
 10
7.350654612
 20
-14.9056165365
 10
7.9383532245
 20
-14.5846852405
 10
8.5074346493
 20
-14.2346214795
 10
9.0566979784
 20
-13.8561639783
 10
9.5849841251
 20
-13.4501113793
 10
10.0911782695
 20
-13.017320558
 10
10.5742122121
 20
-12.5587048143
 10
11.033066627
 20
-12.0752319454
 10
11.4667732133
 20
-11.5679222031
 10
11.8744167388
 20
-11.0378461416
 10
12.2551369707
 20
-10.4861223576
 10
12.6081304916
 20
-9.9139151302
 10
12.9326523942
 20
-9.3224319636
 10
13.228017854
 20
-8.7129210395
 10
13.4936035739
 20
-8.0866685826
  0
LWPOLYLINE
  5
1A0
330
188
100
AcDbEntity
  8
0
  6
Continuous
 62
     7
370
    25
100
AcDbPolyline
 90
       44
 70
   128
 43
0.0
 10
13.4936035739
 20
-8.0866685826
 10
13.3562961067
 20
-7.5587926102
 10
13.1876722104
 20
-7.0365929329
 10
12.9883880015
 20
-6.5221014336
 10
12.7592188966
 20
-6.0173200022
 10
12.5010565941
 20
-5.5242127472
 10
12.2149056056
 20
-5.0446983522
 10
11.9018793464
 20
-4.5806426114
 10
11.5631958042
 20
-4.1338511689
 10
11.2001727991
 20
-3.7060624936
 10
10.814222856
 20
-3.2989411142
 10
10.4068477092
 20
-2.914071143
 10
9.9796324582
 20
-2.5529501118
 10
9.5342394006
 20
-2.2169831452
 10
9.0724015642
 20
-1.9074774931
 10
8.5959159632
 20
-1.6256374442
 10
8.1066366065
 20
-1.3725596401
 10
7.6064672838
 20
-1.1492288086
 10
7.0973541574
 20
-0.9565139313
 10
6.5812781902
 20
-0.7951648634
 10
6.0602474376
 20
-0.6658094152
 10
5.5362892339
 20
-0.5689509097
 10
5.0114423044
 20
-0.504966224
 10
4.4877488322
 20
-0.4741043231
 10
3.9672465125
 20
-0.4764852907
 10
3.4519606235
 20
-0.5120998626
 10
2.9438961463
 20
-0.5808094622
 10
2.4450299636
 20
-0.6823467399
 10
1.9573031672
 20
-0.8163166134
 10
1.4826135057
 20
-0.982197805
 10
1.0228079999
 20
-1.1793448699
 10
0.5796757565
 20
-1.4069907072
 10
0.1549410061
 20
-1.6642495455
 10
-0.2497436052
 20
-1.9501203887
 10
-0.6328034467
 20
-2.2634909112
 10
-0.9927480297
 20
-2.6031417862
 10
-1.3281768074
 20
-2.9677514297
 10
-1.6377846238
 20
-3.3559011427
 10
-1.9203667927
 20
-3.7660806321
 10
-2.1748237848
 20
-4.1966938864
 10
-2.4001655062
 20
-4.6460653863
 10
-2.5955151506
 20
-5.1124466241
 10
-2.7601126111
 20
-5.594022907
 10
-2.8933174378
 20
-6.0889204183
  0
LWPOLYLINE
  5
1A3
330
188
100
AcDbEntity
  8
0
  6
Continuous
 62
     7
370
    25
100
AcDbPolyline
 90
       33
 70
   128
 43
0.0
 10
14.2412454483
 20
-5.477214458
 10
14.0456837799
 20
-5.0708371934
 10
13.7675532446
 20
-4.5561577662
 10
13.4618631421
 20
-4.0553592022
 10
13.1296759426
 20
-3.5701820995
 10
12.7721462108
 20
-3.1023127615
 10
12.3905165933
 20
-2.6533773358
 10
11.986113499
 20
-2.2249361626
 10
11.5603424895
 20
-1.8184783513
 10
11.1146833938
 20
-1.4354166049
 10
10.6506851645
 20
-1.0770823101
 10
10.1699604948
 20
-0.7447209097
 10
9.6741802131
 20
-0.4394875739
 10
9.1650674754
 20
-0.1624431854
 10
8.644391777
 20
0.0854493478
 10
8.1139628017
 20
0.3033284394
 10
7.5756241324
 20
0.4904368189
 10
7.031246843
 20
0.6461241641
 10
6.4827229959
 20
0.7698493609
 10
5.9319590651
 20
0.8611823847
 10
5.3808693105
 20
0.9198057941
 10
4.8313691245
 20
0.9455158351
 10
4.2853683746
 20
0.9382231486
 10
3.7447647657
 20
0.8979530815
 10
3.2114372438
 20
0.8248455982
 10
2.6872394661
 20
0.7191547943
 10
2.173993358
 20
0.5812480136
 10
1.6734827807
 20
0.4116045711
 10
1.1874473314
 20
0.2108140872
 10
0.7175762966
 20
-0.0204255618
 10
0.2655027813
 20
-0.2813106688
 10
-0.1672019676
 20
-0.5709344899
 10
-0.5790340218
 20
-0.8882903955
  0
LWPOLYLINE
  5
1A4
330
188
100
AcDbEntity
  8
0
  6
Continuous
 62
     7
370
    25
100
AcDbPolyline
 90
       32
 70
   128
 43
0.0
 10
-14.0784549389
 20
3.6169940142
 10
-13.8777742719
 20
3.1575652531
 10
-13.6294646846
 20
2.6629848723
 10
-13.3531062465
 20
2.1812961435
 10
-13.0497644277
 20
1.714356165
 10
-12.7206087293
 20
1.2639651732
 10
-12.3669081754
 20
0.8318596015
 10
-11.99002642
 20
0.4197053859
 10
-11.5914164897
 20
0.0290915421
 10
-11.1726151817
 20
-0.3384759607
 10
-10.7352371387
 20
-0.6815800061
 10
-10.2809686244
 20
-0.9988977936
 10
-9.8115610214
 20
-1.2892059392
 10
-9.3288240798
 20
-1.5513851913
 10
-8.8346189392
 20
-1.7844247464
 10
-8.3308509537
 20
-1.9874261459
 10
-7.8194623461
 20
-2.1596067399
 10
-7.3024247194
 20
-2.300302705
 10
-6.781731456
 20
-2.408971603
 10
-6.259390032
 20
-2.485194473
 10
-5.7374142779
 20
-2.5286774459
 10
-5.2178166145
 20
-2.5392528779
 10
-4.702600294
 20
-2.5168799966
 10
-4.1937516768
 20
-2.4616450581
 10
-3.6932325734
 20
-2.3737610147
 10
-3.2029726807
 20
-2.2535666939
 10
-2.7248621425
 20
-2.1015254916
 10
-2.2607442617
 20
-1.9182235864
 10
-1.8124083945
 20
-1.7043676786
 10
-1.3815830509
 20
-1.4607822664
 10
-0.9699292311
 20
-1.188406467
 10
-0.5790340218
 20
-0.8882903955
  0
LWPOLYLINE
  5
1A9
330
188
100
AcDbEntity
  8
0
  6
Continuous
 62
     7
370
    25
100
AcDbPolyline
 90
       55
 70
   128
 43
0.0
 10
-15.6361410737
 20
3.325913359
 10
-15.6933935296
 20
2.6936379925
 10
-15.7260905929
 20
1.986567789
 10
-15.7263476506
 20
1.2746474284
 10
-15.6941641602
 20
0.5593792458
 10
-15.629608037
 20
-0.1577273591
 10
-15.5328155112
 20
-0.875159107
 10
-15.4039908397
 20
-1.5914020324
 10
-15.2434058759
 20
-2.3049446786
 10
-15.0513994952
 20
-3.0142812872
 10
-14.8283768806
 20
-3.7179149756
 10
-14.5748086669
 20
-4.4143608958
 10
-14.2912299485
 20
-5.1021493679
 10
-13.9782391491
 20
-5.7798289813
 10
-13.6364967601
 20
-6.4459696579
 10
-13.2667239455
 20
-7.0991656695
 10
-12.8697010212
 20
-7.7380386046
 10
-12.4462658075
 20
-8.3612402772
 10
-11.9973118617
 20
-8.9674555714
 10
-11.5237865919
 20
-9.5554052171
 10
-11.0266892583
 20
-10.1238484894
 10
-10.507068864
 20
-10.6715858268
 10
-9.9660219417
 20
-11.1974613628
 10
-9.4046902394
 20
-11.7003653648
 10
-8.8242583113
 20
-12.1792365761
 10
-8.2259510181
 20
-12.6330644552
 10
-7.611030942
 20
-13.0608913086
 10
-6.9807957223
 20
-13.4618143118
 10
-6.3365753176
 20
-13.8349874141
 10
-5.6797291983
 20
-14.1796231243
 10
-5.0116434788
 20
-14.4949941724
 10
-4.3337279916
 20
-14.7804350445
 10
-3.6474133127
 20
-15.035343387
 10
-2.9541477426
 20
-15.2591812777
 10
-2.2553942498
 20
-15.4514763611
 10
-1.5526273838
 20
-15.6118228451
 10
-0.8473301634
 20
-15.7398823575
 10
-0.1409909471
 20
-15.8353846597
 10
0.5648997079
 20
-15.8981282173
 10
1.2688521906
 20
-15.9279806254
 10
1.9693809805
 20
-15.9248788876
 10
2.6650077816
 20
-15.8888295494
 10
3.3542646426
 20
-15.8199086841
 10
4.0356970543
 20
-15.7182617326
 10
4.7078670191
 20
-15.5841031961
 10
5.3693560856
 20
-15.4177161834
 10
6.0187683417
 20
-15.2194518141
 10
6.6547333608
 20
-14.9897284768
 10
7.2759090929
 20
-14.7290309469
 10
7.8809846978
 20
-14.4379093633
 10
8.4686833102
 20
-14.1169780672
 10
9.0377647351
 20
-13.7669143063
 10
9.5870280642
 20
-13.388456805
 10
10.1153142108
 20
-12.9824042061
 10
10.2510331089
 20
-12.8707981087
  0
LWPOLYLINE
  5
1AF
330
188
100
AcDbEntity
  8
0
  6
Continuous
 62
     7
370
    25
100
AcDbPolyline
 90
       35
 70
   128
 43
0.0
 10
6.2432984902
 20
-4.5954464641
 10
6.2273712834
 20
-4.4201991179
 10
6.1801320448
 20
-4.2469063309
 10
6.1031894501
 20
-4.0814693813
 10
5.999163687
 20
-3.9295220259
 10
5.8715972282
 20
-3.7962386497
 10
5.7248341964
 20
-3.6861580581
 10
5.5638724306
 20
-3.6030289138
 10
5.3941932907
 20
-3.5496820799
 10
5.2215749963
 20
-3.5279342191
 10
5.0518958564
 20
-3.5385259284
 10
4.8909340906
 20
-3.5810965202
 10
4.7441710588
 20
-3.6541963037
 10
4.6166045999
 20
-3.7553359537
 10
4.5125788369
 20
-3.8810712807
 10
4.4356362422
 20
-4.0271205188
 10
4.3883970036
 20
-4.1885101365
 10
4.3724697967
 20
-4.3597442038
 10
4.3883970036
 20
-4.53499155
 10
4.4356362422
 20
-4.708284337
 10
4.5125788369
 20
-4.8737212866
 10
4.6166045999
 20
-5.025668642
 10
4.7441710588
 20
-5.1589520182
 10
4.8909340906
 20
-5.2690326098
 10
5.0518958564
 20
-5.3521617541
 10
5.2215749963
 20
-5.405508588
 10
5.3941932907
 20
-5.4272564488
 10
5.5638724306
 20
-5.4166647394
 10
5.7248341964
 20
-5.3740941477
 10
5.8715972282
 20
-5.3009943641
 10
5.999163687
 20
-5.1998547141
 10
6.1031894501
 20
-5.0741193872
 10
6.1801320448
 20
-4.9280701491
 10
6.2273712834
 20
-4.7666805314
 10
6.2432984902
 20
-4.5954464641
  0
LINE
  5
1B3
330
188
100
AcDbEntity
  8
0
  6
Continuous
 62
     7
370
    25
100
AcDbLine
 10
-11.5344232085
 20
13.0788065681
 30
0.0
 11
-12.4183066848
 21
12.2992946127
 31
0.0
  0
LINE
  5
1B4
330
188
100
AcDbEntity
  8
0
  6
Continuous
 62
     7
370
    25
100
AcDbLine
 10
10.6505397323
 20
-13.8583185235
 30
0.0
 11
11.5344232085
 21
-13.0788065681
 31
0.0
  0
LINE
  5
1B5
330
188
100
AcDbEntity
  8
0
  6
Continuous
 62
     7
370
    25
100
AcDbLine
 10
5.1767764015
 20
-3.2598881607
 30
0.0
 11
4.6464463157
 21
-3.727595334
 31
0.0
  0
LINE
  5
1B6
330
188
100
AcDbEntity
  8
0
  6
Continuous
 62
     7
370
    25
100
AcDbLine
 10
5.9693219712
 20
-5.2275953339
 30
0.0
 11
6.499652057
 21
-4.7598881607
 31
0.0
  0
LINE
  5
1B7
330
188
100
AcDbEntity
  8
0
  6
Continuous
 62
     7
370
    25
100
AcDbLine
 10
-12.6387179221
 20
3.5736753875
 30
0.0
 11
-12.1083878363
 21
4.0413825608
 31
0.0
  0
LINE
  5
1B8
330
188
100
AcDbEntity
  8
0
  6
Continuous
 62
     7
370
    25
100
AcDbLine
 10
-15.0879970051
 20
4.6869934008
 30
0.0
 11
-12.5017296626
 21
4.3611543432
 31
0.0
  0
LINE
  5
1B9
330
188
100
AcDbEntity
  8
0
  6
Continuous
 62
     7
370
    25
100
AcDbLine
 10
-12.5017296626
 20
4.3611543432
 30
0.0
 11
-12.5017296626
 21
3.8897498224
 31
0.0
  0
LINE
  5
1BA
330
188
100
AcDbEntity
  8
0
  6
Continuous
 62
     7
370
    25
100
AcDbLine
 10
-12.969436836
 20
3.4772708667
 30
0.0
 11
-14.8168594879
 21
3.7100242429
 31
0.0
  0
LINE
  5
1BB
330
188
100
AcDbEntity
  8
0
  6
Continuous
 62
     7
370
    25
100
AcDbLine
 10
-3.8504976665
 20
-5.9683270448
 30
0.0
 11
-2.8933174378
 21
-6.0889204183
 31
0.0
  0
LINE
  5
1BC
330
188
100
AcDbEntity
  8
0
  6
Continuous
 62
     7
370
    25
100
AcDbLine
 10
-15.2970710603
 20
6.4363104082
 30
0.0
 11
-14.7667409746
 21
6.9040175814
 31
0.0
  0
LINE
  5
1BD
330
188
100
AcDbEntity
  8
0
  6
Continuous
 62
     7
370
    25
100
AcDbLine
 10
-11.9713995768
 20
4.8288615165
 30
0.0
 11
-11.9713995768
 21
4.3574569957
 31
0.0
  0
LINE
  5
1BE
330
188
100
AcDbEntity
  8
0
  6
Continuous
 62
     7
370
    25
100
AcDbLine
 10
-14.5576669193
 20
5.154700574
 30
0.0
 11
-11.9713995768
 21
4.8288615165
 31
0.0
  0
LINE
  5
1BF
330
188
100
AcDbEntity
  8
0
  6
Continuous
 62
     7
370
    25
100
AcDbLine
 10
-1.1093641075
 20
-1.3559975688
 30
0.0
 11
-0.5790340218
 21
-0.8882903955
 31
0.0
  0
LINE
  5
1C0
330
188
100
AcDbEntity
  8
0
  6
Continuous
 62
     7
370
    25
100
AcDbLine
 10
-2.8933174378
 20
-6.0889204183
 30
0.0
 11
-2.362987352
 21
-5.621213245
 31
0.0
  0
LINE
  5
1C1
330
188
100
AcDbEntity
  8
0
  6
Continuous
 62
     7
370
    25
100
AcDbLine
 10
-12.5017296626
 20
4.3611543432
 30
0.0
 11
-11.9713995768
 21
4.8288615165
 31
0.0
  0
LINE
  5
1C2
330
188
100
AcDbEntity
  8
0
  6
Continuous
 62
     7
370
    25
100
AcDbLine
 10
-15.0879970051
 20
4.6869934008
 30
0.0
 11
-14.5576669193
 21
5.154700574
 31
0.0
  0
LINE
  5
1C3
330
188
100
AcDbEntity
  8
0
  6
Continuous
 62
     7
370
    25
100
AcDbLine
 10
-12.5017296626
 20
3.8897498224
 30
0.0
 11
-11.9713995768
 21
4.3574569957
 31
0.0
  0
ARC
  5
1C4
330
188
100
AcDbEntity
  8
0
  6
Continuous
 62
     7
370
    25
100
AcDbCircle
 10
1.7805842945
 20
-2.304265407
 30
0.0
 40
14.53368882270856
100
AcDbArc
 50
312.1535109707
 51
0.982183708
  0
ARC
  5
1C5
330
188
100
AcDbEntity
  8
0
  6
Continuous
 62
     7
370
    25
100
AcDbCircle
 10
-6.3643901114
 20
6.6167698974
 30
0.0
 40
8.93450359916299
100
AcDbArc
 50
181.157341328
 51
192.4737007054
  0
ARC
  5
1C6
330
188
100
AcDbEntity
  8
0
  6
Continuous
 62
     7
370
    25
100
AcDbCircle
 10
-12.9085713343
 20
3.8796603957
 30
0.0
 40
0.406966758322319
100
AcDbArc
 50
261.3986348259
 51
1.4206093965
  0
ARC
  5
1C7
330
188
100
AcDbEntity
  8
0
  6
Continuous
 62
     7
370
    25
100
AcDbCircle
 10
4.3596201562
 20
-7.6636965156
 30
0.0
 40
8.383335392672942
100
AcDbArc
 50
150.1561980686
 51
168.3325535392
  0
ARC
  5
1C8
330
188
100
AcDbEntity
  8
0
  6
Continuous
 62
     7
370
    25
100
AcDbCircle
 10
-5.7015359426
 20
6.6199691455
 30
0.0
 40
10.48953509494652
100
AcDbArc
 50
192.7598909913
 51
285.4227444496
  0
ARC
  5
1C9
330
188
100
AcDbEntity
  8
0
  6
Continuous
 62
     7
370
    25
100
AcDbCircle
 10
-2.5264802777
 20
2.2135330051
 30
0.0
 40
13.10818932909859
100
AcDbArc
 50
133.1329798382
 51
159.0330994923
  0
ARC
  5
1CA
330
188
100
AcDbEntity
  8
0
  6
Continuous
 62
     7
370
    25
100
AcDbCircle
 10
-12.3881263228
 20
4.3503455562
 30
0.0
 40
0.4167874198663183
100
AcDbArc
 50
312.158037431
 51
0.9776572489
  0
ARC
  5
1CB
330
188
100
AcDbEntity
  8
0
  6
Continuous
 62
     7
370
    25
100
AcDbCircle
 10
-5.8340600256
 20
7.0844770707
 30
0.0
 40
8.934503599162928
100
AcDbArc
 50
181.157341328
 51
192.4737007054
  0
ARC
  5
1CC
330
188
100
AcDbEntity
  8
0
  6
Continuous
 62
     7
370
    25
100
AcDbCircle
 10
4.7449841665
 20
-7.2368723731
 30
0.0
 40
7.289280727595248
100
AcDbArc
 50
134.572028795
 51
167.1941162313
  0
ARC
  5
1CD
330
188
100
AcDbEntity
  8
0
  6
Continuous
 62
     7
370
    25
100
AcDbCircle
 10
5.7600561995
 20
-4.0896844089
 30
0.0
 40
1.014286515919324
100
AcDbArc
 50
357.8498225553
 51
125.1041237398
  0
ARC
  5
1CE
330
188
100
AcDbEntity
  8
0
  6
Continuous
 62
     7
370
    25
100
AcDbCircle
 10
5.941825766
 20
-4.1426775837
 30
0.0
 40
0.8319369370193201
100
AcDbArc
 50
312.1068340779
 51
1.0288606007
  0
VIEWPORT
  5
1E1
330
188
100
AcDbEntity
  8
0
100
AcDbViewport
 10
0.0
 20
0.0
 30
0.0
 40
205.6
 41
156.0
 68
     1
 69
     1
 12
0.0
 22
0.0
 13
0.0
 23
0.0
 14
10.0
 24
10.0
 15
10.0
 25
10.0
 16
0.0
 26
0.0
 36
1.0
 17
0.0
 27
0.0
 37
0.0
 42
50.0
 43
0.0
 44
0.0
 45
35.5743538657
 50
0.0
 51
0.0
 72
   100
 90
   557152
  1

281
     0
 71
     1
 74
     0
110
0.0
120
0.0
130
0.0
111
1.0
121
0.0
131
0.0
112
0.0
122
1.0
132
0.0
 79
     0
146
0.0
  0
ENDBLK
  5
18B
330
188
100
AcDbEntity
  8
0
100
AcDbBlockEnd
  0
ENDSEC
  0
SECTION
  2
ENTITIES
  0
CIRCLE
  5
73
330
1F
100
AcDbEntity
  8
0
  6
Continuous
 62
     7
370
    25
100
AcDbCircle
 10
6.6192780145
 20
-3.095
 30
0.0
 40
1.000000000000001
  0
CIRCLE
  5
74
330
1F
100
AcDbEntity
  8
0
  6
Continuous
 62
     7
370
    25
100
AcDbCircle
 10
0.0
 20
0.0
 30
0.0
 40
17.43840875768198
  0
LINE
  5
82
330
1F
100
AcDbEntity
  8
0
  6
Continuous
 62
     7
370
    25
100
AcDbLine
 10
-3.1714439709
 20
-5.9
 30
0.0
 11
-2.1481752643
 21
-5.9
 31
0.0
  0
LINE
  5
83
330
1F
100
AcDbEntity
  8
0
  6
Continuous
 62
     7
370
    25
100
AcDbLine
 10
-15.1848360874
 20
3.9
 30
0.0
 11
-12.42
 21
3.9
 31
0.0
  0
LINE
  5
84
330
1F
100
AcDbEntity
  8
0
  6
Continuous
 62
     7
370
    25
100
AcDbLine
 10
-12.42
 20
3.9
 30
0.0
 11
-12.42
 21
3.4
 31
0.0
  0
LINE
  5
85
330
1F
100
AcDbEntity
  8
0
  6
Continuous
 62
     7
370
    25
100
AcDbLine
 10
-12.92
 20
2.9
 30
0.0
 11
-14.8949778891
 21
2.9
 31
0.0
  0
ARC
  5
86
330
1F
100
AcDbEntity
  8
0
  6
Continuous
 62
     7
370
    25
100
AcDbCircle
 10
6.6192780145
 20
-7.9104198575
 30
0.0
 40
9.995000000000104
100
AcDbArc
 50
151.5433702392
 51
168.3962193938
  0
ARC
  5
87
330
1F
100
AcDbEntity
  8
0
  6
Continuous
 62
     7
370
    25
100
AcDbCircle
 10
-6.415
 20
5.9
 30
0.0
 40
9.994999999999997
100
AcDbArc
 50
194.6026067534
 51
295.1444474229
  0
ARC
  5
88
330
1F
100
AcDbEntity
  8
0
  6
Continuous
 62
     7
370
    25
100
AcDbCircle
 10
0.0
 20
0.0
 30
0.0
 40
16.43840875768201
100
AcDbArc
 50
168.1339867087
 51
339.2307789183
  0
ARC
  5
89
330
1F
100
AcDbEntity
  8
0
  6
Continuous
 62
     7
370
    25
100
AcDbCircle
 10
-6.415
 20
5.9
 30
0.0
 40
8.99499999999943
100
AcDbArc
 50
181.0988967111
 51
192.8468475001
  0
ARC
  5
8A
330
1F
100
AcDbEntity
  8
0
  6
Continuous
 62
     7
370
    25
100
AcDbCircle
 10
-12.92
 20
3.4
 30
0.0
 40
0.5000000000000036
100
AcDbArc
 50
270.0
 51
0.0
  0
ARC
  5
8B
330
1F
100
AcDbEntity
  8
0
  6
Continuous
 62
     7
370
    25
100
AcDbCircle
 10
-6.415
 20
5.9
 30
0.0
 40
8.99500000000001
100
AcDbArc
 50
199.4824812354
 51
313.3439088311
  0
ARC
  5
8C
330
1F
100
AcDbEntity
  8
0
  6
Continuous
 62
     7
370
    25
100
AcDbCircle
 10
6.6192780145
 20
-7.9104198575
 30
0.0
 40
9.995000000000005
100
AcDbArc
 50
21.8587158242
 51
133.3439088311
  0
ARC
  5
8D
330
1F
100
AcDbEntity
  8
0
  6
Continuous
 62
     7
370
    25
100
AcDbCircle
 10
0.0
 20
0.0
 30
0.0
 40
16.438408757682
100
AcDbArc
 50
345.2361621836
 51
159.6092132573
  0
ARC
  5
8E
330
1F
100
AcDbEntity
  8
0
  6
Continuous
 62
     7
370
    25
100
AcDbCircle
 10
6.6192780145
 20
-7.9104198575
 30
0.0
 40
8.995000000000001
100
AcDbArc
 50
13.3784579371
 51
167.08506743
  0
CIRCLE
  5
8F
330
1B
100
AcDbEntity
 67
     1
  8
0
  6
Continuous
 62
     7
370
    25
100
AcDbCircle
 10
6.6192780145
 20
-3.095
 30
0.0
 40
1.000000000000001
  0
CIRCLE
  5
90
330
1B
100
AcDbEntity
 67
     1
  8
0
  6
Continuous
 62
     7
370
    25
100
AcDbCircle
 10
0.0
 20
0.0
 30
0.0
 40
17.43840875768198
  0
LINE
  5
9E
330
1B
100
AcDbEntity
 67
     1
  8
0
  6
Continuous
 62
     7
370
    25
100
AcDbLine
 10
-3.1714439709
 20
-5.9
 30
0.0
 11
-2.1481752643
 21
-5.9
 31
0.0
  0
LINE
  5
9F
330
1B
100
AcDbEntity
 67
     1
  8
0
  6
Continuous
 62
     7
370
    25
100
AcDbLine
 10
-15.1848360874
 20
3.9
 30
0.0
 11
-12.42
 21
3.9
 31
0.0
  0
LINE
  5
A0
330
1B
100
AcDbEntity
 67
     1
  8
0
  6
Continuous
 62
     7
370
    25
100
AcDbLine
 10
-12.42
 20
3.9
 30
0.0
 11
-12.42
 21
3.4
 31
0.0
  0
LINE
  5
A1
330
1B
100
AcDbEntity
 67
     1
  8
0
  6
Continuous
 62
     7
370
    25
100
AcDbLine
 10
-12.92
 20
2.9
 30
0.0
 11
-14.8949778891
 21
2.9
 31
0.0
  0
ARC
  5
A2
330
1B
100
AcDbEntity
 67
     1
  8
0
  6
Continuous
 62
     7
370
    25
100
AcDbCircle
 10
6.6192780145
 20
-7.9104198575
 30
0.0
 40
9.995000000000104
100
AcDbArc
 50
151.5433702392
 51
168.3962193938
  0
ARC
  5
A3
330
1B
100
AcDbEntity
 67
     1
  8
0
  6
Continuous
 62
     7
370
    25
100
AcDbCircle
 10
-6.415
 20
5.9
 30
0.0
 40
9.994999999999997
100
AcDbArc
 50
194.6026067534
 51
295.1444474229
  0
ARC
  5
A4
330
1B
100
AcDbEntity
 67
     1
  8
0
  6
Continuous
 62
     7
370
    25
100
AcDbCircle
 10
0.0
 20
0.0
 30
0.0
 40
16.43840875768201
100
AcDbArc
 50
168.1339867087
 51
339.2307789183
  0
ARC
  5
A5
330
1B
100
AcDbEntity
 67
     1
  8
0
  6
Continuous
 62
     7
370
    25
100
AcDbCircle
 10
-6.415
 20
5.9
 30
0.0
 40
8.99499999999943
100
AcDbArc
 50
181.0988967111
 51
192.8468475001
  0
ARC
  5
A6
330
1B
100
AcDbEntity
 67
     1
  8
0
  6
Continuous
 62
     7
370
    25
100
AcDbCircle
 10
-12.92
 20
3.4
 30
0.0
 40
0.5000000000000036
100
AcDbArc
 50
270.0
 51
0.0
  0
ARC
  5
A7
330
1B
100
AcDbEntity
 67
     1
  8
0
  6
Continuous
 62
     7
370
    25
100
AcDbCircle
 10
-6.415
 20
5.9
 30
0.0
 40
8.99500000000001
100
AcDbArc
 50
199.4824812354
 51
313.3439088311
  0
ARC
  5
A8
330
1B
100
AcDbEntity
 67
     1
  8
0
  6
Continuous
 62
     7
370
    25
100
AcDbCircle
 10
6.6192780145
 20
-7.9104198575
 30
0.0
 40
9.995000000000005
100
AcDbArc
 50
21.8587158242
 51
133.3439088311
  0
ARC
  5
A9
330
1B
100
AcDbEntity
 67
     1
  8
0
  6
Continuous
 62
     7
370
    25
100
AcDbCircle
 10
0.0
 20
0.0
 30
0.0
 40
16.438408757682
100
AcDbArc
 50
345.2361621836
 51
159.6092132573
  0
ARC
  5
AA
330
1B
100
AcDbEntity
 67
     1
  8
0
  6
Continuous
 62
     7
370
    25
100
AcDbCircle
 10
6.6192780145
 20
-7.9104198575
 30
0.0
 40
8.995000000000001
100
AcDbArc
 50
13.3784579371
 51
167.08506743
  0
VIEWPORT
  5
1CF
330
1B
100
AcDbEntity
 67
     1
  8
0
100
AcDbViewport
 10
0.0
 20
0.0
 30
0.0
 40
205.6
 41
156.0
 68
     1
 69
     1
 12
0.0
 22
0.0
 13
0.0
 23
0.0
 14
10.0
 24
10.0
 15
10.0
 25
10.0
 16
0.0
 26
0.0
 36
1.0
 17
0.0
 27
0.0
 37
0.0
 42
50.0
 43
0.0
 44
0.0
 45
35.5743538657
 50
0.0
 51
0.0
 72
   100
 90
   557152
  1

281
     0
 71
     1
 74
     0
110
0.0
120
0.0
130
0.0
111
1.0
121
0.0
131
0.0
112
0.0
122
1.0
132
0.0
 79
     0
146
0.0
  0
ENDSEC
  0
SECTION
  2
OBJECTS
  0
DICTIONARY
  5
C
330
0
100
AcDbDictionary
281
     1
  3
ACAD_GROUP
350
D
  3
ACAD_LAYOUT
350
1A
  3
ACAD_MLINESTYLE
350
17
  3
ACAD_PLOTSETTINGS
350
19
  3
ACAD_PLOTSTYLENAME
350
E
  3
ACAD_SCALELIST
350
47
  0
DICTIONARY
  5
D
102
{ACAD_REACTORS
330
C
102
}
330
C
100
AcDbDictionary
281
     1
  0
DICTIONARY
  5
1A
102
{ACAD_REACTORS
330
C
102
}
330
C
100
AcDbDictionary
281
     1
  3
_Arrière
350
D4
  3
_Dessous
350
F3
  3
_Dessus
350
26
  3
_Dimétrique
350
189
  3
_Droite
350
E5
  3
_Face
350
1E
  3
_Gauche
350
D9
  3
_Isométrique
350
FF
  3
_Normal à
350
B4
  3
_Trimétrique
350
144
  3
Model
350
22
  0
DICTIONARY
  5
17
102
{ACAD_REACTORS
330
C
102
}
330
C
100
AcDbDictionary
281
     1
  3
Standard
350
18
  0
DICTIONARY
  5
19
102
{ACAD_REACTORS
330
C
102
}
330
C
100
AcDbDictionary
281
     1
  0
ACDBDICTIONARYWDFLT
  5
E
102
{ACAD_REACTORS
330
C
102
}
330
C
100
AcDbDictionary
281
     1
  3
Normal
350
F
100
AcDbDictionaryWithDefault
340
F
  0
DICTIONARY
  5
47
102
{ACAD_REACTORS
330
C
102
}
330
C
100
AcDbDictionary
281
     1
  3
A0
350
48
  3
A1
350
49
  3
A2
350
4A
  3
A3
350
4B
  3
A4
350
4C
  3
A5
350
4D
  3
A6
350
4E
  3
A7
350
4F
  3
A8
350
50
  3
A9
350
51
  3
B0
350
52
  3
B1
350
53
  3
B2
350
54
  3
B3
350
55
  3
B4
350
56
  3
B5
350
57
  3
B6
350
58
  3
B7
350
59
  3
B8
350
5A
  3
B9
350
5B
  3
C0
350
5C
  3
C1
350
5D
  3
C2
350
5E
  3
C3
350
5F
  3
C4
350
60
  3
C5
350
61
  3
C6
350
62
  3
C7
350
63
  3
C8
350
64
  3
C9
350
65
  3
D0
350
66
  3
D1
350
67
  3
D2
350
68
  0
LAYOUT
  5
D4
102
{ACAD_REACTORS
330
1A
102
}
330
1A
100
AcDbPlotSettings
  1

  2
none_device
  4
ISO_A4_(210.00_x_297.00_MM)
  6

 40
7.5
 41
20.0
 42
7.5
 43
20.0
 44
210.0
 45
297.0
 46
0.0
 47
0.0
 48
0.0
 49
0.0
140
0.0
141
0.0
142
1.0
143
0.1788554744
 70
   688
 72
     1
 73
     1
 74
     1
  7

 75
     0
147
5.5911064682
148
17.4384087577
149
17.4384087577
100
AcDbLayout
  1
_Arrière
 70
     1
 71
     4
 10
0.0
 20
0.0
 11
0.0
 21
0.0
 12
0.0
 22
0.0
 32
0.0
 14
0.0
 24
0.0
 34
0.0
 15
0.0
 25
0.0
 35
0.0
146
0.0
 13
0.0
 23
0.0
 33
0.0
 16
1.0
 26
0.0
 36
0.0
 17
0.0
 27
1.0
 37
0.0
 76
     0
330
D3
331
1D5
  0
LAYOUT
  5
F3
102
{ACAD_REACTORS
330
1A
102
}
330
1A
100
AcDbPlotSettings
  1

  2
none_device
  4
ISO_A4_(210.00_x_297.00_MM)
  6

 40
7.5
 41
20.0
 42
7.5
 43
20.0
 44
210.0
 45
297.0
 46
0.0
 47
0.0
 48
0.0
 49
0.0
140
0.0
141
0.0
142
1.0
143
0.1788554744
 70
   688
 72
     1
 73
     1
 74
     1
  7

 75
     0
147
5.5911064682
148
17.4384087577
149
17.4384087577
100
AcDbLayout
  1
_Dessous
 70
     1
 71
     7
 10
0.0
 20
0.0
 11
0.0
 21
0.0
 12
0.0
 22
0.0
 32
0.0
 14
0.0
 24
0.0
 34
0.0
 15
0.0
 25
0.0
 35
0.0
146
0.0
 13
0.0
 23
0.0
 33
0.0
 16
1.0
 26
0.0
 36
0.0
 17
0.0
 27
1.0
 37
0.0
 76
     0
330
F2
331
1DB
  0
LAYOUT
  5
26
102
{ACAD_REACTORS
330
1A
102
}
330
1A
100
AcDbPlotSettings
  1

  2
none_device
  4
ISO_A4_(210.00_x_297.00_MM)
  6

 40
7.5
 41
20.0
 42
7.5
 43
20.0
 44
210.0
 45
297.0
 46
0.0
 47
0.0
 48
0.0
 49
0.0
140
0.0
141
0.0
142
1.0
143
0.1788554744
 70
   688
 72
     1
 73
     1
 74
     1
  7

 75
     0
147
5.5911064682
148
17.4384087577
149
17.4384087577
100
AcDbLayout
  1
_Dessus
 70
     1
 71
     2
 10
0.0
 20
0.0
 11
0.0
 21
0.0
 12
0.0
 22
0.0
 32
0.0
 14
0.0
 24
0.0
 34
0.0
 15
0.0
 25
0.0
 35
0.0
146
0.0
 13
0.0
 23
0.0
 33
0.0
 16
1.0
 26
0.0
 36
0.0
 17
0.0
 27
1.0
 37
0.0
 76
     0
330
23
331
1D1
  0
LAYOUT
  5
189
102
{ACAD_REACTORS
330
1A
102
}
330
1A
100
AcDbPlotSettings
  1

  2
none_device
  4
ISO_A4_(210.00_x_297.00_MM)
  6

 40
7.5
 41
20.0
 42
7.5
 43
20.0
 44
210.0
 45
297.0
 46
0.0
 47
0.0
 48
0.0
 49
0.0
140
0.0
141
0.0
142
1.0
143
0.1788554744
 70
   688
 72
     1
 73
     1
 74
     1
  7

 75
     0
147
5.5911064682
148
17.4384087577
149
17.4384087577
100
AcDbLayout
  1
_Dimétrique
 70
     1
 71
    10
 10
0.0
 20
0.0
 11
0.0
 21
0.0
 12
0.0
 22
0.0
 32
0.0
 14
0.0
 24
0.0
 34
0.0
 15
0.0
 25
0.0
 35
0.0
146
0.0
 13
0.0
 23
0.0
 33
0.0
 16
1.0
 26
0.0
 36
0.0
 17
0.0
 27
1.0
 37
0.0
 76
     0
330
188
331
1E1
  0
LAYOUT
  5
E5
102
{ACAD_REACTORS
330
1A
102
}
330
1A
100
AcDbPlotSettings
  1

  2
none_device
  4
ISO_A4_(210.00_x_297.00_MM)
  6

 40
7.5
 41
20.0
 42
7.5
 43
20.0
 44
210.0
 45
297.0
 46
0.0
 47
0.0
 48
0.0
 49
0.0
140
0.0
141
0.0
142
1.0
143
0.1788554744
 70
   688
 72
     1
 73
     1
 74
     1
  7

 75
     0
147
5.5911064682
148
17.4384087577
149
17.4384087577
100
AcDbLayout
  1
_Droite
 70
     1
 71
     6
 10
0.0
 20
0.0
 11
0.0
 21
0.0
 12
0.0
 22
0.0
 32
0.0
 14
0.0
 24
0.0
 34
0.0
 15
0.0
 25
0.0
 35
0.0
146
0.0
 13
0.0
 23
0.0
 33
0.0
 16
1.0
 26
0.0
 36
0.0
 17
0.0
 27
1.0
 37
0.0
 76
     0
330
E4
331
1D9
  0
LAYOUT
  5
1E
102
{ACAD_REACTORS
330
1A
102
}
330
1A
100
AcDbPlotSettings
  1

  2
none_device
  4
ISO_A4_(210.00_x_297.00_MM)
  6

 40
7.5
 41
20.0
 42
7.5
 43
20.0
 44
210.0
 45
297.0
 46
0.0
 47
0.0
 48
0.0
 49
0.0
140
0.0
141
0.0
142
1.0
143
0.1788554744
 70
   688
 72
     1
 73
     1
 74
     1
  7

 75
     0
147
5.5911064682
148
17.4384087577
149
17.4384087577
100
AcDbLayout
  1
_Face
 70
     1
 71
     1
 10
-21.0155182464
 20
-18.779824816
 11
32.1045576616
 21
18.779824816
 12
0.0
 22
0.0
 32
0.0
 14
-17.4384087577
 24
-17.4384087577
 34
0.0
 15
17.4384087577
 25
17.4384087577
 35
0.0
146
0.0
 13
0.0
 23
0.0
 33
0.0
 16
1.0
 26
0.0
 36
0.0
 17
0.0
 27
1.0
 37
0.0
 76
     0
330
1B
331
1CF
  0
LAYOUT
  5
D9
102
{ACAD_REACTORS
330
1A
102
}
330
1A
100
AcDbPlotSettings
  1

  2
none_device
  4
ISO_A4_(210.00_x_297.00_MM)
  6

 40
7.5
 41
20.0
 42
7.5
 43
20.0
 44
210.0
 45
297.0
 46
0.0
 47
0.0
 48
0.0
 49
0.0
140
0.0
141
0.0
142
1.0
143
0.1788554744
 70
   688
 72
     1
 73
     1
 74
     1
  7

 75
     0
147
5.5911064682
148
17.4384087577
149
17.4384087577
100
AcDbLayout
  1
_Gauche
 70
     1
 71
     5
 10
0.0
 20
0.0
 11
0.0
 21
0.0
 12
0.0
 22
0.0
 32
0.0
 14
0.0
 24
0.0
 34
0.0
 15
0.0
 25
0.0
 35
0.0
146
0.0
 13
0.0
 23
0.0
 33
0.0
 16
1.0
 26
0.0
 36
0.0
 17
0.0
 27
1.0
 37
0.0
 76
     0
330
D8
331
1D7
  0
LAYOUT
  5
FF
102
{ACAD_REACTORS
330
1A
102
}
330
1A
100
AcDbPlotSettings
  1

  2
none_device
  4
ISO_A4_(210.00_x_297.00_MM)
  6

 40
7.5
 41
20.0
 42
7.5
 43
20.0
 44
210.0
 45
297.0
 46
0.0
 47
0.0
 48
0.0
 49
0.0
140
0.0
141
0.0
142
1.0
143
0.1788554744
 70
   688
 72
     1
 73
     1
 74
     1
  7

 75
     0
147
5.5911064682
148
17.4384087577
149
17.4384087577
100
AcDbLayout
  1
_Isométrique
 70
     1
 71
     8
 10
0.0
 20
0.0
 11
0.0
 21
0.0
 12
0.0
 22
0.0
 32
0.0
 14
0.0
 24
0.0
 34
0.0
 15
0.0
 25
0.0
 35
0.0
146
0.0
 13
0.0
 23
0.0
 33
0.0
 16
1.0
 26
0.0
 36
0.0
 17
0.0
 27
1.0
 37
0.0
 76
     0
330
FE
331
1DD
  0
LAYOUT
  5
B4
102
{ACAD_REACTORS
330
1A
102
}
330
1A
100
AcDbPlotSettings
  1

  2
none_device
  4
ISO_A4_(210.00_x_297.00_MM)
  6

 40
7.5
 41
20.0
 42
7.5
 43
20.0
 44
210.0
 45
297.0
 46
0.0
 47
0.0
 48
0.0
 49
0.0
140
0.0
141
0.0
142
1.0
143
0.1788554744
 70
   688
 72
     1
 73
     1
 74
     1
  7

 75
     0
147
5.5911064682
148
17.4384087577
149
17.4384087577
100
AcDbLayout
  1
_Normal à
 70
     1
 71
     3
 10
0.0
 20
0.0
 11
0.0
 21
0.0
 12
0.0
 22
0.0
 32
0.0
 14
0.0
 24
0.0
 34
0.0
 15
0.0
 25
0.0
 35
0.0
146
0.0
 13
0.0
 23
0.0
 33
0.0
 16
1.0
 26
0.0
 36
0.0
 17
0.0
 27
1.0
 37
0.0
 76
     0
330
B3
331
1D3
  0
LAYOUT
  5
144
102
{ACAD_REACTORS
330
1A
102
}
330
1A
100
AcDbPlotSettings
  1

  2
none_device
  4
ISO_A4_(210.00_x_297.00_MM)
  6

 40
7.5
 41
20.0
 42
7.5
 43
20.0
 44
210.0
 45
297.0
 46
0.0
 47
0.0
 48
0.0
 49
0.0
140
0.0
141
0.0
142
1.0
143
0.1788554744
 70
   688
 72
     1
 73
     1
 74
     1
  7

 75
     0
147
5.5911064682
148
17.4384087577
149
17.4384087577
100
AcDbLayout
  1
_Trimétrique
 70
     1
 71
     9
 10
0.0
 20
0.0
 11
0.0
 21
0.0
 12
0.0
 22
0.0
 32
0.0
 14
0.0
 24
0.0
 34
0.0
 15
0.0
 25
0.0
 35
0.0
146
0.0
 13
0.0
 23
0.0
 33
0.0
 16
1.0
 26
0.0
 36
0.0
 17
0.0
 27
1.0
 37
0.0
 76
     0
330
143
331
1DF
  0
LAYOUT
  5
22
102
{ACAD_REACTORS
330
1A
102
}
330
1A
100
AcDbPlotSettings
  1

  2
none_device
  4
ANSI_A_(11.00_x_8.50_Inches)
  6

 40
6.35
 41
19.05
 42
6.35000508
 43
19.05000254
 44
279.4
 45
215.9
 46
133.34999746
 47
88.89999873
 48
0.0
 49
0.0
140
0.0
141
0.0
142
0.2412777484
143
1.0
 70
  1696
 72
     0
 73
     0
 74
     0
  7

 75
     0
147
0.0179189148
148
-1300.4909072572
149
0.0
100
AcDbLayout
  1
Model
 70
     1
 71
     0
 10
0.0
 20
0.0
 11
420.0
 21
297.0
 12
0.0
 22
0.0
 32
0.0
 14
-17.4384087577
 24
-17.4384087577
 34
0.0
 15
17.4384087577
 25
17.4384087577
 35
0.0
146
0.0
 13
0.0
 23
0.0
 33
0.0
 16
1.0
 26
0.0
 36
0.0
 17
0.0
 27
1.0
 37
0.0
 76
     0
330
1F
331
29
  0
MLINESTYLE
  5
18
102
{ACAD_REACTORS
330
17
102
}
330
17
100
AcDbMlineStyle
  2
Standard
 70
     0
  3

 62
   256
 51
90.0
 52
90.0
 71
     2
 49
0.5
 62
   256
  6
BYLAYER
 49
-0.5
 62
   256
  6
BYLAYER
  0
ACDBPLACEHOLDER
  5
F
102
{ACAD_REACTORS
330
E
102
}
330
E
  0
SCALE
  5
48
102
{ACAD_REACTORS
330
47
102
}
330
47
100
AcDbScale
 70
     0
300
1:1
140
1.0
141
1.0
290
     1
  0
SCALE
  5
49
102
{ACAD_REACTORS
330
47
102
}
330
47
100
AcDbScale
 70
     0
300
1:2
140
1.0
141
2.0
290
     0
  0
SCALE
  5
4A
102
{ACAD_REACTORS
330
47
102
}
330
47
100
AcDbScale
 70
     0
300
1:4
140
1.0
141
4.0
290
     0
  0
SCALE
  5
4B
102
{ACAD_REACTORS
330
47
102
}
330
47
100
AcDbScale
 70
     0
300
1:5
140
1.0
141
5.0
290
     0
  0
SCALE
  5
4C
102
{ACAD_REACTORS
330
47
102
}
330
47
100
AcDbScale
 70
     0
300
1:8
140
1.0
141
8.0
290
     0
  0
SCALE
  5
4D
102
{ACAD_REACTORS
330
47
102
}
330
47
100
AcDbScale
 70
     0
300
1:10
140
1.0
141
10.0
290
     0
  0
SCALE
  5
4E
102
{ACAD_REACTORS
330
47
102
}
330
47
100
AcDbScale
 70
     0
300
1:16
140
1.0
141
16.0
290
     0
  0
SCALE
  5
4F
102
{ACAD_REACTORS
330
47
102
}
330
47
100
AcDbScale
 70
     0
300
1:20
140
1.0
141
20.0
290
     0
  0
SCALE
  5
50
102
{ACAD_REACTORS
330
47
102
}
330
47
100
AcDbScale
 70
     0
300
1:30
140
1.0
141
30.0
290
     0
  0
SCALE
  5
51
102
{ACAD_REACTORS
330
47
102
}
330
47
100
AcDbScale
 70
     0
300
1:40
140
1.0
141
40.0
290
     0
  0
SCALE
  5
52
102
{ACAD_REACTORS
330
47
102
}
330
47
100
AcDbScale
 70
     0
300
1:50
140
1.0
141
50.0
290
     0
  0
SCALE
  5
53
102
{ACAD_REACTORS
330
47
102
}
330
47
100
AcDbScale
 70
     0
300
1:100
140
1.0
141
100.0
290
     0
  0
SCALE
  5
54
102
{ACAD_REACTORS
330
47
102
}
330
47
100
AcDbScale
 70
     0
300
2:1
140
2.0
141
1.0
290
     0
  0
SCALE
  5
55
102
{ACAD_REACTORS
330
47
102
}
330
47
100
AcDbScale
 70
     0
300
4:1
140
4.0
141
1.0
290
     0
  0
SCALE
  5
56
102
{ACAD_REACTORS
330
47
102
}
330
47
100
AcDbScale
 70
     0
300
8:1
140
8.0
141
1.0
290
     0
  0
SCALE
  5
57
102
{ACAD_REACTORS
330
47
102
}
330
47
100
AcDbScale
 70
     0
300
10:1
140
10.0
141
1.0
290
     0
  0
SCALE
  5
58
102
{ACAD_REACTORS
330
47
102
}
330
47
100
AcDbScale
 70
     0
300
100:1
140
100.0
141
1.0
290
     0
  0
SCALE
  5
59
102
{ACAD_REACTORS
330
47
102
}
330
47
100
AcDbScale
 70
     0
300
1/128" = 1'-0"
140
0.0078125
141
12.0
290
     0
  0
SCALE
  5
5A
102
{ACAD_REACTORS
330
47
102
}
330
47
100
AcDbScale
 70
     0
300
1/64" = 1'-0"
140
0.015625
141
12.0
290
     0
  0
SCALE
  5
5B
102
{ACAD_REACTORS
330
47
102
}
330
47
100
AcDbScale
 70
     0
300
1/32" = 1'-0"
140
0.03125
141
12.0
290
     0
  0
SCALE
  5
5C
102
{ACAD_REACTORS
330
47
102
}
330
47
100
AcDbScale
 70
     0
300
1/16" = 1'-0"
140
0.0625
141
12.0
290
     0
  0
SCALE
  5
5D
102
{ACAD_REACTORS
330
47
102
}
330
47
100
AcDbScale
 70
     0
300
3/32" = 1'-0"
140
0.09375
141
12.0
290
     0
  0
SCALE
  5
5E
102
{ACAD_REACTORS
330
47
102
}
330
47
100
AcDbScale
 70
     0
300
1/8" = 1'-0"
140
0.125
141
12.0
290
     0
  0
SCALE
  5
5F
102
{ACAD_REACTORS
330
47
102
}
330
47
100
AcDbScale
 70
     0
300
3/16" = 1'-0"
140
0.1875
141
12.0
290
     0
  0
SCALE
  5
60
102
{ACAD_REACTORS
330
47
102
}
330
47
100
AcDbScale
 70
     0
300
1/4" = 1'-0"
140
0.25
141
12.0
290
     0
  0
SCALE
  5
61
102
{ACAD_REACTORS
330
47
102
}
330
47
100
AcDbScale
 70
     0
300
3/8" = 1'-0"
140
0.375
141
12.0
290
     0
  0
SCALE
  5
62
102
{ACAD_REACTORS
330
47
102
}
330
47
100
AcDbScale
 70
     0
300
1/2" = 1'-0"
140
0.5
141
12.0
290
     0
  0
SCALE
  5
63
102
{ACAD_REACTORS
330
47
102
}
330
47
100
AcDbScale
 70
     0
300
3/4" = 1'-0"
140
0.75
141
12.0
290
     0
  0
SCALE
  5
64
102
{ACAD_REACTORS
330
47
102
}
330
47
100
AcDbScale
 70
     0
300
1" = 1'-0"
140
1.0
141
12.0
290
     0
  0
SCALE
  5
65
102
{ACAD_REACTORS
330
47
102
}
330
47
100
AcDbScale
 70
     0
300
1-1/2" = 1'-0"
140
1.5
141
12.0
290
     0
  0
SCALE
  5
66
102
{ACAD_REACTORS
330
47
102
}
330
47
100
AcDbScale
 70
     0
300
3" = 1'-0"
140
3.0
141
12.0
290
     0
  0
SCALE
  5
67
102
{ACAD_REACTORS
330
47
102
}
330
47
100
AcDbScale
 70
     0
300
6" = 1'-0"
140
6.0
141
12.0
290
     0
  0
SCALE
  5
68
102
{ACAD_REACTORS
330
47
102
}
330
47
100
AcDbScale
 70
     0
300
1'-0" = 1'-0"
140
12.0
141
12.0
290
     0
  0
ENDSEC
  0
EOF
