ISO-10303-21;
HEADER;
FILE_DESCRIPTION(('CATIA V5 STEP Exchange','CAx-IF Rec.Pracs.--- Model Styling and Organization---1.4--- 2014-01-23'),'2;1');

FILE_NAME('\\\\10.0.69.56\\it_referentiel\\transcad\\sortie\\jean-francois.mourgaud@legrand.fr\\26\\flasque.stp','2021-03-05T07:41:37+00:00',('none'),('none'),'CATIA Version 5-6 Release 2017 SP5','CATIA V5 STEP AP214','none');

FILE_SCHEMA(('AUTOMOTIVE_DESIGN { 1 0 10303 214 1 1 1 1 }'));

ENDSEC;
DATA;
#5=PRODUCT('flasque','','',(#2)) ;
#2=PRODUCT_CONTEXT(' ',#1,'mechanical') ;
#1=APPLICATION_CONTEXT('automotive design') ;
#10=PRODUCT_DEFINITION('',' ',#6,#3) ;
#3=PRODUCT_DEFINITION_CONTEXT('part definition',#1,' ') ;
#11=PRODUCT_DEFINITION_SHAPE(' ',' ',#10) ;
#589=MECHANICAL_DESIGN_GEOMETRIC_PRESENTATION_REPRESENTATION(' ',(#29),#16) ;
#590=MECHANICAL_DESIGN_GEOMETRIC_PRESENTATION_REPRESENTATION(' ',(#586),#16) ;
#19=SHAPE_REPRESENTATION(' ',(#18),#16) ;
#18=AXIS2_PLACEMENT_3D(' ',#17,$,$) ;
#34=AXIS2_PLACEMENT_3D('Cylinder Axis2P3D',#31,#32,#33) ;
#47=AXIS2_PLACEMENT_3D('Circle Axis2P3D',#45,#46,$) ;
#61=AXIS2_PLACEMENT_3D('Circle Axis2P3D',#59,#60,$) ;
#74=AXIS2_PLACEMENT_3D('Cylinder Axis2P3D',#71,#72,#73) ;
#78=AXIS2_PLACEMENT_3D('Circle Axis2P3D',#76,#77,$) ;
#83=AXIS2_PLACEMENT_3D('Circle Axis2P3D',#81,#82,$) ;
#96=AXIS2_PLACEMENT_3D('Cylinder Axis2P3D',#93,#94,#95) ;
#100=AXIS2_PLACEMENT_3D('Circle Axis2P3D',#98,#99,$) ;
#116=AXIS2_PLACEMENT_3D('Circle Axis2P3D',#114,#115,$) ;
#136=AXIS2_PLACEMENT_3D('Cylinder Axis2P3D',#133,#134,#135) ;
#140=AXIS2_PLACEMENT_3D('Circle Axis2P3D',#138,#139,$) ;
#147=AXIS2_PLACEMENT_3D('Circle Axis2P3D',#145,#146,$) ;
#167=AXIS2_PLACEMENT_3D('Cylinder Axis2P3D',#164,#165,#166) ;
#171=AXIS2_PLACEMENT_3D('Circle Axis2P3D',#169,#170,$) ;
#178=AXIS2_PLACEMENT_3D('Circle Axis2P3D',#176,#177,$) ;
#198=AXIS2_PLACEMENT_3D('Cylinder Axis2P3D',#195,#196,#197) ;
#202=AXIS2_PLACEMENT_3D('Circle Axis2P3D',#200,#201,$) ;
#209=AXIS2_PLACEMENT_3D('Circle Axis2P3D',#207,#208,$) ;
#229=AXIS2_PLACEMENT_3D('Cylinder Axis2P3D',#226,#227,#228) ;
#233=AXIS2_PLACEMENT_3D('Circle Axis2P3D',#231,#232,$) ;
#240=AXIS2_PLACEMENT_3D('Circle Axis2P3D',#238,#239,$) ;
#260=AXIS2_PLACEMENT_3D('Cylinder Axis2P3D',#257,#258,#259) ;
#264=AXIS2_PLACEMENT_3D('Circle Axis2P3D',#262,#263,$) ;
#271=AXIS2_PLACEMENT_3D('Circle Axis2P3D',#269,#270,$) ;
#291=AXIS2_PLACEMENT_3D('Cylinder Axis2P3D',#288,#289,#290) ;
#295=AXIS2_PLACEMENT_3D('Circle Axis2P3D',#293,#294,$) ;
#302=AXIS2_PLACEMENT_3D('Circle Axis2P3D',#300,#301,$) ;
#322=AXIS2_PLACEMENT_3D('Cylinder Axis2P3D',#319,#320,#321) ;
#326=AXIS2_PLACEMENT_3D('Circle Axis2P3D',#324,#325,$) ;
#331=AXIS2_PLACEMENT_3D('Circle Axis2P3D',#329,#330,$) ;
#344=AXIS2_PLACEMENT_3D('Plane Axis2P3D',#341,#342,#343) ;
#362=AXIS2_PLACEMENT_3D('Circle Axis2P3D',#360,#361,$) ;
#371=AXIS2_PLACEMENT_3D('Circle Axis2P3D',#369,#370,$) ;
#380=AXIS2_PLACEMENT_3D('Circle Axis2P3D',#378,#379,$) ;
#389=AXIS2_PLACEMENT_3D('Circle Axis2P3D',#387,#388,$) ;
#398=AXIS2_PLACEMENT_3D('Circle Axis2P3D',#396,#397,$) ;
#407=AXIS2_PLACEMENT_3D('Circle Axis2P3D',#405,#406,$) ;
#418=AXIS2_PLACEMENT_3D('Plane Axis2P3D',#415,#416,#417) ;
#436=AXIS2_PLACEMENT_3D('Circle Axis2P3D',#434,#435,$) ;
#445=AXIS2_PLACEMENT_3D('Circle Axis2P3D',#443,#444,$) ;
#454=AXIS2_PLACEMENT_3D('Circle Axis2P3D',#452,#453,$) ;
#463=AXIS2_PLACEMENT_3D('Circle Axis2P3D',#461,#462,$) ;
#472=AXIS2_PLACEMENT_3D('Circle Axis2P3D',#470,#471,$) ;
#481=AXIS2_PLACEMENT_3D('Circle Axis2P3D',#479,#480,$) ;
#492=AXIS2_PLACEMENT_3D('Cylinder Axis2P3D',#489,#490,#491) ;
#521=AXIS2_PLACEMENT_3D('Cylinder Axis2P3D',#518,#519,#520) ;
#550=AXIS2_PLACEMENT_3D('Cylinder Axis2P3D',#547,#548,#549) ;
#581=AXIS2_PLACEMENT_3D('Absolute Axis System',#578,#579,#580) ;
#17=CARTESIAN_POINT(' ',(0.,0.,0.)) ;
#31=CARTESIAN_POINT('Axis2P3D Location',(0.,-49.6538461538,0.5)) ;
#36=CARTESIAN_POINT('Line Origine',(-7.01589018476,-29.1680867545,0.5)) ;
#40=CARTESIAN_POINT('Vertex',(-7.01589018476,-29.1680867545,0.)) ;
#42=CARTESIAN_POINT('Vertex',(-7.01589018476,-29.1680867545,1.)) ;
#45=CARTESIAN_POINT('Axis2P3D Location',(0.,-49.6538461538,0.)) ;
#49=CARTESIAN_POINT('Vertex',(7.01589018476,-29.1680867545,0.)) ;
#52=CARTESIAN_POINT('Line Origine',(7.01589018476,-29.1680867545,0.5)) ;
#56=CARTESIAN_POINT('Vertex',(7.01589018476,-29.1680867545,1.)) ;
#59=CARTESIAN_POINT('Axis2P3D Location',(0.,-49.6538461538,1.)) ;
#71=CARTESIAN_POINT('Axis2P3D Location',(0.,0.,0.5)) ;
#76=CARTESIAN_POINT('Axis2P3D Location',(0.,0.,0.)) ;
#81=CARTESIAN_POINT('Axis2P3D Location',(0.,0.,1.)) ;
#93=CARTESIAN_POINT('Axis2P3D Location',(15.5186218955,-17.7231991599,0.5)) ;
#98=CARTESIAN_POINT('Axis2P3D Location',(15.5186218955,-17.7231991599,1.)) ;
#102=CARTESIAN_POINT('Vertex',(15.8174682717,-20.7085556913,1.)) ;
#104=CARTESIAN_POINT('Vertex',(18.5003961286,-18.0533845969,1.)) ;
#107=CARTESIAN_POINT('Line Origine',(18.5003961286,-18.0533845969,0.5)) ;
#111=CARTESIAN_POINT('Vertex',(18.5003961286,-18.0533845969,0.)) ;
#114=CARTESIAN_POINT('Axis2P3D Location',(15.5186218955,-17.7231991599,0.)) ;
#118=CARTESIAN_POINT('Vertex',(15.8174682717,-20.7085556913,0.)) ;
#121=CARTESIAN_POINT('Line Origine',(15.8174406691,-20.7082799529,0.5)) ;
#133=CARTESIAN_POINT('Axis2P3D Location',(-4.32378093443E-014,136.959150724,0.5)) ;
#138=CARTESIAN_POINT('Axis2P3D Location',(-4.32378093443E-014,136.959150724,1.)) ;
#142=CARTESIAN_POINT('Vertex',(-15.8174682646,-20.7085556208,1.)) ;
#145=CARTESIAN_POINT('Axis2P3D Location',(-4.32378093443E-014,136.959150724,0.)) ;
#149=CARTESIAN_POINT('Vertex',(-15.8174682646,-20.7085556208,0.)) ;
#152=CARTESIAN_POINT('Line Origine',(-15.8174682717,-20.7085556913,0.5)) ;
#164=CARTESIAN_POINT('Axis2P3D Location',(-15.5186218955,-17.7231991599,0.5)) ;
#169=CARTESIAN_POINT('Axis2P3D Location',(-15.5186218955,-17.7231991599,1.)) ;
#173=CARTESIAN_POINT('Vertex',(-18.5003923557,-18.0533841791,1.)) ;
#176=CARTESIAN_POINT('Axis2P3D Location',(-15.5186218955,-17.7231991599,0.)) ;
#180=CARTESIAN_POINT('Vertex',(-18.5003923557,-18.0533841791,0.)) ;
#183=CARTESIAN_POINT('Line Origine',(-18.5006714911,-18.053415089,0.5)) ;
#195=CARTESIAN_POINT('Axis2P3D Location',(144.100604909,2.88517054608E-014,0.5)) ;
#200=CARTESIAN_POINT('Axis2P3D Location',(144.100604909,2.88517054608E-014,1.)) ;
#204=CARTESIAN_POINT('Vertex',(-18.5003922274,18.0533841649,1.)) ;
#207=CARTESIAN_POINT('Axis2P3D Location',(144.100604909,2.88517054608E-014,0.)) ;
#211=CARTESIAN_POINT('Vertex',(-18.5003922274,18.0533841649,0.)) ;
#214=CARTESIAN_POINT('Line Origine',(-18.5003923557,18.0533841791,0.5)) ;
#226=CARTESIAN_POINT('Axis2P3D Location',(-15.5186218955,17.7231991599,0.5)) ;
#231=CARTESIAN_POINT('Axis2P3D Location',(-15.5186218955,17.7231991599,1.)) ;
#235=CARTESIAN_POINT('Vertex',(-15.8174605105,20.7084781601,1.)) ;
#238=CARTESIAN_POINT('Axis2P3D Location',(-15.5186218955,17.7231991599,0.)) ;
#242=CARTESIAN_POINT('Vertex',(-15.8174605105,20.7084781601,0.)) ;
#245=CARTESIAN_POINT('Line Origine',(-15.8174402782,20.7082760474,0.5)) ;
#257=CARTESIAN_POINT('Axis2P3D Location',(-2.67471873853E-014,-136.959150726,0.5)) ;
#262=CARTESIAN_POINT('Axis2P3D Location',(-2.67471873853E-014,-136.959150726,1.)) ;
#266=CARTESIAN_POINT('Vertex',(15.8174406691,20.7082799529,1.)) ;
#269=CARTESIAN_POINT('Axis2P3D Location',(-2.67471873853E-014,-136.959150726,0.)) ;
#273=CARTESIAN_POINT('Vertex',(15.8174406691,20.7082799529,0.)) ;
#276=CARTESIAN_POINT('Line Origine',(15.8174605105,20.7084781601,0.5)) ;
#288=CARTESIAN_POINT('Axis2P3D Location',(15.5186218955,17.7231991599,0.5)) ;
#293=CARTESIAN_POINT('Axis2P3D Location',(15.5186218955,17.7231991599,1.)) ;
#297=CARTESIAN_POINT('Vertex',(18.5003961286,18.0533845969,1.)) ;
#300=CARTESIAN_POINT('Axis2P3D Location',(15.5186218955,17.7231991599,0.)) ;
#304=CARTESIAN_POINT('Vertex',(18.5003961286,18.0533845969,0.)) ;
#307=CARTESIAN_POINT('Line Origine',(18.5003961286,18.0533845969,0.5)) ;
#319=CARTESIAN_POINT('Axis2P3D Location',(-144.100604909,2.71378995253E-014,0.5)) ;
#324=CARTESIAN_POINT('Axis2P3D Location',(-144.100604909,2.71378995253E-014,1.)) ;
#329=CARTESIAN_POINT('Axis2P3D Location',(-144.100604909,2.71378995253E-014,0.)) ;
#341=CARTESIAN_POINT('Axis2P3D Location',(0.,0.,0.)) ;
#360=CARTESIAN_POINT('Axis2P3D Location',(26.,0.,0.)) ;
#364=CARTESIAN_POINT('Vertex',(24.5,1.83697019872E-016,0.)) ;
#366=CARTESIAN_POINT('Vertex',(27.5,0.,0.)) ;
#369=CARTESIAN_POINT('Axis2P3D Location',(26.,0.,0.)) ;
#378=CARTESIAN_POINT('Axis2P3D Location',(1.53080849893E-015,26.,0.)) ;
#382=CARTESIAN_POINT('Vertex',(-7.70046604242E-017,24.5,0.)) ;
#384=CARTESIAN_POINT('Vertex',(1.62265700887E-015,27.5,0.)) ;
#387=CARTESIAN_POINT('Axis2P3D Location',(1.53080849893E-015,26.,0.)) ;
#396=CARTESIAN_POINT('Axis2P3D Location',(-26.,0.,0.)) ;
#400=CARTESIAN_POINT('Vertex',(-24.5,-3.67394039744E-016,0.)) ;
#402=CARTESIAN_POINT('Vertex',(-27.5,1.83697019872E-016,0.)) ;
#405=CARTESIAN_POINT('Axis2P3D Location',(-26.,0.,0.)) ;
#415=CARTESIAN_POINT('Axis2P3D Location',(0.,0.,1.)) ;
#434=CARTESIAN_POINT('Axis2P3D Location',(26.,0.,1.)) ;
#438=CARTESIAN_POINT('Vertex',(27.5,0.,1.)) ;
#440=CARTESIAN_POINT('Vertex',(24.5,1.83697019872E-016,1.)) ;
#443=CARTESIAN_POINT('Axis2P3D Location',(26.,0.,1.)) ;
#452=CARTESIAN_POINT('Axis2P3D Location',(1.53080849893E-015,26.,1.)) ;
#456=CARTESIAN_POINT('Vertex',(1.62265700887E-015,27.5,1.)) ;
#458=CARTESIAN_POINT('Vertex',(-1.40927228997E-015,24.5,1.)) ;
#461=CARTESIAN_POINT('Axis2P3D Location',(1.53080849893E-015,26.,1.)) ;
#470=CARTESIAN_POINT('Axis2P3D Location',(-26.,0.,1.)) ;
#474=CARTESIAN_POINT('Vertex',(-27.5,1.83697019872E-016,1.)) ;
#476=CARTESIAN_POINT('Vertex',(-24.5,-3.67394039744E-016,1.)) ;
#479=CARTESIAN_POINT('Axis2P3D Location',(-26.,0.,1.)) ;
#489=CARTESIAN_POINT('Axis2P3D Location',(-26.,0.,1.)) ;
#494=CARTESIAN_POINT('Line Origine',(-27.5,5.51091059616E-016,1.)) ;
#499=CARTESIAN_POINT('Line Origine',(-24.5,-3.67394039744E-016,1.)) ;
#518=CARTESIAN_POINT('Axis2P3D Location',(1.53080849893E-015,26.,1.)) ;
#523=CARTESIAN_POINT('Line Origine',(5.98685393727E-015,27.5,1.)) ;
#528=CARTESIAN_POINT('Line Origine',(-1.40927228997E-015,24.5,1.)) ;
#547=CARTESIAN_POINT('Axis2P3D Location',(26.,0.,1.)) ;
#552=CARTESIAN_POINT('Line Origine',(27.5,-3.67394039744E-016,1.)) ;
#557=CARTESIAN_POINT('Line Origine',(24.5,1.83697019872E-016,1.)) ;
#578=CARTESIAN_POINT('Axis2P3D Location',(0.,0.,0.)) ;
#32=DIRECTION('Axis2P3D Direction',(0.,0.,1.)) ;
#33=DIRECTION('Axis2P3D XDirection',(0.324002033399,0.946056384341,0.)) ;
#37=DIRECTION('Vector Direction',(0.,0.,1.)) ;
#46=DIRECTION('Axis2P3D Direction',(0.,0.,1.)) ;
#53=DIRECTION('Vector Direction',(0.,0.,1.)) ;
#60=DIRECTION('Axis2P3D Direction',(0.,0.,1.)) ;
#72=DIRECTION('Axis2P3D Direction',(0.,0.,1.)) ;
#73=DIRECTION('Axis2P3D XDirection',(0.233863006159,-0.972269558482,0.)) ;
#77=DIRECTION('Axis2P3D Direction',(0.,0.,1.)) ;
#82=DIRECTION('Axis2P3D Direction',(0.,0.,1.)) ;
#94=DIRECTION('Axis2P3D Direction',(0.,0.,1.)) ;
#95=DIRECTION('Axis2P3D XDirection',(0.0996062578955,-0.995026930986,0.)) ;
#99=DIRECTION('Axis2P3D Direction',(0.,0.,1.)) ;
#108=DIRECTION('Vector Direction',(0.,0.,1.)) ;
#115=DIRECTION('Axis2P3D Direction',(0.,0.,1.)) ;
#122=DIRECTION('Vector Direction',(0.,0.,1.)) ;
#134=DIRECTION('Axis2P3D Direction',(0.,0.,1.)) ;
#135=DIRECTION('Axis2P3D XDirection',(-0.0998204875929,-0.995005462426,-0.)) ;
#139=DIRECTION('Axis2P3D Direction',(0.,0.,1.)) ;
#146=DIRECTION('Axis2P3D Direction',(0.,0.,1.)) ;
#153=DIRECTION('Vector Direction',(0.,0.,1.)) ;
#165=DIRECTION('Axis2P3D Direction',(0.,0.,1.)) ;
#166=DIRECTION('Axis2P3D XDirection',(-0.993924744369,-0.110061812324,-0.)) ;
#170=DIRECTION('Axis2P3D Direction',(0.,0.,1.)) ;
#177=DIRECTION('Axis2P3D Direction',(0.,0.,1.)) ;
#184=DIRECTION('Vector Direction',(0.,0.,1.)) ;
#196=DIRECTION('Axis2P3D Direction',(0.,0.,1.)) ;
#197=DIRECTION('Axis2P3D XDirection',(-0.99389271668,0.110350658045,0.)) ;
#201=DIRECTION('Axis2P3D Direction',(0.,0.,1.)) ;
#208=DIRECTION('Axis2P3D Direction',(0.,0.,1.)) ;
#215=DIRECTION('Vector Direction',(0.,0.,1.)) ;
#227=DIRECTION('Axis2P3D Direction',(0.,0.,1.)) ;
#228=DIRECTION('Axis2P3D XDirection',(-0.0996062578955,0.995026930986,0.)) ;
#232=DIRECTION('Axis2P3D Direction',(0.,0.,1.)) ;
#239=DIRECTION('Axis2P3D Direction',(0.,0.,1.)) ;
#246=DIRECTION('Vector Direction',(0.,0.,1.)) ;
#258=DIRECTION('Axis2P3D Direction',(0.,0.,1.)) ;
#259=DIRECTION('Axis2P3D XDirection',(0.0998204876971,0.995005462415,0.)) ;
#263=DIRECTION('Axis2P3D Direction',(0.,0.,1.)) ;
#270=DIRECTION('Axis2P3D Direction',(0.,0.,1.)) ;
#277=DIRECTION('Vector Direction',(0.,0.,1.)) ;
#289=DIRECTION('Axis2P3D Direction',(0.,0.,1.)) ;
#290=DIRECTION('Axis2P3D XDirection',(0.993924744369,0.110061812324,0.)) ;
#294=DIRECTION('Axis2P3D Direction',(0.,0.,1.)) ;
#301=DIRECTION('Axis2P3D Direction',(0.,0.,1.)) ;
#308=DIRECTION('Vector Direction',(0.,0.,1.)) ;
#320=DIRECTION('Axis2P3D Direction',(0.,0.,1.)) ;
#321=DIRECTION('Axis2P3D XDirection',(0.99389271668,-0.110350658039,0.)) ;
#325=DIRECTION('Axis2P3D Direction',(0.,0.,1.)) ;
#330=DIRECTION('Axis2P3D Direction',(0.,0.,1.)) ;
#342=DIRECTION('Axis2P3D Direction',(0.,0.,1.)) ;
#343=DIRECTION('Axis2P3D XDirection',(1.,0.,0.)) ;
#361=DIRECTION('Axis2P3D Direction',(0.,0.,1.)) ;
#370=DIRECTION('Axis2P3D Direction',(0.,0.,1.)) ;
#379=DIRECTION('Axis2P3D Direction',(0.,0.,1.)) ;
#388=DIRECTION('Axis2P3D Direction',(0.,0.,1.)) ;
#397=DIRECTION('Axis2P3D Direction',(0.,0.,1.)) ;
#406=DIRECTION('Axis2P3D Direction',(0.,0.,1.)) ;
#416=DIRECTION('Axis2P3D Direction',(0.,0.,1.)) ;
#417=DIRECTION('Axis2P3D XDirection',(1.,0.,0.)) ;
#435=DIRECTION('Axis2P3D Direction',(0.,0.,1.)) ;
#444=DIRECTION('Axis2P3D Direction',(0.,0.,1.)) ;
#453=DIRECTION('Axis2P3D Direction',(0.,0.,1.)) ;
#462=DIRECTION('Axis2P3D Direction',(0.,0.,1.)) ;
#471=DIRECTION('Axis2P3D Direction',(0.,0.,1.)) ;
#480=DIRECTION('Axis2P3D Direction',(0.,0.,1.)) ;
#490=DIRECTION('Axis2P3D Direction',(0.,0.,1.)) ;
#491=DIRECTION('Axis2P3D XDirection',(-1.,1.22464679915E-016,0.)) ;
#495=DIRECTION('Vector Direction',(0.,0.,1.)) ;
#500=DIRECTION('Vector Direction',(0.,0.,1.)) ;
#519=DIRECTION('Axis2P3D Direction',(0.,0.,1.)) ;
#520=DIRECTION('Axis2P3D XDirection',(6.12323399574E-017,1.,0.)) ;
#524=DIRECTION('Vector Direction',(0.,0.,1.)) ;
#529=DIRECTION('Vector Direction',(0.,0.,1.)) ;
#548=DIRECTION('Axis2P3D Direction',(0.,0.,1.)) ;
#549=DIRECTION('Axis2P3D XDirection',(1.,0.,0.)) ;
#553=DIRECTION('Vector Direction',(0.,0.,1.)) ;
#558=DIRECTION('Vector Direction',(0.,0.,1.)) ;
#579=DIRECTION('Axis2P3D Direction',(0.,0.,1.)) ;
#580=DIRECTION('Axis2P3D XDirection',(1.,0.,0.)) ;
#8=PRODUCT_RELATED_PRODUCT_CATEGORY('part',$,(#5)) ;
#7=PRODUCT_CATEGORY('part','specification') ;
#29=STYLED_ITEM(' ',(#28),#21) ;
#586=STYLED_ITEM(' ',(#585),#581) ;
#28=PRESENTATION_STYLE_ASSIGNMENT((#27)) ;
#585=PRESENTATION_STYLE_ASSIGNMENT((#584)) ;
#584=CURVE_STYLE(' ',#582,POSITIVE_LENGTH_MEASURE(0.129999995232),#583) ;
#27=SURFACE_STYLE_USAGE(.BOTH.,#26) ;
#26=SURFACE_SIDE_STYLE(' ',(#25)) ;
#25=SURFACE_STYLE_FILL_AREA(#24) ;
#24=FILL_AREA_STYLE(' ',(#23)) ;
#23=FILL_AREA_STYLE_COLOUR(' ',#22) ;
#38=VECTOR('Line Direction',#37,1.) ;
#54=VECTOR('Line Direction',#53,1.) ;
#109=VECTOR('Line Direction',#108,1.) ;
#123=VECTOR('Line Direction',#122,1.) ;
#154=VECTOR('Line Direction',#153,1.) ;
#185=VECTOR('Line Direction',#184,1.) ;
#216=VECTOR('Line Direction',#215,1.) ;
#247=VECTOR('Line Direction',#246,1.) ;
#278=VECTOR('Line Direction',#277,1.) ;
#309=VECTOR('Line Direction',#308,1.) ;
#496=VECTOR('Line Direction',#495,1.) ;
#501=VECTOR('Line Direction',#500,1.) ;
#525=VECTOR('Line Direction',#524,1.) ;
#530=VECTOR('Line Direction',#529,1.) ;
#554=VECTOR('Line Direction',#553,1.) ;
#559=VECTOR('Line Direction',#558,1.) ;
#15=UNCERTAINTY_MEASURE_WITH_UNIT(LENGTH_MEASURE(0.005),#12,'distance_accuracy_value','CONFUSED CURVE UNCERTAINTY') ;
#577=SHAPE_REPRESENTATION_RELATIONSHIP(' ',' ',#19,#576) ;
#65=ORIENTED_EDGE('',*,*,#44,.F.) ;
#66=ORIENTED_EDGE('',*,*,#51,.T.) ;
#67=ORIENTED_EDGE('',*,*,#58,.T.) ;
#68=ORIENTED_EDGE('',*,*,#63,.F.) ;
#87=ORIENTED_EDGE('',*,*,#58,.F.) ;
#88=ORIENTED_EDGE('',*,*,#80,.T.) ;
#89=ORIENTED_EDGE('',*,*,#44,.T.) ;
#90=ORIENTED_EDGE('',*,*,#85,.F.) ;
#127=ORIENTED_EDGE('',*,*,#106,.T.) ;
#128=ORIENTED_EDGE('',*,*,#113,.F.) ;
#129=ORIENTED_EDGE('',*,*,#120,.F.) ;
#130=ORIENTED_EDGE('',*,*,#125,.T.) ;
#158=ORIENTED_EDGE('',*,*,#144,.T.) ;
#159=ORIENTED_EDGE('',*,*,#125,.F.) ;
#160=ORIENTED_EDGE('',*,*,#151,.F.) ;
#161=ORIENTED_EDGE('',*,*,#156,.T.) ;
#189=ORIENTED_EDGE('',*,*,#175,.T.) ;
#190=ORIENTED_EDGE('',*,*,#156,.F.) ;
#191=ORIENTED_EDGE('',*,*,#182,.F.) ;
#192=ORIENTED_EDGE('',*,*,#187,.T.) ;
#220=ORIENTED_EDGE('',*,*,#206,.T.) ;
#221=ORIENTED_EDGE('',*,*,#187,.F.) ;
#222=ORIENTED_EDGE('',*,*,#213,.F.) ;
#223=ORIENTED_EDGE('',*,*,#218,.T.) ;
#251=ORIENTED_EDGE('',*,*,#237,.T.) ;
#252=ORIENTED_EDGE('',*,*,#218,.F.) ;
#253=ORIENTED_EDGE('',*,*,#244,.F.) ;
#254=ORIENTED_EDGE('',*,*,#249,.T.) ;
#282=ORIENTED_EDGE('',*,*,#268,.T.) ;
#283=ORIENTED_EDGE('',*,*,#249,.F.) ;
#284=ORIENTED_EDGE('',*,*,#275,.F.) ;
#285=ORIENTED_EDGE('',*,*,#280,.T.) ;
#313=ORIENTED_EDGE('',*,*,#299,.T.) ;
#314=ORIENTED_EDGE('',*,*,#280,.F.) ;
#315=ORIENTED_EDGE('',*,*,#306,.F.) ;
#316=ORIENTED_EDGE('',*,*,#311,.T.) ;
#335=ORIENTED_EDGE('',*,*,#328,.T.) ;
#336=ORIENTED_EDGE('',*,*,#311,.F.) ;
#337=ORIENTED_EDGE('',*,*,#333,.F.) ;
#338=ORIENTED_EDGE('',*,*,#113,.T.) ;
#347=ORIENTED_EDGE('',*,*,#80,.F.) ;
#348=ORIENTED_EDGE('',*,*,#51,.F.) ;
#351=ORIENTED_EDGE('',*,*,#306,.T.) ;
#352=ORIENTED_EDGE('',*,*,#275,.T.) ;
#353=ORIENTED_EDGE('',*,*,#244,.T.) ;
#354=ORIENTED_EDGE('',*,*,#213,.T.) ;
#355=ORIENTED_EDGE('',*,*,#182,.T.) ;
#356=ORIENTED_EDGE('',*,*,#151,.T.) ;
#357=ORIENTED_EDGE('',*,*,#120,.T.) ;
#358=ORIENTED_EDGE('',*,*,#333,.T.) ;
#375=ORIENTED_EDGE('',*,*,#368,.T.) ;
#376=ORIENTED_EDGE('',*,*,#373,.T.) ;
#393=ORIENTED_EDGE('',*,*,#386,.T.) ;
#394=ORIENTED_EDGE('',*,*,#391,.T.) ;
#411=ORIENTED_EDGE('',*,*,#404,.T.) ;
#412=ORIENTED_EDGE('',*,*,#409,.T.) ;
#421=ORIENTED_EDGE('',*,*,#63,.T.) ;
#422=ORIENTED_EDGE('',*,*,#85,.T.) ;
#425=ORIENTED_EDGE('',*,*,#106,.F.) ;
#426=ORIENTED_EDGE('',*,*,#144,.F.) ;
#427=ORIENTED_EDGE('',*,*,#175,.F.) ;
#428=ORIENTED_EDGE('',*,*,#206,.F.) ;
#429=ORIENTED_EDGE('',*,*,#237,.F.) ;
#430=ORIENTED_EDGE('',*,*,#268,.F.) ;
#431=ORIENTED_EDGE('',*,*,#299,.F.) ;
#432=ORIENTED_EDGE('',*,*,#328,.F.) ;
#449=ORIENTED_EDGE('',*,*,#442,.F.) ;
#450=ORIENTED_EDGE('',*,*,#447,.F.) ;
#467=ORIENTED_EDGE('',*,*,#460,.F.) ;
#468=ORIENTED_EDGE('',*,*,#465,.F.) ;
#485=ORIENTED_EDGE('',*,*,#478,.F.) ;
#486=ORIENTED_EDGE('',*,*,#483,.F.) ;
#505=ORIENTED_EDGE('',*,*,#483,.T.) ;
#506=ORIENTED_EDGE('',*,*,#498,.F.) ;
#507=ORIENTED_EDGE('',*,*,#404,.F.) ;
#508=ORIENTED_EDGE('',*,*,#503,.T.) ;
#512=ORIENTED_EDGE('',*,*,#478,.T.) ;
#513=ORIENTED_EDGE('',*,*,#503,.F.) ;
#514=ORIENTED_EDGE('',*,*,#409,.F.) ;
#515=ORIENTED_EDGE('',*,*,#498,.T.) ;
#534=ORIENTED_EDGE('',*,*,#465,.T.) ;
#535=ORIENTED_EDGE('',*,*,#527,.F.) ;
#536=ORIENTED_EDGE('',*,*,#386,.F.) ;
#537=ORIENTED_EDGE('',*,*,#532,.T.) ;
#541=ORIENTED_EDGE('',*,*,#460,.T.) ;
#542=ORIENTED_EDGE('',*,*,#532,.F.) ;
#543=ORIENTED_EDGE('',*,*,#391,.F.) ;
#544=ORIENTED_EDGE('',*,*,#527,.T.) ;
#563=ORIENTED_EDGE('',*,*,#447,.T.) ;
#564=ORIENTED_EDGE('',*,*,#556,.F.) ;
#565=ORIENTED_EDGE('',*,*,#368,.F.) ;
#566=ORIENTED_EDGE('',*,*,#561,.T.) ;
#570=ORIENTED_EDGE('',*,*,#442,.T.) ;
#571=ORIENTED_EDGE('',*,*,#561,.F.) ;
#572=ORIENTED_EDGE('',*,*,#373,.F.) ;
#573=ORIENTED_EDGE('',*,*,#556,.T.) ;
#359=FACE_BOUND('',#350,.T.) ;
#377=FACE_BOUND('',#374,.T.) ;
#395=FACE_BOUND('',#392,.T.) ;
#413=FACE_BOUND('',#410,.T.) ;
#433=FACE_BOUND('',#424,.T.) ;
#451=FACE_BOUND('',#448,.T.) ;
#469=FACE_BOUND('',#466,.T.) ;
#487=FACE_BOUND('',#484,.T.) ;
#30=CLOSED_SHELL('Closed Shell',(#70,#92,#132,#163,#194,#225,#256,#287,#318,#340,#414,#488,#510,#517,#539,#546,#568,#575)) ;
#576=ADVANCED_BREP_SHAPE_REPRESENTATION('NONE',(#21),#16) ;
#70=ADVANCED_FACE('PartBody',(#69),#35,.F.) ;
#92=ADVANCED_FACE('PartBody',(#91),#75,.T.) ;
#132=ADVANCED_FACE('PartBody',(#131),#97,.F.) ;
#163=ADVANCED_FACE('PartBody',(#162),#137,.F.) ;
#194=ADVANCED_FACE('PartBody',(#193),#168,.F.) ;
#225=ADVANCED_FACE('PartBody',(#224),#199,.F.) ;
#256=ADVANCED_FACE('PartBody',(#255),#230,.F.) ;
#287=ADVANCED_FACE('PartBody',(#286),#261,.F.) ;
#318=ADVANCED_FACE('PartBody',(#317),#292,.F.) ;
#340=ADVANCED_FACE('PartBody',(#339),#323,.F.) ;
#414=ADVANCED_FACE('PartBody',(#349,#359,#377,#395,#413),#345,.F.) ;
#488=ADVANCED_FACE('PartBody',(#423,#433,#451,#469,#487),#419,.T.) ;
#510=ADVANCED_FACE('PartBody',(#509),#493,.F.) ;
#517=ADVANCED_FACE('PartBody',(#516),#493,.F.) ;
#539=ADVANCED_FACE('PartBody',(#538),#522,.F.) ;
#546=ADVANCED_FACE('PartBody',(#545),#522,.F.) ;
#568=ADVANCED_FACE('PartBody',(#567),#551,.F.) ;
#575=ADVANCED_FACE('PartBody',(#574),#551,.F.) ;
#4=APPLICATION_PROTOCOL_DEFINITION('international standard','automotive_design',2001,#1) ;
#21=MANIFOLD_SOLID_BREP('PartBody',#30) ;
#48=CIRCLE('generated circle',#47,21.6538461538) ;
#62=CIRCLE('generated circle',#61,21.6538461538) ;
#79=CIRCLE('generated circle',#78,30.) ;
#84=CIRCLE('generated circle',#83,30.) ;
#101=CIRCLE('generated circle',#100,3.) ;
#117=CIRCLE('generated circle',#116,3.) ;
#141=CIRCLE('generated circle',#140,158.459136527) ;
#148=CIRCLE('generated circle',#147,158.459136527) ;
#172=CIRCLE('generated circle',#171,3.00027704567) ;
#179=CIRCLE('generated circle',#178,3.00027704567) ;
#203=CIRCLE('generated circle',#202,163.600149731) ;
#210=CIRCLE('generated circle',#209,163.600149731) ;
#234=CIRCLE('generated circle',#233,2.99999607503) ;
#241=CIRCLE('generated circle',#240,2.99999607503) ;
#265=CIRCLE('generated circle',#264,158.45905861) ;
#272=CIRCLE('generated circle',#271,158.45905861) ;
#296=CIRCLE('generated circle',#295,3.) ;
#303=CIRCLE('generated circle',#302,3.) ;
#327=CIRCLE('generated circle',#326,163.600153527) ;
#332=CIRCLE('generated circle',#331,163.600153527) ;
#363=CIRCLE('generated circle',#362,1.5) ;
#372=CIRCLE('generated circle',#371,1.5) ;
#381=CIRCLE('generated circle',#380,1.5) ;
#390=CIRCLE('generated circle',#389,1.5) ;
#399=CIRCLE('generated circle',#398,1.5) ;
#408=CIRCLE('generated circle',#407,1.5) ;
#437=CIRCLE('generated circle',#436,1.5) ;
#446=CIRCLE('generated circle',#445,1.5) ;
#455=CIRCLE('generated circle',#454,1.5) ;
#464=CIRCLE('generated circle',#463,1.5) ;
#473=CIRCLE('generated circle',#472,1.5) ;
#482=CIRCLE('generated circle',#481,1.5) ;
#22=COLOUR_RGB('Colour',0.823529411765,0.823529411765,1.) ;
#587=CONSTRUCTIVE_GEOMETRY_REPRESENTATION('supplemental geometry',(#581),#16) ;
#588=CONSTRUCTIVE_GEOMETRY_REPRESENTATION_RELATIONSHIP('supplemental geometry','',#19,#587) ;
#35=CYLINDRICAL_SURFACE('generated cylinder',#34,21.6538461538) ;
#75=CYLINDRICAL_SURFACE('generated cylinder',#74,30.) ;
#97=CYLINDRICAL_SURFACE('generated cylinder',#96,3.) ;
#137=CYLINDRICAL_SURFACE('generated cylinder',#136,158.459136527) ;
#168=CYLINDRICAL_SURFACE('generated cylinder',#167,3.00027704567) ;
#199=CYLINDRICAL_SURFACE('generated cylinder',#198,163.600149731) ;
#230=CYLINDRICAL_SURFACE('generated cylinder',#229,2.99999607503) ;
#261=CYLINDRICAL_SURFACE('generated cylinder',#260,158.45905861) ;
#292=CYLINDRICAL_SURFACE('generated cylinder',#291,3.) ;
#323=CYLINDRICAL_SURFACE('generated cylinder',#322,163.600153527) ;
#493=CYLINDRICAL_SURFACE('generated cylinder',#492,1.5) ;
#522=CYLINDRICAL_SURFACE('generated cylinder',#521,1.5) ;
#551=CYLINDRICAL_SURFACE('generated cylinder',#550,1.5) ;
#583=DRAUGHTING_PRE_DEFINED_COLOUR('white') ;
#582=DRAUGHTING_PRE_DEFINED_CURVE_FONT('continuous') ;
#44=EDGE_CURVE('',#41,#43,#39,.T.) ;
#51=EDGE_CURVE('',#41,#50,#48,.F.) ;
#58=EDGE_CURVE('',#50,#57,#55,.T.) ;
#63=EDGE_CURVE('',#43,#57,#62,.F.) ;
#80=EDGE_CURVE('',#50,#41,#79,.T.) ;
#85=EDGE_CURVE('',#57,#43,#84,.T.) ;
#106=EDGE_CURVE('',#103,#105,#101,.T.) ;
#113=EDGE_CURVE('',#112,#105,#110,.T.) ;
#120=EDGE_CURVE('',#119,#112,#117,.T.) ;
#125=EDGE_CURVE('',#119,#103,#124,.T.) ;
#144=EDGE_CURVE('',#143,#103,#141,.T.) ;
#151=EDGE_CURVE('',#150,#119,#148,.T.) ;
#156=EDGE_CURVE('',#150,#143,#155,.T.) ;
#175=EDGE_CURVE('',#174,#143,#172,.T.) ;
#182=EDGE_CURVE('',#181,#150,#179,.T.) ;
#187=EDGE_CURVE('',#181,#174,#186,.T.) ;
#206=EDGE_CURVE('',#205,#174,#203,.T.) ;
#213=EDGE_CURVE('',#212,#181,#210,.T.) ;
#218=EDGE_CURVE('',#212,#205,#217,.T.) ;
#237=EDGE_CURVE('',#236,#205,#234,.T.) ;
#244=EDGE_CURVE('',#243,#212,#241,.T.) ;
#249=EDGE_CURVE('',#243,#236,#248,.T.) ;
#268=EDGE_CURVE('',#267,#236,#265,.T.) ;
#275=EDGE_CURVE('',#274,#243,#272,.T.) ;
#280=EDGE_CURVE('',#274,#267,#279,.T.) ;
#299=EDGE_CURVE('',#298,#267,#296,.T.) ;
#306=EDGE_CURVE('',#305,#274,#303,.T.) ;
#311=EDGE_CURVE('',#305,#298,#310,.T.) ;
#328=EDGE_CURVE('',#105,#298,#327,.T.) ;
#333=EDGE_CURVE('',#112,#305,#332,.T.) ;
#368=EDGE_CURVE('',#365,#367,#363,.T.) ;
#373=EDGE_CURVE('',#367,#365,#372,.T.) ;
#386=EDGE_CURVE('',#383,#385,#381,.T.) ;
#391=EDGE_CURVE('',#385,#383,#390,.T.) ;
#404=EDGE_CURVE('',#401,#403,#399,.T.) ;
#409=EDGE_CURVE('',#403,#401,#408,.T.) ;
#442=EDGE_CURVE('',#439,#441,#437,.T.) ;
#447=EDGE_CURVE('',#441,#439,#446,.T.) ;
#460=EDGE_CURVE('',#457,#459,#455,.T.) ;
#465=EDGE_CURVE('',#459,#457,#464,.T.) ;
#478=EDGE_CURVE('',#475,#477,#473,.T.) ;
#483=EDGE_CURVE('',#477,#475,#482,.T.) ;
#498=EDGE_CURVE('',#403,#475,#497,.T.) ;
#503=EDGE_CURVE('',#401,#477,#502,.T.) ;
#527=EDGE_CURVE('',#385,#457,#526,.T.) ;
#532=EDGE_CURVE('',#383,#459,#531,.T.) ;
#556=EDGE_CURVE('',#367,#439,#555,.T.) ;
#561=EDGE_CURVE('',#365,#441,#560,.T.) ;
#64=EDGE_LOOP('',(#65,#66,#67,#68)) ;
#86=EDGE_LOOP('',(#87,#88,#89,#90)) ;
#126=EDGE_LOOP('',(#127,#128,#129,#130)) ;
#157=EDGE_LOOP('',(#158,#159,#160,#161)) ;
#188=EDGE_LOOP('',(#189,#190,#191,#192)) ;
#219=EDGE_LOOP('',(#220,#221,#222,#223)) ;
#250=EDGE_LOOP('',(#251,#252,#253,#254)) ;
#281=EDGE_LOOP('',(#282,#283,#284,#285)) ;
#312=EDGE_LOOP('',(#313,#314,#315,#316)) ;
#334=EDGE_LOOP('',(#335,#336,#337,#338)) ;
#346=EDGE_LOOP('',(#347,#348)) ;
#350=EDGE_LOOP('',(#351,#352,#353,#354,#355,#356,#357,#358)) ;
#374=EDGE_LOOP('',(#375,#376)) ;
#392=EDGE_LOOP('',(#393,#394)) ;
#410=EDGE_LOOP('',(#411,#412)) ;
#420=EDGE_LOOP('',(#421,#422)) ;
#424=EDGE_LOOP('',(#425,#426,#427,#428,#429,#430,#431,#432)) ;
#448=EDGE_LOOP('',(#449,#450)) ;
#466=EDGE_LOOP('',(#467,#468)) ;
#484=EDGE_LOOP('',(#485,#486)) ;
#504=EDGE_LOOP('',(#505,#506,#507,#508)) ;
#511=EDGE_LOOP('',(#512,#513,#514,#515)) ;
#533=EDGE_LOOP('',(#534,#535,#536,#537)) ;
#540=EDGE_LOOP('',(#541,#542,#543,#544)) ;
#562=EDGE_LOOP('',(#563,#564,#565,#566)) ;
#569=EDGE_LOOP('',(#570,#571,#572,#573)) ;
#69=FACE_OUTER_BOUND('',#64,.T.) ;
#91=FACE_OUTER_BOUND('',#86,.T.) ;
#131=FACE_OUTER_BOUND('',#126,.T.) ;
#162=FACE_OUTER_BOUND('',#157,.T.) ;
#193=FACE_OUTER_BOUND('',#188,.T.) ;
#224=FACE_OUTER_BOUND('',#219,.T.) ;
#255=FACE_OUTER_BOUND('',#250,.T.) ;
#286=FACE_OUTER_BOUND('',#281,.T.) ;
#317=FACE_OUTER_BOUND('',#312,.T.) ;
#339=FACE_OUTER_BOUND('',#334,.T.) ;
#349=FACE_OUTER_BOUND('',#346,.T.) ;
#423=FACE_OUTER_BOUND('',#420,.T.) ;
#509=FACE_OUTER_BOUND('',#504,.T.) ;
#516=FACE_OUTER_BOUND('',#511,.T.) ;
#538=FACE_OUTER_BOUND('',#533,.T.) ;
#545=FACE_OUTER_BOUND('',#540,.T.) ;
#567=FACE_OUTER_BOUND('',#562,.T.) ;
#574=FACE_OUTER_BOUND('',#569,.T.) ;
#39=LINE('Line',#36,#38) ;
#55=LINE('Line',#52,#54) ;
#110=LINE('Line',#107,#109) ;
#124=LINE('Line',#121,#123) ;
#155=LINE('Line',#152,#154) ;
#186=LINE('Line',#183,#185) ;
#217=LINE('Line',#214,#216) ;
#248=LINE('Line',#245,#247) ;
#279=LINE('Line',#276,#278) ;
#310=LINE('Line',#307,#309) ;
#497=LINE('Line',#494,#496) ;
#502=LINE('Line',#499,#501) ;
#526=LINE('Line',#523,#525) ;
#531=LINE('Line',#528,#530) ;
#555=LINE('Line',#552,#554) ;
#560=LINE('Line',#557,#559) ;
#345=PLANE('',#344) ;
#419=PLANE('',#418) ;
#9=PRODUCT_CATEGORY_RELATIONSHIP(' ',' ',#7,#8) ;
#6=PRODUCT_DEFINITION_FORMATION_WITH_SPECIFIED_SOURCE('',' ',#5,.NOT_KNOWN.) ;
#20=SHAPE_DEFINITION_REPRESENTATION(#11,#19) ;
#41=VERTEX_POINT('',#40) ;
#43=VERTEX_POINT('',#42) ;
#50=VERTEX_POINT('',#49) ;
#57=VERTEX_POINT('',#56) ;
#103=VERTEX_POINT('',#102) ;
#105=VERTEX_POINT('',#104) ;
#112=VERTEX_POINT('',#111) ;
#119=VERTEX_POINT('',#118) ;
#143=VERTEX_POINT('',#142) ;
#150=VERTEX_POINT('',#149) ;
#174=VERTEX_POINT('',#173) ;
#181=VERTEX_POINT('',#180) ;
#205=VERTEX_POINT('',#204) ;
#212=VERTEX_POINT('',#211) ;
#236=VERTEX_POINT('',#235) ;
#243=VERTEX_POINT('',#242) ;
#267=VERTEX_POINT('',#266) ;
#274=VERTEX_POINT('',#273) ;
#298=VERTEX_POINT('',#297) ;
#305=VERTEX_POINT('',#304) ;
#365=VERTEX_POINT('',#364) ;
#367=VERTEX_POINT('',#366) ;
#383=VERTEX_POINT('',#382) ;
#385=VERTEX_POINT('',#384) ;
#401=VERTEX_POINT('',#400) ;
#403=VERTEX_POINT('',#402) ;
#439=VERTEX_POINT('',#438) ;
#441=VERTEX_POINT('',#440) ;
#457=VERTEX_POINT('',#456) ;
#459=VERTEX_POINT('',#458) ;
#475=VERTEX_POINT('',#474) ;
#477=VERTEX_POINT('',#476) ;
#12=(LENGTH_UNIT()NAMED_UNIT(*)SI_UNIT(.MILLI.,.METRE.)) ;
#13=(NAMED_UNIT(*)PLANE_ANGLE_UNIT()SI_UNIT($,.RADIAN.)) ;
#14=(NAMED_UNIT(*)SI_UNIT($,.STERADIAN.)SOLID_ANGLE_UNIT()) ;
#16=(GEOMETRIC_REPRESENTATION_CONTEXT(3)GLOBAL_UNCERTAINTY_ASSIGNED_CONTEXT((#15))GLOBAL_UNIT_ASSIGNED_CONTEXT((#12,#13,#14))REPRESENTATION_CONTEXT(' ',' ')) ;
ENDSEC;
END-ISO-10303-21;
