ISO-10303-21;
HEADER;
/* Generated by software containing ST-Developer
 * from STEP Tools, Inc. (www.steptools.com) 
 */

FILE_DESCRIPTION(
/* description */ (''),
/* implementation_level */ '2;1');

FILE_NAME(
/* name */ '/Users/Thierry/Documents/ _TR/_Huja/Lardon V4 v1.step',
/* time_stamp */ '2021-01-20T12:54:38+01:00',
/* author */ (''),
/* organization */ (''),
/* preprocessor_version */ 'ST-DEVELOPER v18.1',
/* originating_system */ 'Autodesk Translation Framework v9.7.0.1280',
/* authorisation */ '');

FILE_SCHEMA (('AUTOMOTIVE_DESIGN { 1 0 10303 214 3 1 1 }'));
ENDSEC;

DATA;
#10=MECHANICAL_DESIGN_GEOMETRIC_PRESENTATION_REPRESENTATION('',(#13),#249);
#11=SHAPE_REPRESENTATION_RELATIONSHIP('SRR','None',#256,#12);
#12=ADVANCED_BREP_SHAPE_REPRESENTATION('',(#14),#248);
#13=STYLED_ITEM('',(#265),#14);
#14=MANIFOLD_SOLID_BREP('Corps1',#149);
#15=FACE_OUTER_BOUND('',#23,.T.);
#16=FACE_OUTER_BOUND('',#24,.T.);
#17=FACE_OUTER_BOUND('',#25,.T.);
#18=FACE_OUTER_BOUND('',#26,.T.);
#19=FACE_OUTER_BOUND('',#27,.T.);
#20=FACE_OUTER_BOUND('',#28,.T.);
#21=FACE_OUTER_BOUND('',#29,.T.);
#22=FACE_OUTER_BOUND('',#30,.T.);
#23=EDGE_LOOP('',(#97,#98,#99,#100));
#24=EDGE_LOOP('',(#101,#102,#103,#104));
#25=EDGE_LOOP('',(#105,#106,#107,#108,#109,#110));
#26=EDGE_LOOP('',(#111,#112,#113,#114));
#27=EDGE_LOOP('',(#115,#116,#117,#118));
#28=EDGE_LOOP('',(#119,#120,#121,#122));
#29=EDGE_LOOP('',(#123,#124,#125,#126,#127,#128));
#30=EDGE_LOOP('',(#129,#130,#131,#132));
#31=LINE('',#211,#49);
#32=LINE('',#213,#50);
#33=LINE('',#215,#51);
#34=LINE('',#216,#52);
#35=LINE('',#220,#53);
#36=LINE('',#222,#54);
#37=LINE('',#224,#55);
#38=LINE('',#225,#56);
#39=LINE('',#227,#57);
#40=LINE('',#229,#58);
#41=LINE('',#231,#59);
#42=LINE('',#232,#60);
#43=LINE('',#234,#61);
#44=LINE('',#237,#62);
#45=LINE('',#238,#63);
#46=LINE('',#241,#64);
#47=LINE('',#242,#65);
#48=LINE('',#244,#66);
#49=VECTOR('',#175,10.);
#50=VECTOR('',#176,10.);
#51=VECTOR('',#177,10.);
#52=VECTOR('',#178,10.);
#53=VECTOR('',#181,10.);
#54=VECTOR('',#182,10.);
#55=VECTOR('',#183,10.);
#56=VECTOR('',#184,10.);
#57=VECTOR('',#187,10.);
#58=VECTOR('',#188,10.);
#59=VECTOR('',#189,10.);
#60=VECTOR('',#190,10.);
#61=VECTOR('',#193,10.);
#62=VECTOR('',#196,10.);
#63=VECTOR('',#197,10.);
#64=VECTOR('',#200,10.);
#65=VECTOR('',#201,10.);
#66=VECTOR('',#204,10.);
#67=VERTEX_POINT('',#209);
#68=VERTEX_POINT('',#210);
#69=VERTEX_POINT('',#212);
#70=VERTEX_POINT('',#214);
#71=VERTEX_POINT('',#218);
#72=VERTEX_POINT('',#219);
#73=VERTEX_POINT('',#221);
#74=VERTEX_POINT('',#223);
#75=VERTEX_POINT('',#228);
#76=VERTEX_POINT('',#230);
#77=VERTEX_POINT('',#236);
#78=VERTEX_POINT('',#240);
#79=EDGE_CURVE('',#67,#68,#31,.T.);
#80=EDGE_CURVE('',#68,#69,#32,.T.);
#81=EDGE_CURVE('',#69,#70,#33,.T.);
#82=EDGE_CURVE('',#70,#67,#34,.T.);
#83=EDGE_CURVE('',#71,#72,#35,.T.);
#84=EDGE_CURVE('',#73,#71,#36,.T.);
#85=EDGE_CURVE('',#74,#73,#37,.T.);
#86=EDGE_CURVE('',#72,#74,#38,.T.);
#87=EDGE_CURVE('',#68,#71,#39,.T.);
#88=EDGE_CURVE('',#75,#67,#40,.T.);
#89=EDGE_CURVE('',#75,#76,#41,.T.);
#90=EDGE_CURVE('',#76,#73,#42,.T.);
#91=EDGE_CURVE('',#72,#69,#43,.T.);
#92=EDGE_CURVE('',#70,#77,#44,.T.);
#93=EDGE_CURVE('',#75,#77,#45,.T.);
#94=EDGE_CURVE('',#78,#77,#46,.T.);
#95=EDGE_CURVE('',#76,#78,#47,.T.);
#96=EDGE_CURVE('',#78,#74,#48,.T.);
#97=ORIENTED_EDGE('',*,*,#79,.T.);
#98=ORIENTED_EDGE('',*,*,#80,.T.);
#99=ORIENTED_EDGE('',*,*,#81,.T.);
#100=ORIENTED_EDGE('',*,*,#82,.T.);
#101=ORIENTED_EDGE('',*,*,#83,.F.);
#102=ORIENTED_EDGE('',*,*,#84,.F.);
#103=ORIENTED_EDGE('',*,*,#85,.F.);
#104=ORIENTED_EDGE('',*,*,#86,.F.);
#105=ORIENTED_EDGE('',*,*,#84,.T.);
#106=ORIENTED_EDGE('',*,*,#87,.F.);
#107=ORIENTED_EDGE('',*,*,#79,.F.);
#108=ORIENTED_EDGE('',*,*,#88,.F.);
#109=ORIENTED_EDGE('',*,*,#89,.T.);
#110=ORIENTED_EDGE('',*,*,#90,.T.);
#111=ORIENTED_EDGE('',*,*,#83,.T.);
#112=ORIENTED_EDGE('',*,*,#91,.T.);
#113=ORIENTED_EDGE('',*,*,#80,.F.);
#114=ORIENTED_EDGE('',*,*,#87,.T.);
#115=ORIENTED_EDGE('',*,*,#92,.T.);
#116=ORIENTED_EDGE('',*,*,#93,.F.);
#117=ORIENTED_EDGE('',*,*,#88,.T.);
#118=ORIENTED_EDGE('',*,*,#82,.F.);
#119=ORIENTED_EDGE('',*,*,#93,.T.);
#120=ORIENTED_EDGE('',*,*,#94,.F.);
#121=ORIENTED_EDGE('',*,*,#95,.F.);
#122=ORIENTED_EDGE('',*,*,#89,.F.);
#123=ORIENTED_EDGE('',*,*,#86,.T.);
#124=ORIENTED_EDGE('',*,*,#96,.F.);
#125=ORIENTED_EDGE('',*,*,#94,.T.);
#126=ORIENTED_EDGE('',*,*,#92,.F.);
#127=ORIENTED_EDGE('',*,*,#81,.F.);
#128=ORIENTED_EDGE('',*,*,#91,.F.);
#129=ORIENTED_EDGE('',*,*,#85,.T.);
#130=ORIENTED_EDGE('',*,*,#90,.F.);
#131=ORIENTED_EDGE('',*,*,#95,.T.);
#132=ORIENTED_EDGE('',*,*,#96,.T.);
#133=PLANE('',#163);
#134=PLANE('',#164);
#135=PLANE('',#165);
#136=PLANE('',#166);
#137=PLANE('',#167);
#138=PLANE('',#168);
#139=PLANE('',#169);
#140=PLANE('',#170);
#141=ADVANCED_FACE('',(#15),#133,.T.);
#142=ADVANCED_FACE('',(#16),#134,.F.);
#143=ADVANCED_FACE('',(#17),#135,.F.);
#144=ADVANCED_FACE('',(#18),#136,.F.);
#145=ADVANCED_FACE('',(#19),#137,.T.);
#146=ADVANCED_FACE('',(#20),#138,.T.);
#147=ADVANCED_FACE('',(#21),#139,.F.);
#148=ADVANCED_FACE('',(#22),#140,.F.);
#149=CLOSED_SHELL('',(#141,#142,#143,#144,#145,#146,#147,#148));
#150=DERIVED_UNIT_ELEMENT(#152,1.);
#151=DERIVED_UNIT_ELEMENT(#251,-3.);
#152=(
MASS_UNIT()
NAMED_UNIT(*)
SI_UNIT(.KILO.,.GRAM.)
);
#153=DERIVED_UNIT((#150,#151));
#154=MEASURE_REPRESENTATION_ITEM('density measure',
POSITIVE_RATIO_MEASURE(7850.),#153);
#155=PROPERTY_DEFINITION_REPRESENTATION(#160,#157);
#156=PROPERTY_DEFINITION_REPRESENTATION(#161,#158);
#157=REPRESENTATION('material name',(#159),#248);
#158=REPRESENTATION('density',(#154),#248);
#159=DESCRIPTIVE_REPRESENTATION_ITEM('Acier','Acier');
#160=PROPERTY_DEFINITION('material property','material name',#258);
#161=PROPERTY_DEFINITION('material property','density of part',#258);
#162=AXIS2_PLACEMENT_3D('placement',#207,#171,#172);
#163=AXIS2_PLACEMENT_3D('',#208,#173,#174);
#164=AXIS2_PLACEMENT_3D('',#217,#179,#180);
#165=AXIS2_PLACEMENT_3D('',#226,#185,#186);
#166=AXIS2_PLACEMENT_3D('',#233,#191,#192);
#167=AXIS2_PLACEMENT_3D('',#235,#194,#195);
#168=AXIS2_PLACEMENT_3D('',#239,#198,#199);
#169=AXIS2_PLACEMENT_3D('',#243,#202,#203);
#170=AXIS2_PLACEMENT_3D('',#245,#205,#206);
#171=DIRECTION('axis',(0.,0.,1.));
#172=DIRECTION('refdir',(1.,0.,0.));
#173=DIRECTION('center_axis',(0.,0.,-1.));
#174=DIRECTION('ref_axis',(-1.,0.,0.));
#175=DIRECTION('',(0.,1.,0.));
#176=DIRECTION('',(1.,0.,0.));
#177=DIRECTION('',(0.,-1.,0.));
#178=DIRECTION('',(-1.,0.,0.));
#179=DIRECTION('center_axis',(0.,0.,-1.));
#180=DIRECTION('ref_axis',(-1.,0.,0.));
#181=DIRECTION('',(1.,0.,0.));
#182=DIRECTION('',(0.,1.,0.));
#183=DIRECTION('',(-1.,0.,0.));
#184=DIRECTION('',(0.,-1.,0.));
#185=DIRECTION('center_axis',(1.,0.,0.));
#186=DIRECTION('ref_axis',(0.,0.,-1.));
#187=DIRECTION('',(0.,0.,1.));
#188=DIRECTION('',(0.,0.,-1.));
#189=DIRECTION('',(0.,-1.,0.));
#190=DIRECTION('',(0.,0.,1.));
#191=DIRECTION('center_axis',(0.,-1.,0.));
#192=DIRECTION('ref_axis',(0.,0.,1.));
#193=DIRECTION('',(0.,0.,-1.));
#194=DIRECTION('center_axis',(0.,-1.,0.));
#195=DIRECTION('ref_axis',(0.,0.,-1.));
#196=DIRECTION('',(0.,0.,1.));
#197=DIRECTION('',(1.,0.,0.));
#198=DIRECTION('center_axis',(0.,0.,-1.));
#199=DIRECTION('ref_axis',(0.,-1.,0.));
#200=DIRECTION('',(0.,1.,0.));
#201=DIRECTION('',(1.,0.,0.));
#202=DIRECTION('center_axis',(-1.,0.,0.));
#203=DIRECTION('ref_axis',(0.,0.,1.));
#204=DIRECTION('',(0.,0.,1.));
#205=DIRECTION('center_axis',(0.,1.,0.));
#206=DIRECTION('ref_axis',(0.,0.,-1.));
#207=CARTESIAN_POINT('',(0.,0.,0.));
#208=CARTESIAN_POINT('Origin',(12.75,7.15,1.27));
#209=CARTESIAN_POINT('',(0.,0.149999999999999,1.27));
#210=CARTESIAN_POINT('',(0.,14.3,1.27));
#211=CARTESIAN_POINT('',(0.,7.15,1.27));
#212=CARTESIAN_POINT('',(25.5,14.3,1.27));
#213=CARTESIAN_POINT('',(12.75,14.3,1.27));
#214=CARTESIAN_POINT('',(25.5,0.149999999999999,1.27));
#215=CARTESIAN_POINT('',(25.5,7.15,1.27));
#216=CARTESIAN_POINT('',(12.75,0.15,1.27));
#217=CARTESIAN_POINT('Origin',(12.75,7.15,7.62));
#218=CARTESIAN_POINT('',(0.,14.3,7.62));
#219=CARTESIAN_POINT('',(25.5,14.3,7.62));
#220=CARTESIAN_POINT('',(12.75,14.3,7.62));
#221=CARTESIAN_POINT('',(0.,0.,7.62));
#222=CARTESIAN_POINT('',(0.,7.15,7.62));
#223=CARTESIAN_POINT('',(25.5,0.,7.62));
#224=CARTESIAN_POINT('',(12.75,0.,7.62));
#225=CARTESIAN_POINT('',(25.5,7.15,7.62));
#226=CARTESIAN_POINT('Origin',(0.,7.15,3.175));
#227=CARTESIAN_POINT('',(0.,14.3,6.35));
#228=CARTESIAN_POINT('',(0.,0.15,3.6201416585));
#229=CARTESIAN_POINT('',(0.,0.15,2.492535414625));
#230=CARTESIAN_POINT('',(0.,0.,3.6201416585));
#231=CARTESIAN_POINT('',(0.,3.8625,3.6201416585));
#232=CARTESIAN_POINT('',(0.,0.,6.35));
#233=CARTESIAN_POINT('Origin',(12.75,14.3,3.175));
#234=CARTESIAN_POINT('',(25.5,14.3,2.));
#235=CARTESIAN_POINT('Origin',(12.75,0.15,1.81007082925));
#236=CARTESIAN_POINT('',(25.5,0.15,3.6201416585));
#237=CARTESIAN_POINT('',(25.5,0.15,2.492535414625));
#238=CARTESIAN_POINT('',(12.75,0.15,3.6201416585));
#239=CARTESIAN_POINT('Origin',(12.75,0.575,3.6201416585));
#240=CARTESIAN_POINT('',(25.5,0.,3.6201416585));
#241=CARTESIAN_POINT('',(25.5,3.8625,3.6201416585));
#242=CARTESIAN_POINT('',(12.75,0.,3.6201416585));
#243=CARTESIAN_POINT('Origin',(25.5,7.15,3.175));
#244=CARTESIAN_POINT('',(25.5,0.,6.35));
#245=CARTESIAN_POINT('Origin',(12.75,0.,3.175));
#246=UNCERTAINTY_MEASURE_WITH_UNIT(LENGTH_MEASURE(0.01),#250,
'DISTANCE_ACCURACY_VALUE',
'Maximum model space distance between geometric entities at asserted c
onnectivities');
#247=UNCERTAINTY_MEASURE_WITH_UNIT(LENGTH_MEASURE(0.01),#250,
'DISTANCE_ACCURACY_VALUE',
'Maximum model space distance between geometric entities at asserted c
onnectivities');
#248=(
GEOMETRIC_REPRESENTATION_CONTEXT(3)
GLOBAL_UNCERTAINTY_ASSIGNED_CONTEXT((#246))
GLOBAL_UNIT_ASSIGNED_CONTEXT((#250,#252,#253))
REPRESENTATION_CONTEXT('','3D')
);
#249=(
GEOMETRIC_REPRESENTATION_CONTEXT(3)
GLOBAL_UNCERTAINTY_ASSIGNED_CONTEXT((#247))
GLOBAL_UNIT_ASSIGNED_CONTEXT((#250,#252,#253))
REPRESENTATION_CONTEXT('','3D')
);
#250=(
LENGTH_UNIT()
NAMED_UNIT(*)
SI_UNIT(.MILLI.,.METRE.)
);
#251=(
LENGTH_UNIT()
NAMED_UNIT(*)
SI_UNIT($,.METRE.)
);
#252=(
NAMED_UNIT(*)
PLANE_ANGLE_UNIT()
SI_UNIT($,.RADIAN.)
);
#253=(
NAMED_UNIT(*)
SI_UNIT($,.STERADIAN.)
SOLID_ANGLE_UNIT()
);
#254=SHAPE_DEFINITION_REPRESENTATION(#255,#256);
#255=PRODUCT_DEFINITION_SHAPE('',$,#258);
#256=SHAPE_REPRESENTATION('',(#162),#248);
#257=PRODUCT_DEFINITION_CONTEXT('part definition',#262,'design');
#258=PRODUCT_DEFINITION('Lardon V4','Lardon V4 v1',#259,#257);
#259=PRODUCT_DEFINITION_FORMATION('',$,#264);
#260=PRODUCT_RELATED_PRODUCT_CATEGORY('Lardon V4 v1','Lardon V4 v1',(#264));
#261=APPLICATION_PROTOCOL_DEFINITION('international standard',
'automotive_design',2009,#262);
#262=APPLICATION_CONTEXT(
'Core Data for Automotive Mechanical Design Process');
#263=PRODUCT_CONTEXT('part definition',#262,'mechanical');
#264=PRODUCT('Lardon V4','Lardon V4 v1',$,(#263));
#265=PRESENTATION_STYLE_ASSIGNMENT((#266));
#266=SURFACE_STYLE_USAGE(.BOTH.,#267);
#267=SURFACE_SIDE_STYLE('',(#268));
#268=SURFACE_STYLE_FILL_AREA(#269);
#269=FILL_AREA_STYLE('Acier - Satin\X\E9',(#270));
#270=FILL_AREA_STYLE_COLOUR('Acier - Satin\X\E9',#271);
#271=COLOUR_RGB('Acier - Satin\X\E9',0.627450980392157,0.627450980392157,
0.627450980392157);
ENDSEC;
END-ISO-10303-21;
