  0
SECTION
  2
HEADER
  9
$ACADVER
  1
AC1009
  9
$INSBASE
 10
0.0
 20
0.0
 30
0.0
  9
$EXTMIN
 10
0.0
 20
0.0
 30
0.0
  9
$EXTMAX
 10
0.0
 20
0.0
 30
0.0
  0
ENDSEC
  0
SECTION
  2
TABLES
  0
TABLE
  2
VPORT
 70
1
  0
VPORT
  2
*ACTIVE
 70
0
 10
0.0
 20
0.0
 11
1.0
 21
1.0
 12
-5.0
 22
1.0
 13
0.0
 23
0.0
 14
0.1
 24
0.1
 15
0.1
 25
0.1
 16
0.0
 26
0.0
 36
1.0
 17
0.0
 27
0.0
 37
0.0
 40
10.0
 41
1.0
 42
50.0
 43
0.0
 44
0.0
 50
0.0
 51
0.0
 71
0
 72
100
 73
1
 74
1
 75
0
 76
0
 77
0
 78
0
  0
ENDTAB
  0
TABLE
  2
LTYPE
 70
8
  0
LTYPE
  2
CONTINUOUS
 70
0
  3
Solid line
 72
65
 73
0
 40
0.0
  0
LTYPE
  2
DOT
 70
0
  3
. . . . . . .
 72
65
 73
2
 40
0.25
 49
0.0
 49
-0.25
  0
LTYPE
  2
DASHED
 70
0
  3
__ __ __ __ __
 72
65
 73
2
 40
0.8
 49
0.5
 49
-0.3
  0
LTYPE
  2
DASHDOT
 70
0
  3
__ . __ . __ .
 72
65
 73
4
 40
1.0
 49
0.5
 49
-0.25
 49
0.0
 49
-0.25
  0
LTYPE
  2
DIVIDE
 70
0
  3
____ . . ____ . . 
 72
65
 73
6
 40
1.25
 49
0.5
 49
-0.25
 49
0.0
 49
-0.25
 49
0.0
 49
-0.25
  0
LTYPE
  2
BORDER
 70
0
  3
__ __ . __ __ . 
 72
65
 73
6
 40
1.75
 49
0.5
 49
-0.25
 49
0.5
 49
-0.25
 49
0.0
 49
-0.25
  0
LTYPE
  2
HIDDEN
 70
0
  3
__ __ __ __ __
 72
65
 73
2
 40
0.4
 49
0.25
 49
-0.25
  0
LTYPE
  2
CENTER
 70
0
  3
____ _ ____ _ __
 72
65
 73
4
 40
2.0
 49
1.25
 49
-0.25
 49
0.25
 49
-0.25
  0
ENDTAB
  0
TABLE
  2
LAYER
 70
1
  0
LAYER
  2
PYDXF
 70
64
 62
7
  6
continuous
  0
ENDTAB
  0
TABLE
  2
STYLE
 70
1
  0
STYLE
  2
STANDARD
 70
0
 40
0
 41
1.0
 50
0.0
 71
0
 42
1
 3
ARIAL.TTF
 4

  0
ENDTAB
  0
TABLE
  2
VIEW
 70
1
  0
VIEW
  2
BF_TOPVIEW
 70
0
 40
120.0
 10
0.0
 20
0.0
 41
200.0
 11
0.0
 21
0.0
 31
1.0
 12
0.0
 22
0.0
 32
0.0
 42
50.0
 43
0.0
 44
0.0
 50
0.0
 71
0
  0
ENDTAB
  0
ENDSEC
  0
SECTION
  2
BLOCKS
  0
ENDSEC
  0
SECTION
  2
ENTITIES
  0
LINE
  8
0
 10
0.0
 20
25.0
 30
0.0
 11
-0.2181633859872818
 21
24.999048233032227
 31
0.0
  0
LINE
  8
0
 10
-0.2181633859872818
 20
24.999048233032227
 30
0.0
 11
-0.43631014227867126
 21
24.996192932128906
 31
0.0
  0
LINE
  8
0
 10
-0.43631014227867126
 20
24.996192932128906
 30
0.0
 11
-0.6544237732887268
 21
24.99143409729004
 31
0.0
  0
LINE
  8
0
 10
-0.6544237732887268
 20
24.99143409729004
 30
0.0
 11
-0.8724873661994934
 21
24.984771728515625
 31
0.0
  0
LINE
  8
0
 10
-0.8724873661994934
 20
24.984771728515625
 30
0.0
 11
-1.090484619140625
 21
24.976205825805664
 31
0.0
  0
LINE
  8
0
 10
-1.090484619140625
 20
24.976205825805664
 30
0.0
 11
-1.3083988428115845
 21
24.96573829650879
 31
0.0
  0
LINE
  8
0
 10
-1.3083988428115845
 20
24.96573829650879
 30
0.0
 11
-1.5262134075164795
 21
24.953369140625
 31
0.0
  0
LINE
  8
0
 10
-1.5262134075164795
 20
24.953369140625
 30
0.0
 11
-1.7439117431640625
 21
24.939102172851562
 31
0.0
  0
LINE
  8
0
 10
-1.7439117431640625
 20
24.939102172851562
 30
0.0
 11
-1.961477518081665
 21
24.92293357849121
 31
0.0
  0
LINE
  8
0
 10
-1.961477518081665
 20
24.92293357849121
 30
0.0
 11
-2.178893566131592
 21
24.90486717224121
 31
0.0
  0
LINE
  8
0
 10
-2.178893566131592
 20
24.90486717224121
 30
0.0
 11
-2.396143913269043
 21
24.884904861450195
 31
0.0
  0
LINE
  8
0
 10
-2.396143913269043
 20
24.884904861450195
 30
0.0
 11
-2.6132118701934814
 21
24.863048553466797
 31
0.0
  0
LINE
  8
0
 10
-2.6132118701934814
 20
24.863048553466797
 30
0.0
 11
-2.83008074760437
 21
24.839296340942383
 31
0.0
  0
LINE
  8
0
 10
-2.83008074760437
 20
24.839296340942383
 30
0.0
 11
-3.046733856201172
 21
24.81365394592285
 31
0.0
  0
LINE
  8
0
 10
-3.046733856201172
 20
24.81365394592285
 30
0.0
 11
-3.263155460357666
 21
24.786121368408203
 31
0.0
  0
LINE
  8
0
 10
-3.263155460357666
 20
24.786121368408203
 30
0.0
 11
-3.479327917098999
 21
24.75670051574707
 31
0.0
  0
LINE
  8
0
 10
-3.479327917098999
 20
24.75670051574707
 30
0.0
 11
-3.69523549079895
 21
24.72539710998535
 31
0.0
  0
LINE
  8
0
 10
-3.69523549079895
 20
24.72539710998535
 30
0.0
 11
-3.9108619689941406
 21
24.692209243774414
 31
0.0
  0
LINE
  8
0
 10
-3.9108619689941406
 20
24.692209243774414
 30
0.0
 11
-4.126190185546875
 21
24.657140731811523
 31
0.0
  0
LINE
  8
0
 10
-4.126190185546875
 20
24.657140731811523
 30
0.0
 11
-4.341204643249512
 21
24.620193481445312
 31
0.0
  0
LINE
  8
0
 10
-4.341204643249512
 20
24.620193481445312
 30
0.0
 11
-4.555887699127197
 21
24.58137321472168
 31
0.0
  0
LINE
  8
0
 10
-4.555887699127197
 20
24.58137321472168
 30
0.0
 11
-4.770224571228027
 21
24.540679931640625
 31
0.0
  0
LINE
  8
0
 10
-4.770224571228027
 20
24.540679931640625
 30
0.0
 11
-4.984197616577148
 21
24.498117446899414
 31
0.0
  0
LINE
  8
0
 10
-4.984197616577148
 20
24.498117446899414
 30
0.0
 11
-5.197791576385498
 21
24.453691482543945
 31
0.0
  0
LINE
  8
0
 10
-5.197791576385498
 20
24.453691482543945
 30
0.0
 11
-5.410989761352539
 21
24.407400131225586
 31
0.0
  0
LINE
  8
0
 10
-5.410989761352539
 20
24.407400131225586
 30
0.0
 11
-5.623775482177734
 21
24.359251022338867
 31
0.0
  0
LINE
  8
0
 10
-5.623775482177734
 20
24.359251022338867
 30
0.0
 11
-5.8361334800720215
 21
24.309247970581055
 31
0.0
  0
LINE
  8
0
 10
-5.8361334800720215
 20
24.309247970581055
 30
0.0
 11
-6.048046588897705
 21
24.25739288330078
 31
0.0
  0
LINE
  8
0
 10
-6.048046588897705
 20
24.25739288330078
 30
0.0
 11
-6.259499549865723
 21
24.203691482543945
 31
0.0
  0
LINE
  8
0
 10
-6.259499549865723
 20
24.203691482543945
 30
0.0
 11
-6.470475196838379
 21
24.14814567565918
 31
0.0
  0
LINE
  8
0
 10
-6.470475196838379
 20
24.14814567565918
 30
0.0
 11
-6.680959701538086
 21
24.090761184692383
 31
0.0
  0
LINE
  8
0
 10
-6.680959701538086
 20
24.090761184692383
 30
0.0
 11
-6.890933990478516
 21
24.03154182434082
 31
0.0
  0
LINE
  8
0
 10
-6.890933990478516
 20
24.03154182434082
 30
0.0
 11
-7.100383758544922
 21
23.97049331665039
 31
0.0
  0
LINE
  8
0
 10
-7.100383758544922
 20
23.97049331665039
 30
0.0
 11
-7.309292793273926
 21
23.907617568969727
 31
0.0
  0
LINE
  8
0
 10
-7.309292793273926
 20
23.907617568969727
 30
0.0
 11
-7.517645359039307
 21
23.842924118041992
 31
0.0
  0
LINE
  8
0
 10
-7.517645359039307
 20
23.842924118041992
 30
0.0
 11
-7.725425720214844
 21
23.776412963867188
 31
0.0
  0
LINE
  8
0
 10
-7.725425720214844
 20
23.776412963867188
 30
0.0
 11
-7.932617664337158
 21
23.708091735839844
 31
0.0
  0
LINE
  8
0
 10
-7.932617664337158
 20
23.708091735839844
 30
0.0
 11
-8.139204978942871
 21
23.637964248657227
 31
0.0
  0
LINE
  8
0
 10
-8.139204978942871
 20
23.637964248657227
 30
0.0
 11
-8.345172882080078
 21
23.566038131713867
 31
0.0
  0
LINE
  8
0
 10
-8.345172882080078
 20
23.566038131713867
 30
0.0
 11
-8.550505638122559
 21
23.4923152923584
 31
0.0
  0
LINE
  8
0
 10
-8.550505638122559
 20
23.4923152923584
 30
0.0
 11
-8.755187034606934
 21
23.41680335998535
 31
0.0
  0
LINE
  8
0
 10
-8.755187034606934
 20
23.41680335998535
 30
0.0
 11
-8.959200859069824
 21
23.339509963989258
 31
0.0
  0
LINE
  8
0
 10
-8.959200859069824
 20
23.339509963989258
 30
0.0
 11
-9.162532806396484
 21
23.260438919067383
 31
0.0
  0
LINE
  8
0
 10
-9.162532806396484
 20
23.260438919067383
 30
0.0
 11
-9.365167617797852
 21
23.179595947265625
 31
0.0
  0
LINE
  8
0
 10
-9.365167617797852
 20
23.179595947265625
 30
0.0
 11
-9.567089080810547
 21
23.096986770629883
 31
0.0
  0
LINE
  8
0
 10
-9.567089080810547
 20
23.096986770629883
 30
0.0
 11
-9.768280982971191
 21
23.01262092590332
 31
0.0
  0
LINE
  8
0
 10
-9.768280982971191
 20
23.01262092590332
 30
0.0
 11
-9.968729972839355
 21
22.92650032043457
 31
0.0
  0
LINE
  8
0
 10
-9.968729972839355
 20
22.92650032043457
 30
0.0
 11
-10.16841983795166
 21
22.838634490966797
 31
0.0
  0
LINE
  8
0
 10
-10.16841983795166
 20
22.838634490966797
 30
0.0
 11
-10.367334365844727
 21
22.74903106689453
 31
0.0
  0
LINE
  8
0
 10
-10.367334365844727
 20
22.74903106689453
 30
0.0
 11
-10.565460205078125
 21
22.657691955566406
 31
0.0
  0
LINE
  8
0
 10
-10.565460205078125
 20
22.657691955566406
 30
0.0
 11
-10.762782096862793
 21
22.56463050842285
 31
0.0
  0
LINE
  8
0
 10
-10.762782096862793
 20
22.56463050842285
 30
0.0
 11
-10.959282875061035
 21
22.4698486328125
 31
0.0
  0
LINE
  8
0
 10
-10.959282875061035
 20
22.4698486328125
 30
0.0
 11
-11.154950141906738
 21
22.37335777282715
 31
0.0
  0
LINE
  8
0
 10
-11.154950141906738
 20
22.37335777282715
 30
0.0
 11
-11.349767684936523
 21
22.27515983581543
 31
0.0
  0
LINE
  8
0
 10
-11.349767684936523
 20
22.27515983581543
 30
0.0
 11
-11.543720245361328
 21
22.175268173217773
 31
0.0
  0
LINE
  8
0
 10
-11.543720245361328
 20
22.175268173217773
 30
0.0
 11
-11.736794471740723
 21
22.073688507080078
 31
0.0
  0
LINE
  8
0
 10
-11.736794471740723
 20
22.073688507080078
 30
0.0
 11
-11.928975105285645
 21
21.97042465209961
 31
0.0
  0
LINE
  8
0
 10
-11.928975105285645
 20
21.97042465209961
 30
0.0
 11
-12.120244979858398
 21
21.865489959716797
 31
0.0
  0
LINE
  8
0
 10
-12.120244979858398
 20
21.865489959716797
 30
0.0
 11
-12.31059455871582
 21
21.75889015197754
 31
0.0
  0
LINE
  8
0
 10
-12.31059455871582
 20
21.75889015197754
 30
0.0
 11
-12.500005722045898
 21
21.650630950927734
 31
0.0
  0
LINE
  8
0
 10
-12.500005722045898
 20
21.650630950927734
 30
0.0
 11
-12.688465118408203
 21
21.540725708007812
 31
0.0
  0
LINE
  8
0
 10
-12.688465118408203
 20
21.540725708007812
 30
0.0
 11
-12.875957489013672
 21
21.429180145263672
 31
0.0
  0
LINE
  8
0
 10
-12.875957489013672
 20
21.429180145263672
 30
0.0
 11
-13.062469482421875
 21
21.31599998474121
 31
0.0
  0
LINE
  8
0
 10
-13.062469482421875
 20
21.31599998474121
 30
0.0
 11
-13.247987747192383
 21
21.20119857788086
 31
0.0
  0
LINE
  8
0
 10
-13.247987747192383
 20
21.20119857788086
 30
0.0
 11
-13.432497024536133
 21
21.084781646728516
 31
0.0
  0
LINE
  8
0
 10
-13.432497024536133
 20
21.084781646728516
 30
0.0
 11
-13.615982055664062
 21
20.966758728027344
 31
0.0
  0
LINE
  8
0
 10
-13.615982055664062
 20
20.966758728027344
 30
0.0
 11
-13.798432350158691
 21
20.84714126586914
 31
0.0
  0
LINE
  8
0
 10
-13.798432350158691
 20
20.84714126586914
 30
0.0
 11
-13.979829788208008
 21
20.725934982299805
 31
0.0
  0
LINE
  8
0
 10
-13.979829788208008
 20
20.725934982299805
 30
0.0
 11
-14.160163879394531
 21
20.6031494140625
 31
0.0
  0
LINE
  8
0
 10
-14.160163879394531
 20
20.6031494140625
 30
0.0
 11
-14.339418411254883
 21
20.478796005249023
 31
0.0
  0
LINE
  8
0
 10
-14.339418411254883
 20
20.478796005249023
 30
0.0
 11
-14.517581939697266
 21
20.352882385253906
 31
0.0
  0
LINE
  8
0
 10
-14.517581939697266
 20
20.352882385253906
 30
0.0
 11
-14.6946382522583
 21
20.225419998168945
 31
0.0
  0
LINE
  8
0
 10
-14.6946382522583
 20
20.225419998168945
 30
0.0
 11
-14.870577812194824
 21
20.09641456604004
 31
0.0
  0
LINE
  8
0
 10
-14.870577812194824
 20
20.09641456604004
 30
0.0
 11
-15.04538345336914
 21
19.96588134765625
 31
0.0
  0
LINE
  8
0
 10
-15.04538345336914
 20
19.96588134765625
 30
0.0
 11
-15.219042778015137
 21
19.83382797241211
 31
0.0
  0
LINE
  8
0
 10
-15.219042778015137
 20
19.83382797241211
 30
0.0
 11
-15.391545295715332
 21
19.70026206970215
 31
0.0
  0
LINE
  8
0
 10
-15.391545295715332
 20
19.70026206970215
 30
0.0
 11
-15.562873840332031
 21
19.565196990966797
 31
0.0
  0
LINE
  8
0
 10
-15.562873840332031
 20
19.565196990966797
 30
0.0
 11
-15.73301887512207
 21
19.42864227294922
 31
0.0
  0
LINE
  8
0
 10
-15.73301887512207
 20
19.42864227294922
 30
0.0
 11
-15.901963233947754
 21
19.290607452392578
 31
0.0
  0
LINE
  8
0
 10
-15.901963233947754
 20
19.290607452392578
 30
0.0
 11
-16.069698333740234
 21
19.151103973388672
 31
0.0
  0
LINE
  8
0
 10
-16.069698333740234
 20
19.151103973388672
 30
0.0
 11
-16.236209869384766
 21
19.010141372680664
 31
0.0
  0
LINE
  8
0
 10
-16.236209869384766
 20
19.010141372680664
 30
0.0
 11
-16.401485443115234
 21
18.86773109436035
 31
0.0
  0
LINE
  8
0
 10
-16.401485443115234
 20
18.86773109436035
 30
0.0
 11
-16.565509796142578
 21
18.72388458251953
 31
0.0
  0
LINE
  8
0
 10
-16.565509796142578
 20
18.72388458251953
 30
0.0
 11
-16.728275299072266
 21
18.57861328125
 31
0.0
  0
LINE
  8
0
 10
-16.728275299072266
 20
18.57861328125
 30
0.0
 11
-16.8897647857666
 21
18.43192481994629
 31
0.0
  0
LINE
  8
0
 10
-16.8897647857666
 20
18.43192481994629
 30
0.0
 11
-17.049968719482422
 21
18.28383445739746
 31
0.0
  0
LINE
  8
0
 10
-17.049968719482422
 20
18.28383445739746
 30
0.0
 11
-17.208873748779297
 21
18.134349822998047
 31
0.0
  0
LINE
  8
0
 10
-17.208873748779297
 20
18.134349822998047
 30
0.0
 11
-17.36646842956543
 21
17.98348617553711
 31
0.0
  0
LINE
  8
0
 10
-17.36646842956543
 20
17.98348617553711
 30
0.0
 11
-17.522741317749023
 21
17.83125114440918
 31
0.0
  0
LINE
  8
0
 10
-17.522741317749023
 20
17.83125114440918
 30
0.0
 11
-17.67767906188965
 21
17.67765998840332
 31
0.0
  0
LINE
  8
0
 10
-17.67767906188965
 20
17.67765998840332
 30
0.0
 11
-17.83127212524414
 21
17.522720336914062
 31
0.0
  0
LINE
  8
0
 10
-17.83127212524414
 20
17.522720336914062
 30
0.0
 11
-17.983505249023438
 21
17.3664493560791
 31
0.0
  0
LINE
  8
0
 10
-17.983505249023438
 20
17.3664493560791
 30
0.0
 11
-18.134368896484375
 21
17.208852767944336
 31
0.0
  0
LINE
  8
0
 10
-18.134368896484375
 20
17.208852767944336
 30
0.0
 11
-18.28385353088379
 21
17.04994773864746
 31
0.0
  0
LINE
  8
0
 10
-18.28385353088379
 20
17.04994773864746
 30
0.0
 11
-18.431943893432617
 21
16.88974380493164
 31
0.0
  0
LINE
  8
0
 10
-18.431943893432617
 20
16.88974380493164
 30
0.0
 11
-18.578630447387695
 21
16.728254318237305
 31
0.0
  0
LINE
  8
0
 10
-18.578630447387695
 20
16.728254318237305
 30
0.0
 11
-18.72390365600586
 21
16.56549072265625
 31
0.0
  0
LINE
  8
0
 10
-18.72390365600586
 20
16.56549072265625
 30
0.0
 11
-18.86775016784668
 21
16.401464462280273
 31
0.0
  0
LINE
  8
0
 10
-18.86775016784668
 20
16.401464462280273
 30
0.0
 11
-19.01015853881836
 21
16.236188888549805
 31
0.0
  0
LINE
  8
0
 10
-19.01015853881836
 20
16.236188888549805
 30
0.0
 11
-19.151121139526367
 21
16.069677352905273
 31
0.0
  0
LINE
  8
0
 10
-19.151121139526367
 20
16.069677352905273
 30
0.0
 11
-19.290624618530273
 21
15.901942253112793
 31
0.0
  0
LINE
  8
0
 10
-19.290624618530273
 20
15.901942253112793
 30
0.0
 11
-19.428659439086914
 21
15.732995986938477
 31
0.0
  0
LINE
  8
0
 10
-19.428659439086914
 20
15.732995986938477
 30
0.0
 11
-19.565214157104492
 21
15.562851905822754
 31
0.0
  0
LINE
  8
0
 10
-19.565214157104492
 20
15.562851905822754
 30
0.0
 11
-19.700279235839844
 21
15.391522407531738
 31
0.0
  0
LINE
  8
0
 10
-19.700279235839844
 20
15.391522407531738
 30
0.0
 11
-19.833845138549805
 21
15.219022750854492
 31
0.0
  0
LINE
  8
0
 10
-19.833845138549805
 20
15.219022750854492
 30
0.0
 11
-19.965898513793945
 21
15.045361518859863
 31
0.0
  0
LINE
  8
0
 10
-19.965898513793945
 20
15.045361518859863
 30
0.0
 11
-20.096431732177734
 21
14.870555877685547
 31
0.0
  0
LINE
  8
0
 10
-20.096431732177734
 20
14.870555877685547
 30
0.0
 11
-20.225435256958008
 21
14.694616317749023
 31
0.0
  0
LINE
  8
0
 10
-20.225435256958008
 20
14.694616317749023
 30
0.0
 11
-20.35289764404297
 21
14.517559051513672
 31
0.0
  0
LINE
  8
0
 10
-20.35289764404297
 20
14.517559051513672
 30
0.0
 11
-20.478811264038086
 21
14.339394569396973
 31
0.0
  0
LINE
  8
0
 10
-20.478811264038086
 20
14.339394569396973
 30
0.0
 11
-20.603164672851562
 21
14.160140037536621
 31
0.0
  0
LINE
  8
0
 10
-20.603164672851562
 20
14.160140037536621
 30
0.0
 11
-20.725950241088867
 21
13.979805946350098
 31
0.0
  0
LINE
  8
0
 10
-20.725950241088867
 20
13.979805946350098
 30
0.0
 11
-20.847156524658203
 21
13.798408508300781
 31
0.0
  0
LINE
  8
0
 10
-20.847156524658203
 20
13.798408508300781
 30
0.0
 11
-20.96677589416504
 21
13.615958213806152
 31
0.0
  0
LINE
  8
0
 10
-20.96677589416504
 20
13.615958213806152
 30
0.0
 11
-21.084794998168945
 21
13.432474136352539
 31
0.0
  0
LINE
  8
0
 10
-21.084794998168945
 20
13.432474136352539
 30
0.0
 11
-21.20121192932129
 21
13.247966766357422
 31
0.0
  0
LINE
  8
0
 10
-21.20121192932129
 20
13.247966766357422
 30
0.0
 11
-21.31601333618164
 21
13.062450408935547
 31
0.0
  0
LINE
  8
0
 10
-21.31601333618164
 20
13.062450408935547
 30
0.0
 11
-21.429189682006836
 21
12.875938415527344
 31
0.0
  0
LINE
  8
0
 10
-21.429189682006836
 20
12.875938415527344
 30
0.0
 11
-21.540735244750977
 21
12.688447952270508
 31
0.0
  0
LINE
  8
0
 10
-21.540735244750977
 20
12.688447952270508
 30
0.0
 11
-21.65064239501953
 21
12.499988555908203
 31
0.0
  0
LINE
  8
0
 10
-21.65064239501953
 20
12.499988555908203
 30
0.0
 11
-21.75889778137207
 21
12.310579299926758
 31
0.0
  0
LINE
  8
0
 10
-21.75889778137207
 20
12.310579299926758
 30
0.0
 11
-21.865497589111328
 21
12.120231628417969
 31
0.0
  0
LINE
  8
0
 10
-21.865497589111328
 20
12.120231628417969
 30
0.0
 11
-21.97043228149414
 21
11.928961753845215
 31
0.0
  0
LINE
  8
0
 10
-21.97043228149414
 20
11.928961753845215
 30
0.0
 11
-22.073694229125977
 21
11.73678207397461
 31
0.0
  0
LINE
  8
0
 10
-22.073694229125977
 20
11.73678207397461
 30
0.0
 11
-22.175273895263672
 21
11.543709754943848
 31
0.0
  0
LINE
  8
0
 10
-22.175273895263672
 20
11.543709754943848
 30
0.0
 11
-22.275165557861328
 21
11.34975814819336
 31
0.0
  0
LINE
  8
0
 10
-22.275165557861328
 20
11.34975814819336
 30
0.0
 11
-22.37335968017578
 21
11.15494155883789
 31
0.0
  0
LINE
  8
0
 10
-22.37335968017578
 20
11.15494155883789
 30
0.0
 11
-22.469852447509766
 21
10.95927619934082
 31
0.0
  0
LINE
  8
0
 10
-22.469852447509766
 20
10.95927619934082
 30
0.0
 11
-22.564632415771484
 21
10.762775421142578
 31
0.0
  0
LINE
  8
0
 10
-22.564632415771484
 20
10.762775421142578
 30
0.0
 11
-22.657695770263672
 21
10.56545639038086
 31
0.0
  0
LINE
  8
0
 10
-22.657695770263672
 20
10.56545639038086
 30
0.0
 11
-22.749032974243164
 21
10.367331504821777
 31
0.0
  0
LINE
  8
0
 10
-22.749032974243164
 20
10.367331504821777
 30
0.0
 11
-22.83863639831543
 21
10.168417930603027
 31
0.0
  0
LINE
  8
0
 10
-22.83863639831543
 20
10.168417930603027
 30
0.0
 11
-22.92650032043457
 21
9.968729972839355
 31
0.0
  0
LINE
  8
0
 10
-22.92650032043457
 20
9.968729972839355
 30
0.0
 11
-23.01262092590332
 21
9.768282890319824
 31
0.0
  0
LINE
  8
0
 10
-23.01262092590332
 20
9.768282890319824
 30
0.0
 11
-23.096986770629883
 21
9.567091941833496
 31
0.0
  0
LINE
  8
0
 10
-23.096986770629883
 20
9.567091941833496
 30
0.0
 11
-23.179594039916992
 21
9.365171432495117
 31
0.0
  0
LINE
  8
0
 10
-23.179594039916992
 20
9.365171432495117
 30
0.0
 11
-23.260435104370117
 21
9.162538528442383
 31
0.0
  0
LINE
  8
0
 10
-23.260435104370117
 20
9.162538528442383
 30
0.0
 11
-23.339506149291992
 21
8.959207534790039
 31
0.0
  0
LINE
  8
0
 10
-23.339506149291992
 20
8.959207534790039
 30
0.0
 11
-23.41680145263672
 21
8.755194664001465
 31
0.0
  0
LINE
  8
0
 10
-23.41680145263672
 20
8.755194664001465
 30
0.0
 11
-23.492311477661133
 21
8.550515174865723
 31
0.0
  0
LINE
  8
0
 10
-23.492311477661133
 20
8.550515174865723
 30
0.0
 11
-23.56603240966797
 21
8.345183372497559
 31
0.0
  0
LINE
  8
0
 10
-23.56603240966797
 20
8.345183372497559
 30
0.0
 11
-23.637958526611328
 21
8.139217376708984
 31
0.0
  0
LINE
  8
0
 10
-23.637958526611328
 20
8.139217376708984
 30
0.0
 11
-23.708086013793945
 21
7.932631492614746
 31
0.0
  0
LINE
  8
0
 10
-23.708086013793945
 20
7.932631492614746
 30
0.0
 11
-23.77640724182129
 21
7.725440502166748
 31
0.0
  0
LINE
  8
0
 10
-23.77640724182129
 20
7.725440502166748
 30
0.0
 11
-23.842918395996094
 21
7.517662525177002
 31
0.0
  0
LINE
  8
0
 10
-23.842918395996094
 20
7.517662525177002
 30
0.0
 11
-23.90761375427246
 21
7.3093109130859375
 31
0.0
  0
LINE
  8
0
 10
-23.90761375427246
 20
7.3093109130859375
 30
0.0
 11
-23.970487594604492
 21
7.100403308868408
 31
0.0
  0
LINE
  8
0
 10
-23.970487594604492
 20
7.100403308868408
 30
0.0
 11
-24.031536102294922
 21
6.890954971313477
 31
0.0
  0
LINE
  8
0
 10
-24.031536102294922
 20
6.890954971313477
 30
0.0
 11
-24.090755462646484
 21
6.680981636047363
 31
0.0
  0
LINE
  8
0
 10
-24.090755462646484
 20
6.680981636047363
 30
0.0
 11
-24.14813995361328
 21
6.4704999923706055
 31
0.0
  0
LINE
  8
0
 10
-24.14813995361328
 20
6.4704999923706055
 30
0.0
 11
-24.203685760498047
 21
6.259524822235107
 31
0.0
  0
LINE
  8
0
 10
-24.203685760498047
 20
6.259524822235107
 30
0.0
 11
-24.257387161254883
 21
6.048073768615723
 31
0.0
  0
LINE
  8
0
 10
-24.257387161254883
 20
6.048073768615723
 30
0.0
 11
-24.309242248535156
 21
5.8361616134643555
 31
0.0
  0
LINE
  8
0
 10
-24.309242248535156
 20
5.8361616134643555
 30
0.0
 11
-24.35924530029297
 21
5.623805046081543
 31
0.0
  0
LINE
  8
0
 10
-24.35924530029297
 20
5.623805046081543
 30
0.0
 11
-24.407394409179688
 21
5.411020278930664
 31
0.0
  0
LINE
  8
0
 10
-24.407394409179688
 20
5.411020278930664
 30
0.0
 11
-24.453683853149414
 21
5.197823524475098
 31
0.0
  0
LINE
  8
0
 10
-24.453683853149414
 20
5.197823524475098
 30
0.0
 11
-24.498111724853516
 21
4.984230995178223
 31
0.0
  0
LINE
  8
0
 10
-24.498111724853516
 20
4.984230995178223
 30
0.0
 11
-24.540672302246094
 21
4.77025842666626
 31
0.0
  0
LINE
  8
0
 10
-24.540672302246094
 20
4.77025842666626
 30
0.0
 11
-24.58136749267578
 21
4.555922985076904
 31
0.0
  0
LINE
  8
0
 10
-24.58136749267578
 20
4.555922985076904
 30
0.0
 11
-24.620187759399414
 21
4.341240406036377
 31
0.0
  0
LINE
  8
0
 10
-24.620187759399414
 20
4.341240406036377
 30
0.0
 11
-24.657133102416992
 21
4.126227855682373
 31
0.0
  0
LINE
  8
0
 10
-24.657133102416992
 20
4.126227855682373
 30
0.0
 11
-24.692203521728516
 21
3.910900354385376
 31
0.0
  0
LINE
  8
0
 10
-24.692203521728516
 20
3.910900354385376
 30
0.0
 11
-24.725391387939453
 21
3.69527530670166
 31
0.0
  0
LINE
  8
0
 10
-24.725391387939453
 20
3.69527530670166
 30
0.0
 11
-24.756694793701172
 21
3.4793689250946045
 31
0.0
  0
LINE
  8
0
 10
-24.756694793701172
 20
3.4793689250946045
 30
0.0
 11
-24.786115646362305
 21
3.263197422027588
 31
0.0
  0
LINE
  8
0
 10
-24.786115646362305
 20
3.263197422027588
 30
0.0
 11
-24.813648223876953
 21
3.0467774868011475
 31
0.0
  0
LINE
  8
0
 10
-24.813648223876953
 20
3.0467774868011475
 30
0.0
 11
-24.839290618896484
 21
2.830125331878662
 31
0.0
  0
LINE
  8
0
 10
-24.839290618896484
 20
2.830125331878662
 30
0.0
 11
-24.8630428314209
 21
2.613257884979248
 31
0.0
  0
LINE
  8
0
 10
-24.8630428314209
 20
2.613257884979248
 30
0.0
 11
-24.88490104675293
 21
2.396191358566284
 31
0.0
  0
LINE
  8
0
 10
-24.88490104675293
 20
2.396191358566284
 30
0.0
 11
-24.904863357543945
 21
2.1789426803588867
 31
0.0
  0
LINE
  8
0
 10
-24.904863357543945
 20
2.1789426803588867
 30
0.0
 11
-24.922929763793945
 21
1.9615275859832764
 31
0.0
  0
LINE
  8
0
 10
-24.922929763793945
 20
1.9615275859832764
 30
0.0
 11
-24.939098358154297
 21
1.743963360786438
 31
0.0
  0
LINE
  8
0
 10
-24.939098358154297
 20
1.743963360786438
 30
0.0
 11
-24.953367233276367
 21
1.5262662172317505
 31
0.0
  0
LINE
  8
0
 10
-24.953367233276367
 20
1.5262662172317505
 30
0.0
 11
-24.965736389160156
 21
1.308452844619751
 31
0.0
  0
LINE
  8
0
 10
-24.965736389160156
 20
1.308452844619751
 30
0.0
 11
-24.9762020111084
 21
1.0905399322509766
 31
0.0
  0
LINE
  8
0
 10
-24.9762020111084
 20
1.0905399322509766
 30
0.0
 11
-24.98476791381836
 21
0.8725439310073853
 31
0.0
  0
LINE
  8
0
 10
-24.98476791381836
 20
0.8725439310073853
 30
0.0
 11
-24.991432189941406
 21
0.6544814705848694
 31
0.0
  0
LINE
  8
0
 10
-24.991432189941406
 20
0.6544814705848694
 30
0.0
 11
-24.996191024780273
 21
0.4363691806793213
 31
0.0
  0
LINE
  8
0
 10
-24.996191024780273
 20
0.4363691806793213
 30
0.0
 11
-24.999048233032227
 21
0.21822364628314972
 31
0.0
  0
LINE
  8
0
 10
-24.999048233032227
 20
0.21822364628314972
 30
0.0
 11
-25.0
 21
6.149209366412833e-05
 31
0.0
  0
LINE
  8
0
 10
-25.0
 20
6.149209366412833e-05
 30
0.0
 11
-24.99905014038086
 21
-0.2181006669998169
 31
0.0
  0
LINE
  8
0
 10
-24.99905014038086
 20
-0.2181006669998169
 30
0.0
 11
-24.996192932128906
 21
-0.43624621629714966
 31
0.0
  0
LINE
  8
0
 10
-24.996192932128906
 20
-0.43624621629714966
 30
0.0
 11
-24.99143409729004
 21
-0.6543585062026978
 31
0.0
  0
LINE
  8
0
 10
-24.99143409729004
 20
-0.6543585062026978
 30
0.0
 11
-24.984771728515625
 21
-0.8724209666252136
 31
0.0
  0
LINE
  8
0
 10
-24.984771728515625
 20
-0.8724209666252136
 30
0.0
 11
-24.97620964050293
 21
-1.0904170274734497
 31
0.0
  0
LINE
  8
0
 10
-24.97620964050293
 20
-1.0904170274734497
 30
0.0
 11
-24.965742111206055
 21
-1.3083300590515137
 31
0.0
  0
LINE
  8
0
 10
-24.965742111206055
 20
-1.3083300590515137
 30
0.0
 11
-24.9533748626709
 21
-1.5261435508728027
 31
0.0
  0
LINE
  8
0
 10
-24.9533748626709
 20
-1.5261435508728027
 30
0.0
 11
-24.939105987548828
 21
-1.7438405752182007
 31
0.0
  0
LINE
  8
0
 10
-24.939105987548828
 20
-1.7438405752182007
 30
0.0
 11
-24.92293930053711
 21
-1.9614050388336182
 31
0.0
  0
LINE
  8
0
 10
-24.92293930053711
 20
-1.9614050388336182
 30
0.0
 11
-24.904874801635742
 21
-2.1788201332092285
 31
0.0
  0
LINE
  8
0
 10
-24.904874801635742
 20
-2.1788201332092285
 30
0.0
 11
-24.884912490844727
 21
-2.396069049835205
 31
0.0
  0
LINE
  8
0
 10
-24.884912490844727
 20
-2.396069049835205
 30
0.0
 11
-24.863056182861328
 21
-2.613135576248169
 31
0.0
  0
LINE
  8
0
 10
-24.863056182861328
 20
-2.613135576248169
 30
0.0
 11
-24.839305877685547
 21
-2.830003261566162
 31
0.0
  0
LINE
  8
0
 10
-24.839305877685547
 20
-2.830003261566162
 30
0.0
 11
-24.813663482666016
 21
-3.0466554164886475
 31
0.0
  0
LINE
  8
0
 10
-24.813663482666016
 20
-3.0466554164886475
 30
0.0
 11
-24.7861328125
 21
-3.263075351715088
 31
0.0
  0
LINE
  8
0
 10
-24.7861328125
 20
-3.263075351715088
 30
0.0
 11
-24.7567138671875
 21
-3.4792470932006836
 31
0.0
  0
LINE
  8
0
 10
-24.7567138671875
 20
-3.4792470932006836
 30
0.0
 11
-24.72540855407715
 21
-3.6951537132263184
 31
0.0
  0
LINE
  8
0
 10
-24.72540855407715
 20
-3.6951537132263184
 30
0.0
 11
-24.69222068786621
 21
-3.910778760910034
 31
0.0
  0
LINE
  8
0
 10
-24.69222068786621
 20
-3.910778760910034
 30
0.0
 11
-24.657154083251953
 21
-4.126106262207031
 31
0.0
  0
LINE
  8
0
 10
-24.657154083251953
 20
-4.126106262207031
 30
0.0
 11
-24.620208740234375
 21
-4.341119766235352
 31
0.0
  0
LINE
  8
0
 10
-24.620208740234375
 20
-4.341119766235352
 30
0.0
 11
-24.581388473510742
 21
-4.555801868438721
 31
0.0
  0
LINE
  8
0
 10
-24.581388473510742
 20
-4.555801868438721
 30
0.0
 11
-24.54069709777832
 21
-4.770137786865234
 31
0.0
  0
LINE
  8
0
 10
-24.54069709777832
 20
-4.770137786865234
 30
0.0
 11
-24.49813461303711
 21
-4.984110355377197
 31
0.0
  0
LINE
  8
0
 10
-24.49813461303711
 20
-4.984110355377197
 30
0.0
 11
-24.45370864868164
 21
-5.197702884674072
 31
0.0
  0
LINE
  8
0
 10
-24.45370864868164
 20
-5.197702884674072
 30
0.0
 11
-24.407419204711914
 21
-5.410900115966797
 31
0.0
  0
LINE
  8
0
 10
-24.407419204711914
 20
-5.410900115966797
 30
0.0
 11
-24.359272003173828
 21
-5.623685359954834
 31
0.0
  0
LINE
  8
0
 10
-24.359272003173828
 20
-5.623685359954834
 30
0.0
 11
-24.30927085876465
 21
-5.8360419273376465
 31
0.0
  0
LINE
  8
0
 10
-24.30927085876465
 20
-5.8360419273376465
 30
0.0
 11
-24.257417678833008
 21
-6.047954082489014
 31
0.0
  0
LINE
  8
0
 10
-24.257417678833008
 20
-6.047954082489014
 30
0.0
 11
-24.20371437072754
 21
-6.259405612945557
 31
0.0
  0
LINE
  8
0
 10
-24.20371437072754
 20
-6.259405612945557
 30
0.0
 11
-24.148170471191406
 21
-6.470380783081055
 31
0.0
  0
LINE
  8
0
 10
-24.148170471191406
 20
-6.470380783081055
 30
0.0
 11
-24.090787887573242
 21
-6.680863380432129
 31
0.0
  0
LINE
  8
0
 10
-24.090787887573242
 20
-6.680863380432129
 30
0.0
 11
-24.031570434570312
 21
-6.8908371925354
 31
0.0
  0
LINE
  8
0
 10
-24.031570434570312
 20
-6.8908371925354
 30
0.0
 11
-23.970521926879883
 21
-7.100285530090332
 31
0.0
  0
LINE
  8
0
 10
-23.970521926879883
 20
-7.100285530090332
 30
0.0
 11
-23.907649993896484
 21
-7.309194087982178
 31
0.0
  0
LINE
  8
0
 10
-23.907649993896484
 20
-7.309194087982178
 30
0.0
 11
-23.842954635620117
 21
-7.517544746398926
 31
0.0
  0
LINE
  8
0
 10
-23.842954635620117
 20
-7.517544746398926
 30
0.0
 11
-23.776445388793945
 21
-7.725323677062988
 31
0.0
  0
LINE
  8
0
 10
-23.776445388793945
 20
-7.725323677062988
 30
0.0
 11
-23.708126068115234
 21
-7.932514667510986
 31
0.0
  0
LINE
  8
0
 10
-23.708126068115234
 20
-7.932514667510986
 30
0.0
 11
-23.63800048828125
 21
-8.139101028442383
 31
0.0
  0
LINE
  8
0
 10
-23.63800048828125
 20
-8.139101028442383
 30
0.0
 11
-23.566072463989258
 21
-8.345067977905273
 31
0.0
  0
LINE
  8
0
 10
-23.566072463989258
 20
-8.345067977905273
 30
0.0
 11
-23.492353439331055
 21
-8.550399780273438
 31
0.0
  0
LINE
  8
0
 10
-23.492353439331055
 20
-8.550399780273438
 30
0.0
 11
-23.41684341430664
 21
-8.75507926940918
 31
0.0
  0
LINE
  8
0
 10
-23.41684341430664
 20
-8.75507926940918
 30
0.0
 11
-23.33955192565918
 21
-8.95909309387207
 31
0.0
  0
LINE
  8
0
 10
-23.33955192565918
 20
-8.95909309387207
 30
0.0
 11
-23.260480880737305
 21
-9.162424087524414
 31
0.0
  0
LINE
  8
0
 10
-23.260480880737305
 20
-9.162424087524414
 30
0.0
 11
-23.17963981628418
 21
-9.365056991577148
 31
0.0
  0
LINE
  8
0
 10
-23.17963981628418
 20
-9.365056991577148
 30
0.0
 11
-23.097034454345703
 21
-9.566977500915527
 31
0.0
  0
LINE
  8
0
 10
-23.097034454345703
 20
-9.566977500915527
 30
0.0
 11
-23.01266860961914
 21
-9.768169403076172
 31
0.0
  0
LINE
  8
0
 10
-23.01266860961914
 20
-9.768169403076172
 30
0.0
 11
-22.926549911499023
 21
-9.968616485595703
 31
0.0
  0
LINE
  8
0
 10
-22.926549911499023
 20
-9.968616485595703
 30
0.0
 11
-22.83868408203125
 21
-10.168305397033691
 31
0.0
  0
LINE
  8
0
 10
-22.83868408203125
 20
-10.168305397033691
 30
0.0
 11
-22.749082565307617
 21
-10.367219924926758
 31
0.0
  0
LINE
  8
0
 10
-22.749082565307617
 20
-10.367219924926758
 30
0.0
 11
-22.657745361328125
 21
-10.56534481048584
 31
0.0
  0
LINE
  8
0
 10
-22.657745361328125
 20
-10.56534481048584
 30
0.0
 11
-22.564685821533203
 21
-10.762664794921875
 31
0.0
  0
LINE
  8
0
 10
-22.564685821533203
 20
-10.762664794921875
 30
0.0
 11
-22.469905853271484
 21
-10.959165573120117
 31
0.0
  0
LINE
  8
0
 10
-22.469905853271484
 20
-10.959165573120117
 30
0.0
 11
-22.373414993286133
 21
-11.154831886291504
 31
0.0
  0
LINE
  8
0
 10
-22.373414993286133
 20
-11.154831886291504
 30
0.0
 11
-22.27522087097168
 21
-11.349648475646973
 31
0.0
  0
LINE
  8
0
 10
-22.27522087097168
 20
-11.349648475646973
 30
0.0
 11
-22.175329208374023
 21
-11.543600082397461
 31
0.0
  0
LINE
  8
0
 10
-22.175329208374023
 20
-11.543600082397461
 30
0.0
 11
-22.07375144958496
 21
-11.736674308776855
 31
0.0
  0
LINE
  8
0
 10
-22.07375144958496
 20
-11.736674308776855
 30
0.0
 11
-21.970491409301758
 21
-11.928853034973145
 31
0.0
  0
LINE
  8
0
 10
-21.970491409301758
 20
-11.928853034973145
 30
0.0
 11
-21.865556716918945
 21
-12.120123863220215
 31
0.0
  0
LINE
  8
0
 10
-21.865556716918945
 20
-12.120123863220215
 30
0.0
 11
-21.75895881652832
 21
-12.31047248840332
 31
0.0
  0
LINE
  8
0
 10
-21.75895881652832
 20
-12.31047248840332
 30
0.0
 11
-21.65070343017578
 21
-12.499882698059082
 31
0.0
  0
LINE
  8
0
 10
-21.65070343017578
 20
-12.499882698059082
 30
0.0
 11
-21.54079818725586
 21
-12.688342094421387
 31
0.0
  0
LINE
  8
0
 10
-21.54079818725586
 20
-12.688342094421387
 30
0.0
 11
-21.42925453186035
 21
-12.875834465026855
 31
0.0
  0
LINE
  8
0
 10
-21.42925453186035
 20
-12.875834465026855
 30
0.0
 11
-21.316076278686523
 21
-13.062345504760742
 31
0.0
  0
LINE
  8
0
 10
-21.316076278686523
 20
-13.062345504760742
 30
0.0
 11
-21.201276779174805
 21
-13.247862815856934
 31
0.0
  0
LINE
  8
0
 10
-21.201276779174805
 20
-13.247862815856934
 30
0.0
 11
-21.084863662719727
 21
-13.43237018585205
 31
0.0
  0
LINE
  8
0
 10
-21.084863662719727
 20
-13.43237018585205
 30
0.0
 11
-20.966842651367188
 21
-13.61585521697998
 31
0.0
  0
LINE
  8
0
 10
-20.966842651367188
 20
-13.61585521697998
 30
0.0
 11
-20.847225189208984
 21
-13.798303604125977
 31
0.0
  0
LINE
  8
0
 10
-20.847225189208984
 20
-13.798303604125977
 30
0.0
 11
-20.72602081298828
 21
-13.97970199584961
 31
0.0
  0
LINE
  8
0
 10
-20.72602081298828
 20
-13.97970199584961
 30
0.0
 11
-20.60323715209961
 21
-14.160035133361816
 31
0.0
  0
LINE
  8
0
 10
-20.60323715209961
 20
-14.160035133361816
 30
0.0
 11
-20.478885650634766
 21
-14.339288711547852
 31
0.0
  0
LINE
  8
0
 10
-20.478885650634766
 20
-14.339288711547852
 30
0.0
 11
-20.35297393798828
 21
-14.517452239990234
 31
0.0
  0
LINE
  8
0
 10
-20.35297393798828
 20
-14.517452239990234
 30
0.0
 11
-20.225513458251953
 21
-14.69450855255127
 31
0.0
  0
LINE
  8
0
 10
-20.225513458251953
 20
-14.69450855255127
 30
0.0
 11
-20.096511840820312
 21
-14.870448112487793
 31
0.0
  0
LINE
  8
0
 10
-20.096511840820312
 20
-14.870448112487793
 30
0.0
 11
-19.965978622436523
 21
-15.04525375366211
 31
0.0
  0
LINE
  8
0
 10
-19.965978622436523
 20
-15.04525375366211
 30
0.0
 11
-19.833927154541016
 21
-15.218914031982422
 31
0.0
  0
LINE
  8
0
 10
-19.833927154541016
 20
-15.218914031982422
 30
0.0
 11
-19.70036506652832
 21
-15.391413688659668
 31
0.0
  0
LINE
  8
0
 10
-19.70036506652832
 20
-15.391413688659668
 30
0.0
 11
-19.5653018951416
 21
-15.562743186950684
 31
0.0
  0
LINE
  8
0
 10
-19.5653018951416
 20
-15.562743186950684
 30
0.0
 11
-19.428747177124023
 21
-15.732887268066406
 31
0.0
  0
LINE
  8
0
 10
-19.428747177124023
 20
-15.732887268066406
 30
0.0
 11
-19.29071617126465
 21
-15.901832580566406
 31
0.0
  0
LINE
  8
0
 10
-19.29071617126465
 20
-15.901832580566406
 30
0.0
 11
-19.151214599609375
 21
-16.06956672668457
 31
0.0
  0
LINE
  8
0
 10
-19.151214599609375
 20
-16.06956672668457
 30
0.0
 11
-19.01025390625
 21
-16.2360782623291
 31
0.0
  0
LINE
  8
0
 10
-19.01025390625
 20
-16.2360782623291
 30
0.0
 11
-18.86784553527832
 21
-16.40135383605957
 31
0.0
  0
LINE
  8
0
 10
-18.86784553527832
 20
-16.40135383605957
 30
0.0
 11
-18.724002838134766
 21
-16.565378189086914
 31
0.0
  0
LINE
  8
0
 10
-18.724002838134766
 20
-16.565378189086914
 30
0.0
 11
-18.5787296295166
 21
-16.72814178466797
 31
0.0
  0
LINE
  8
0
 10
-18.5787296295166
 20
-16.72814178466797
 30
0.0
 11
-18.43204689025879
 21
-16.889631271362305
 31
0.0
  0
LINE
  8
0
 10
-18.43204689025879
 20
-16.889631271362305
 30
0.0
 11
-18.28395652770996
 21
-17.049835205078125
 31
0.0
  0
LINE
  8
0
 10
-18.28395652770996
 20
-17.049835205078125
 30
0.0
 11
-18.134475708007812
 21
-17.208742141723633
 31
0.0
  0
LINE
  8
0
 10
-18.134475708007812
 20
-17.208742141723633
 30
0.0
 11
-17.983613967895508
 21
-17.366336822509766
 31
0.0
  0
LINE
  8
0
 10
-17.983613967895508
 20
-17.366336822509766
 30
0.0
 11
-17.83138084411621
 21
-17.52260971069336
 31
0.0
  0
LINE
  8
0
 10
-17.83138084411621
 20
-17.52260971069336
 30
0.0
 11
-17.677791595458984
 21
-17.677547454833984
 31
0.0
  0
LINE
  8
0
 10
-17.677791595458984
 20
-17.677547454833984
 30
0.0
 11
-17.522855758666992
 21
-17.831138610839844
 31
0.0
  0
LINE
  8
0
 10
-17.522855758666992
 20
-17.831138610839844
 30
0.0
 11
-17.36658477783203
 21
-17.983373641967773
 31
0.0
  0
LINE
  8
0
 10
-17.36658477783203
 20
-17.983373641967773
 30
0.0
 11
-17.20899200439453
 21
-18.13423728942871
 31
0.0
  0
LINE
  8
0
 10
-17.20899200439453
 20
-18.13423728942871
 30
0.0
 11
-17.05008888244629
 21
-18.283721923828125
 31
0.0
  0
LINE
  8
0
 10
-17.05008888244629
 20
-18.283721923828125
 30
0.0
 11
-16.8898868560791
 21
-18.431812286376953
 31
0.0
  0
LINE
  8
0
 10
-16.8898868560791
 20
-18.431812286376953
 30
0.0
 11
-16.7283992767334
 21
-18.57849884033203
 31
0.0
  0
LINE
  8
0
 10
-16.7283992767334
 20
-18.57849884033203
 30
0.0
 11
-16.565637588500977
 21
-18.723772048950195
 31
0.0
  0
LINE
  8
0
 10
-16.565637588500977
 20
-18.723772048950195
 30
0.0
 11
-16.401615142822266
 21
-18.867618560791016
 31
0.0
  0
LINE
  8
0
 10
-16.401615142822266
 20
-18.867618560791016
 30
0.0
 11
-16.23634147644043
 21
-19.010028839111328
 31
0.0
  0
LINE
  8
0
 10
-16.23634147644043
 20
-19.010028839111328
 30
0.0
 11
-16.06983184814453
 21
-19.150991439819336
 31
0.0
  0
LINE
  8
0
 10
-16.06983184814453
 20
-19.150991439819336
 30
0.0
 11
-15.902098655700684
 21
-19.290496826171875
 31
0.0
  0
LINE
  8
0
 10
-15.902098655700684
 20
-19.290496826171875
 30
0.0
 11
-15.733155250549316
 21
-19.428529739379883
 31
0.0
  0
LINE
  8
0
 10
-15.733155250549316
 20
-19.428529739379883
 30
0.0
 11
-15.563014030456543
 21
-19.565086364746094
 31
0.0
  0
LINE
  8
0
 10
-15.563014030456543
 20
-19.565086364746094
 30
0.0
 11
-15.39168643951416
 21
-19.700151443481445
 31
0.0
  0
LINE
  8
0
 10
-15.39168643951416
 20
-19.700151443481445
 30
0.0
 11
-15.21918773651123
 21
-19.833717346191406
 31
0.0
  0
LINE
  8
0
 10
-15.21918773651123
 20
-19.833717346191406
 30
0.0
 11
-15.04552936553955
 21
-19.96577262878418
 31
0.0
  0
LINE
  8
0
 10
-15.04552936553955
 20
-19.96577262878418
 30
0.0
 11
-14.870725631713867
 21
-20.09630584716797
 31
0.0
  0
LINE
  8
0
 10
-14.870725631713867
 20
-20.09630584716797
 30
0.0
 11
-14.694788932800293
 21
-20.225311279296875
 31
0.0
  0
LINE
  8
0
 10
-14.694788932800293
 20
-20.225311279296875
 30
0.0
 11
-14.517733573913574
 21
-20.352773666381836
 31
0.0
  0
LINE
  8
0
 10
-14.517733573913574
 20
-20.352773666381836
 30
0.0
 11
-14.339571952819824
 21
-20.478687286376953
 31
0.0
  0
LINE
  8
0
 10
-14.339571952819824
 20
-20.478687286376953
 30
0.0
 11
-14.160320281982422
 21
-20.603042602539062
 31
0.0
  0
LINE
  8
0
 10
-14.160320281982422
 20
-20.603042602539062
 30
0.0
 11
-13.979988098144531
 21
-20.725826263427734
 31
0.0
  0
LINE
  8
0
 10
-13.979988098144531
 20
-20.725826263427734
 30
0.0
 11
-13.798592567443848
 21
-20.847034454345703
 31
0.0
  0
LINE
  8
0
 10
-13.798592567443848
 20
-20.847034454345703
 30
0.0
 11
-13.616146087646484
 21
-20.96665382385254
 31
0.0
  0
LINE
  8
0
 10
-13.616146087646484
 20
-20.96665382385254
 30
0.0
 11
-13.432662010192871
 21
-21.08467674255371
 31
0.0
  0
LINE
  8
0
 10
-13.432662010192871
 20
-21.08467674255371
 30
0.0
 11
-13.24815559387207
 21
-21.201093673706055
 31
0.0
  0
LINE
  8
0
 10
-13.24815559387207
 20
-21.201093673706055
 30
0.0
 11
-13.062639236450195
 21
-21.31589698791504
 31
0.0
  0
LINE
  8
0
 10
-13.062639236450195
 20
-21.31589698791504
 30
0.0
 11
-12.876129150390625
 21
-21.429075241088867
 31
0.0
  0
LINE
  8
0
 10
-12.876129150390625
 20
-21.429075241088867
 30
0.0
 11
-12.688638687133789
 21
-21.540624618530273
 31
0.0
  0
LINE
  8
0
 10
-12.688638687133789
 20
-21.540624618530273
 30
0.0
 11
-12.500182151794434
 21
-21.650529861450195
 31
0.0
  0
LINE
  8
0
 10
-12.500182151794434
 20
-21.650529861450195
 30
0.0
 11
-12.310771942138672
 21
-21.7587890625
 31
0.0
  0
LINE
  8
0
 10
-12.310771942138672
 20
-21.7587890625
 30
0.0
 11
-12.120426177978516
 21
-21.86539077758789
 31
0.0
  0
LINE
  8
0
 10
-12.120426177978516
 20
-21.86539077758789
 30
0.0
 11
-11.929156303405762
 21
-21.970325469970703
 31
0.0
  0
LINE
  8
0
 10
-11.929156303405762
 20
-21.970325469970703
 30
0.0
 11
-11.736978530883789
 21
-22.073589324951172
 31
0.0
  0
LINE
  8
0
 10
-11.736978530883789
 20
-22.073589324951172
 30
0.0
 11
-11.543907165527344
 21
-22.1751708984375
 31
0.0
  0
LINE
  8
0
 10
-11.543907165527344
 20
-22.1751708984375
 30
0.0
 11
-11.349955558776855
 21
-22.27506446838379
 31
0.0
  0
LINE
  8
0
 10
-11.349955558776855
 20
-22.27506446838379
 30
0.0
 11
-11.15514087677002
 21
-22.373262405395508
 31
0.0
  0
LINE
  8
0
 10
-11.15514087677002
 20
-22.373262405395508
 30
0.0
 11
-10.959476470947266
 21
-22.469755172729492
 31
0.0
  0
LINE
  8
0
 10
-10.959476470947266
 20
-22.469755172729492
 30
0.0
 11
-10.76297664642334
 21
-22.564537048339844
 31
0.0
  0
LINE
  8
0
 10
-10.76297664642334
 20
-22.564537048339844
 30
0.0
 11
-10.565657615661621
 21
-22.657602310180664
 31
0.0
  0
LINE
  8
0
 10
-10.565657615661621
 20
-22.657602310180664
 30
0.0
 11
-10.367534637451172
 21
-22.748939514160156
 31
0.0
  0
LINE
  8
0
 10
-10.367534637451172
 20
-22.748939514160156
 30
0.0
 11
-10.168621063232422
 21
-22.838544845581055
 31
0.0
  0
LINE
  8
0
 10
-10.168621063232422
 20
-22.838544845581055
 30
0.0
 11
-9.96893310546875
 21
-22.92641258239746
 31
0.0
  0
LINE
  8
0
 10
-9.96893310546875
 20
-22.92641258239746
 30
0.0
 11
-9.768487930297852
 21
-23.01253318786621
 31
0.0
  0
LINE
  8
0
 10
-9.768487930297852
 20
-23.01253318786621
 30
0.0
 11
-9.567296981811523
 21
-23.096900939941406
 31
0.0
  0
LINE
  8
0
 10
-9.567296981811523
 20
-23.096900939941406
 30
0.0
 11
-9.365377426147461
 21
-23.17951011657715
 31
0.0
  0
LINE
  8
0
 10
-9.365377426147461
 20
-23.17951011657715
 30
0.0
 11
-9.162745475769043
 21
-23.26035499572754
 31
0.0
  0
LINE
  8
0
 10
-9.162745475769043
 20
-23.26035499572754
 30
0.0
 11
-8.959415435791016
 21
-23.339427947998047
 31
0.0
  0
LINE
  8
0
 10
-8.959415435791016
 20
-23.339427947998047
 30
0.0
 11
-8.755402565002441
 21
-23.416723251342773
 31
0.0
  0
LINE
  8
0
 10
-8.755402565002441
 20
-23.416723251342773
 30
0.0
 11
-8.550724029541016
 21
-23.49223518371582
 31
0.0
  0
LINE
  8
0
 10
-8.550724029541016
 20
-23.49223518371582
 30
0.0
 11
-8.345394134521484
 21
-23.56595802307129
 31
0.0
  0
LINE
  8
0
 10
-8.345394134521484
 20
-23.56595802307129
 30
0.0
 11
-8.13942813873291
 21
-23.637887954711914
 31
0.0
  0
LINE
  8
0
 10
-8.13942813873291
 20
-23.637887954711914
 30
0.0
 11
-7.93284273147583
 21
-23.70801544189453
 31
0.0
  0
LINE
  8
0
 10
-7.93284273147583
 20
-23.70801544189453
 30
0.0
 11
-7.72565221786499
 21
-23.776338577270508
 31
0.0
  0
LINE
  8
0
 10
-7.72565221786499
 20
-23.776338577270508
 30
0.0
 11
-7.517874240875244
 21
-23.842851638793945
 31
0.0
  0
LINE
  8
0
 10
-7.517874240875244
 20
-23.842851638793945
 30
0.0
 11
-7.309524059295654
 21
-23.907548904418945
 31
0.0
  0
LINE
  8
0
 10
-7.309524059295654
 20
-23.907548904418945
 30
0.0
 11
-7.100616455078125
 21
-23.970422744750977
 31
0.0
  0
LINE
  8
0
 10
-7.100616455078125
 20
-23.970422744750977
 30
0.0
 11
-6.891168594360352
 21
-24.031475067138672
 31
0.0
  0
LINE
  8
0
 10
-6.891168594360352
 20
-24.031475067138672
 30
0.0
 11
-6.681196212768555
 21
-24.090694427490234
 31
0.0
  0
LINE
  8
0
 10
-6.681196212768555
 20
-24.090694427490234
 30
0.0
 11
-6.470714569091797
 21
-24.148080825805664
 31
0.0
  0
LINE
  8
0
 10
-6.470714569091797
 20
-24.148080825805664
 30
0.0
 11
-6.259740352630615
 21
-24.203628540039062
 31
0.0
  0
LINE
  8
0
 10
-6.259740352630615
 20
-24.203628540039062
 30
0.0
 11
-6.0482892990112305
 21
-24.257333755493164
 31
0.0
  0
LINE
  8
0
 10
-6.0482892990112305
 20
-24.257333755493164
 30
0.0
 11
-5.8363776206970215
 21
-24.309188842773438
 31
0.0
  0
LINE
  8
0
 10
-5.8363776206970215
 20
-24.309188842773438
 30
0.0
 11
-5.624021530151367
 21
-24.359195709228516
 31
0.0
  0
LINE
  8
0
 10
-5.624021530151367
 20
-24.359195709228516
 30
0.0
 11
-5.411237716674805
 21
-24.407344818115234
 31
0.0
  0
LINE
  8
0
 10
-5.411237716674805
 20
-24.407344818115234
 30
0.0
 11
-5.198040962219238
 21
-24.453636169433594
 31
0.0
  0
LINE
  8
0
 10
-5.198040962219238
 20
-24.453636169433594
 30
0.0
 11
-4.9844489097595215
 21
-24.498065948486328
 31
0.0
  0
LINE
  8
0
 10
-4.9844489097595215
 20
-24.498065948486328
 30
0.0
 11
-4.770476818084717
 21
-24.540630340576172
 31
0.0
  0
LINE
  8
0
 10
-4.770476818084717
 20
-24.540630340576172
 30
0.0
 11
-4.5561418533325195
 21
-24.58132553100586
 31
0.0
  0
LINE
  8
0
 10
-4.5561418533325195
 20
-24.58132553100586
 30
0.0
 11
-4.34145975112915
 21
-24.620147705078125
 31
0.0
  0
LINE
  8
0
 10
-4.34145975112915
 20
-24.620147705078125
 30
0.0
 11
-4.1264472007751465
 21
-24.65709686279297
 31
0.0
  0
LINE
  8
0
 10
-4.1264472007751465
 20
-24.65709686279297
 30
0.0
 11
-3.9111201763153076
 21
-24.692167282104492
 31
0.0
  0
LINE
  8
0
 10
-3.9111201763153076
 20
-24.692167282104492
 30
0.0
 11
-3.695495367050171
 21
-24.725358963012695
 31
0.0
  0
LINE
  8
0
 10
-3.695495367050171
 20
-24.725358963012695
 30
0.0
 11
-3.4795892238616943
 21
-24.75666618347168
 31
0.0
  0
LINE
  8
0
 10
-3.4795892238616943
 20
-24.75666618347168
 30
0.0
 11
-3.263417959213257
 21
-24.786087036132812
 31
0.0
  0
LINE
  8
0
 10
-3.263417959213257
 20
-24.786087036132812
 30
0.0
 11
-3.0469982624053955
 21
-24.813621520996094
 31
0.0
  0
LINE
  8
0
 10
-3.0469982624053955
 20
-24.813621520996094
 30
0.0
 11
-2.8303465843200684
 21
-24.839265823364258
 31
0.0
  0
LINE
  8
0
 10
-2.8303465843200684
 20
-24.839265823364258
 30
0.0
 11
-2.6134793758392334
 21
-24.863019943237305
 31
0.0
  0
LINE
  8
0
 10
-2.6134793758392334
 20
-24.863019943237305
 30
0.0
 11
-2.3964128494262695
 21
-24.88488006591797
 31
0.0
  0
LINE
  8
0
 10
-2.3964128494262695
 20
-24.88488006591797
 30
0.0
 11
-2.179164171218872
 21
-24.904844284057617
 31
0.0
  0
LINE
  8
0
 10
-2.179164171218872
 20
-24.904844284057617
 30
0.0
 11
-1.9617494344711304
 21
-24.92291259765625
 31
0.0
  0
LINE
  8
0
 10
-1.9617494344711304
 20
-24.92291259765625
 30
0.0
 11
-1.744185209274292
 21
-24.939083099365234
 31
0.0
  0
LINE
  8
0
 10
-1.744185209274292
 20
-24.939083099365234
 30
0.0
 11
-1.5264883041381836
 21
-24.953353881835938
 31
0.0
  0
LINE
  8
0
 10
-1.5264883041381836
 20
-24.953353881835938
 30
0.0
 11
-1.3086750507354736
 21
-24.96572494506836
 31
0.0
  0
LINE
  8
0
 10
-1.3086750507354736
 20
-24.96572494506836
 30
0.0
 11
-1.0907621383666992
 21
-24.976194381713867
 31
0.0
  0
LINE
  8
0
 10
-1.0907621383666992
 20
-24.976194381713867
 30
0.0
 11
-0.8727662563323975
 21
-24.984760284423828
 31
0.0
  0
LINE
  8
0
 10
-0.8727662563323975
 20
-24.984760284423828
 30
0.0
 11
-0.6547038555145264
 21
-24.991426467895508
 31
0.0
  0
LINE
  8
0
 10
-0.6547038555145264
 20
-24.991426467895508
 30
0.0
 11
-0.4365915358066559
 21
-24.996187210083008
 31
0.0
  0
LINE
  8
0
 10
-0.4365915358066559
 20
-24.996187210083008
 30
0.0
 11
-0.2184460610151291
 21
-24.999046325683594
 31
0.0
  0
LINE
  8
0
 10
-0.2184460610151291
 20
-24.999046325683594
 30
0.0
 11
-0.0002839167427737266
 21
-25.0
 31
0.0
  0
LINE
  8
0
 10
-0.0002839167427737266
 20
-25.0
 30
0.0
 11
0.21787823736667633
 21
-24.99905014038086
 31
0.0
  0
LINE
  8
0
 10
0.21787823736667633
 20
-24.99905014038086
 30
0.0
 11
0.4360238015651703
 21
-24.996196746826172
 31
0.0
  0
LINE
  8
0
 10
0.4360238015651703
 20
-24.996196746826172
 30
0.0
 11
0.6541361808776855
 21
-24.991439819335938
 31
0.0
  0
LINE
  8
0
 10
0.6541361808776855
 20
-24.991439819335938
 30
0.0
 11
0.872198760509491
 21
-24.98478126525879
 31
0.0
  0
LINE
  8
0
 10
0.872198760509491
 20
-24.98478126525879
 30
0.0
 11
1.090194821357727
 21
-24.97621726989746
 31
0.0
  0
LINE
  8
0
 10
1.090194821357727
 20
-24.97621726989746
 30
0.0
 11
1.3081079721450806
 21
-24.96575355529785
 31
0.0
  0
LINE
  8
0
 10
1.3081079721450806
 20
-24.96575355529785
 30
0.0
 11
1.5259214639663696
 21
-24.953388214111328
 31
0.0
  0
LINE
  8
0
 10
1.5259214639663696
 20
-24.953388214111328
 30
0.0
 11
1.7436187267303467
 21
-24.93912124633789
 31
0.0
  0
LINE
  8
0
 10
1.7436187267303467
 20
-24.93912124633789
 30
0.0
 11
1.9611831903457642
 21
-24.922956466674805
 31
0.0
  0
LINE
  8
0
 10
1.9611831903457642
 20
-24.922956466674805
 30
0.0
 11
2.178598403930664
 21
-24.90489387512207
 31
0.0
  0
LINE
  8
0
 10
2.178598403930664
 20
-24.90489387512207
 30
0.0
 11
2.3958475589752197
 21
-24.884933471679688
 31
0.0
  0
LINE
  8
0
 10
2.3958475589752197
 20
-24.884933471679688
 30
0.0
 11
2.612914562225342
 21
-24.863079071044922
 31
0.0
  0
LINE
  8
0
 10
2.612914562225342
 20
-24.863079071044922
 30
0.0
 11
2.829782247543335
 21
-24.83932876586914
 31
0.0
  0
LINE
  8
0
 10
2.829782247543335
 20
-24.83932876586914
 30
0.0
 11
3.0464346408843994
 21
-24.813690185546875
 31
0.0
  0
LINE
  8
0
 10
3.0464346408843994
 20
-24.813690185546875
 30
0.0
 11
3.262855052947998
 21
-24.786161422729492
 31
0.0
  0
LINE
  8
0
 10
3.262855052947998
 20
-24.786161422729492
 30
0.0
 11
3.4790265560150146
 21
-24.756744384765625
 31
0.0
  0
LINE
  8
0
 10
3.4790265560150146
 20
-24.756744384765625
 30
0.0
 11
3.6949336528778076
 21
-24.725440979003906
 31
0.0
  0
LINE
  8
0
 10
3.6949336528778076
 20
-24.725440979003906
 30
0.0
 11
3.9105594158172607
 21
-24.692256927490234
 31
0.0
  0
LINE
  8
0
 10
3.9105594158172607
 20
-24.692256927490234
 30
0.0
 11
4.125886917114258
 21
-24.65719223022461
 31
0.0
  0
LINE
  8
0
 10
4.125886917114258
 20
-24.65719223022461
 30
0.0
 11
4.340900421142578
 21
-24.62024688720703
 31
0.0
  0
LINE
  8
0
 10
4.340900421142578
 20
-24.62024688720703
 30
0.0
 11
4.555583477020264
 21
-24.58142852783203
 31
0.0
  0
LINE
  8
0
 10
4.555583477020264
 20
-24.58142852783203
 30
0.0
 11
4.769919395446777
 21
-24.540739059448242
 31
0.0
  0
LINE
  8
0
 10
4.769919395446777
 20
-24.540739059448242
 30
0.0
 11
4.983892440795898
 21
-24.498180389404297
 31
0.0
  0
LINE
  8
0
 10
4.983892440795898
 20
-24.498180389404297
 30
0.0
 11
5.197485446929932
 21
-24.453754425048828
 31
0.0
  0
LINE
  8
0
 10
5.197485446929932
 20
-24.453754425048828
 30
0.0
 11
5.4106831550598145
 21
-24.407468795776367
 31
0.0
  0
LINE
  8
0
 10
5.4106831550598145
 20
-24.407468795776367
 30
0.0
 11
5.623468399047852
 21
-24.359323501586914
 31
0.0
  0
LINE
  8
0
 10
5.623468399047852
 20
-24.359323501586914
 30
0.0
 11
5.835825443267822
 21
-24.309322357177734
 31
0.0
  0
LINE
  8
0
 10
5.835825443267822
 20
-24.309322357177734
 30
0.0
 11
6.047738552093506
 21
-24.257471084594727
 31
0.0
  0
LINE
  8
0
 10
6.047738552093506
 20
-24.257471084594727
 30
0.0
 11
6.259190082550049
 21
-24.203771591186523
 31
0.0
  0
LINE
  8
0
 10
6.259190082550049
 20
-24.203771591186523
 30
0.0
 11
6.470166206359863
 21
-24.148229598999023
 31
0.0
  0
LINE
  8
0
 10
6.470166206359863
 20
-24.148229598999023
 30
0.0
 11
6.6806488037109375
 21
-24.09084701538086
 31
0.0
  0
LINE
  8
0
 10
6.6806488037109375
 20
-24.09084701538086
 30
0.0
 11
6.890623092651367
 21
-24.031631469726562
 31
0.0
  0
LINE
  8
0
 10
6.890623092651367
 20
-24.031631469726562
 30
0.0
 11
7.100072383880615
 21
-23.9705867767334
 31
0.0
  0
LINE
  8
0
 10
7.100072383880615
 20
-23.9705867767334
 30
0.0
 11
7.308980941772461
 21
-23.907712936401367
 31
0.0
  0
LINE
  8
0
 10
7.308980941772461
 20
-23.907712936401367
 30
0.0
 11
7.517333507537842
 21
-23.843021392822266
 31
0.0
  0
LINE
  8
0
 10
7.517333507537842
 20
-23.843021392822266
 30
0.0
 11
7.7251129150390625
 21
-23.776514053344727
 31
0.0
  0
LINE
  8
0
 10
7.7251129150390625
 20
-23.776514053344727
 30
0.0
 11
7.9323039054870605
 21
-23.70819664001465
 31
0.0
  0
LINE
  8
0
 10
7.9323039054870605
 20
-23.70819664001465
 30
0.0
 11
8.138891220092773
 21
-23.638072967529297
 31
0.0
  0
LINE
  8
0
 10
8.138891220092773
 20
-23.638072967529297
 30
0.0
 11
8.344858169555664
 21
-23.566146850585938
 31
0.0
  0
LINE
  8
0
 10
8.344858169555664
 20
-23.566146850585938
 30
0.0
 11
8.550189971923828
 21
-23.492429733276367
 31
0.0
  0
LINE
  8
0
 10
8.550189971923828
 20
-23.492429733276367
 30
0.0
 11
8.754871368408203
 21
-23.416921615600586
 31
0.0
  0
LINE
  8
0
 10
8.754871368408203
 20
-23.416921615600586
 30
0.0
 11
8.958885192871094
 21
-23.339630126953125
 31
0.0
  0
LINE
  8
0
 10
8.958885192871094
 20
-23.339630126953125
 30
0.0
 11
9.162217140197754
 21
-23.260562896728516
 31
0.0
  0
LINE
  8
0
 10
9.162217140197754
 20
-23.260562896728516
 30
0.0
 11
9.364850997924805
 21
-23.179723739624023
 31
0.0
  0
LINE
  8
0
 10
9.364850997924805
 20
-23.179723739624023
 30
0.0
 11
9.5667724609375
 21
-23.097118377685547
 31
0.0
  0
LINE
  8
0
 10
9.5667724609375
 20
-23.097118377685547
 30
0.0
 11
9.767964363098145
 21
-23.012754440307617
 31
0.0
  0
LINE
  8
0
 10
9.767964363098145
 20
-23.012754440307617
 30
0.0
 11
9.968413352966309
 21
-22.926637649536133
 31
0.0
  0
LINE
  8
0
 10
9.968413352966309
 20
-22.926637649536133
 30
0.0
 11
10.168102264404297
 21
-22.838775634765625
 31
0.0
  0
LINE
  8
0
 10
10.168102264404297
 20
-22.838775634765625
 30
0.0
 11
10.36701774597168
 21
-22.749176025390625
 31
0.0
  0
LINE
  8
0
 10
10.36701774597168
 20
-22.749176025390625
 30
0.0
 11
10.565142631530762
 21
-22.657840728759766
 31
0.0
  0
LINE
  8
0
 10
10.565142631530762
 20
-22.657840728759766
 30
0.0
 11
10.76246452331543
 21
-22.564783096313477
 31
0.0
  0
LINE
  8
0
 10
10.76246452331543
 20
-22.564783096313477
 30
0.0
 11
10.958966255187988
 21
-22.470003128051758
 31
0.0
  0
LINE
  8
0
 10
10.958966255187988
 20
-22.470003128051758
 30
0.0
 11
11.154632568359375
 21
-22.373516082763672
 31
0.0
  0
LINE
  8
0
 10
11.154632568359375
 20
-22.373516082763672
 30
0.0
 11
11.34945011138916
 21
-22.27532196044922
 31
0.0
  0
LINE
  8
0
 10
11.34945011138916
 20
-22.27532196044922
 30
0.0
 11
11.543403625488281
 21
-22.175432205200195
 31
0.0
  0
LINE
  8
0
 10
11.543403625488281
 20
-22.175432205200195
 30
0.0
 11
11.73647689819336
 21
-22.073856353759766
 31
0.0
  0
LINE
  8
0
 10
11.73647689819336
 20
-22.073856353759766
 30
0.0
 11
11.928657531738281
 21
-21.970596313476562
 31
0.0
  0
LINE
  8
0
 10
11.928657531738281
 20
-21.970596313476562
 30
0.0
 11
12.119929313659668
 21
-21.865663528442383
 31
0.0
  0
LINE
  8
0
 10
12.119929313659668
 20
-21.865663528442383
 30
0.0
 11
12.310277938842773
 21
-21.75906753540039
 31
0.0
  0
LINE
  8
0
 10
12.310277938842773
 20
-21.75906753540039
 30
0.0
 11
12.499690055847168
 21
-21.650814056396484
 31
0.0
  0
LINE
  8
0
 10
12.499690055847168
 20
-21.650814056396484
 30
0.0
 11
12.688149452209473
 21
-21.540910720825195
 31
0.0
  0
LINE
  8
0
 10
12.688149452209473
 20
-21.540910720825195
 30
0.0
 11
12.875643730163574
 21
-21.42936897277832
 31
0.0
  0
LINE
  8
0
 10
12.875643730163574
 20
-21.42936897277832
 30
0.0
 11
13.062154769897461
 21
-21.316192626953125
 31
0.0
  0
LINE
  8
0
 10
13.062154769897461
 20
-21.316192626953125
 30
0.0
 11
13.247673034667969
 21
-21.20139503479004
 31
0.0
  0
LINE
  8
0
 10
13.247673034667969
 20
-21.20139503479004
 30
0.0
 11
13.432182312011719
 21
-21.08498191833496
 31
0.0
  0
LINE
  8
0
 10
13.432182312011719
 20
-21.08498191833496
 30
0.0
 11
13.615669250488281
 21
-20.966962814331055
 31
0.0
  0
LINE
  8
0
 10
13.615669250488281
 20
-20.966962814331055
 30
0.0
 11
13.79811954498291
 21
-20.847347259521484
 31
0.0
  0
LINE
  8
0
 10
13.79811954498291
 20
-20.847347259521484
 30
0.0
 11
13.979516983032227
 21
-20.726146697998047
 31
0.0
  0
LINE
  8
0
 10
13.979516983032227
 20
-20.726146697998047
 30
0.0
 11
14.159852027893066
 21
-20.603363037109375
 31
0.0
  0
LINE
  8
0
 10
14.159852027893066
 20
-20.603363037109375
 30
0.0
 11
14.339107513427734
 21
-20.479013442993164
 31
0.0
  0
LINE
  8
0
 10
14.339107513427734
 20
-20.479013442993164
 30
0.0
 11
14.517271041870117
 21
-20.353103637695312
 31
0.0
  0
LINE
  8
0
 10
14.517271041870117
 20
-20.353103637695312
 30
0.0
 11
14.694330215454102
 21
-20.225643157958984
 31
0.0
  0
LINE
  8
0
 10
14.694330215454102
 20
-20.225643157958984
 30
0.0
 11
14.870269775390625
 21
-20.09664535522461
 31
0.0
  0
LINE
  8
0
 10
14.870269775390625
 20
-20.09664535522461
 30
0.0
 11
15.045075416564941
 21
-19.966114044189453
 31
0.0
  0
LINE
  8
0
 10
15.045075416564941
 20
-19.966114044189453
 30
0.0
 11
15.21873664855957
 21
-19.834062576293945
 31
0.0
  0
LINE
  8
0
 10
15.21873664855957
 20
-19.834062576293945
 30
0.0
 11
15.391239166259766
 21
-19.700502395629883
 31
0.0
  0
LINE
  8
0
 10
15.391239166259766
 20
-19.700502395629883
 30
0.0
 11
15.562568664550781
 21
-19.565439224243164
 31
0.0
  0
LINE
  8
0
 10
15.562568664550781
 20
-19.565439224243164
 30
0.0
 11
15.732714653015137
 21
-19.42888832092285
 31
0.0
  0
LINE
  8
0
 10
15.732714653015137
 20
-19.42888832092285
 30
0.0
 11
15.901660919189453
 21
-19.290857315063477
 31
0.0
  0
LINE
  8
0
 10
15.901660919189453
 20
-19.290857315063477
 30
0.0
 11
16.06939697265625
 21
-19.151357650756836
 31
0.0
  0
LINE
  8
0
 10
16.06939697265625
 20
-19.151357650756836
 30
0.0
 11
16.23590850830078
 21
-19.01039695739746
 31
0.0
  0
LINE
  8
0
 10
16.23590850830078
 20
-19.01039695739746
 30
0.0
 11
16.401185989379883
 21
-18.867992401123047
 31
0.0
  0
LINE
  8
0
 10
16.401185989379883
 20
-18.867992401123047
 30
0.0
 11
16.565210342407227
 21
-18.724149703979492
 31
0.0
  0
LINE
  8
0
 10
16.565210342407227
 20
-18.724149703979492
 30
0.0
 11
16.727975845336914
 21
-18.578880310058594
 31
0.0
  0
LINE
  8
0
 10
16.727975845336914
 20
-18.578880310058594
 30
0.0
 11
16.889467239379883
 21
-18.43219566345215
 31
0.0
  0
LINE
  8
0
 10
16.889467239379883
 20
-18.43219566345215
 30
0.0
 11
17.049673080444336
 21
-18.284109115600586
 31
0.0
  0
LINE
  8
0
 10
17.049673080444336
 20
-18.284109115600586
 30
0.0
 11
17.208580017089844
 21
-18.134628295898438
 31
0.0
  0
LINE
  8
0
 10
17.208580017089844
 20
-18.134628295898438
 30
0.0
 11
17.36617660522461
 21
-17.983766555786133
 31
0.0
  0
LINE
  8
0
 10
17.36617660522461
 20
-17.983766555786133
 30
0.0
 11
17.522451400756836
 21
-17.8315372467041
 31
0.0
  0
LINE
  8
0
 10
17.522451400756836
 20
-17.8315372467041
 30
0.0
 11
17.677391052246094
 21
-17.677949905395508
 31
0.0
  0
LINE
  8
0
 10
17.677391052246094
 20
-17.677949905395508
 30
0.0
 11
17.830982208251953
 21
-17.523014068603516
 31
0.0
  0
LINE
  8
0
 10
17.830982208251953
 20
-17.523014068603516
 30
0.0
 11
17.983219146728516
 21
-17.366744995117188
 31
0.0
  0
LINE
  8
0
 10
17.983219146728516
 20
-17.366744995117188
 30
0.0
 11
18.134084701538086
 21
-17.20915412902832
 31
0.0
  0
LINE
  8
0
 10
18.134084701538086
 20
-17.20915412902832
 30
0.0
 11
18.2835693359375
 21
-17.050251007080078
 31
0.0
  0
LINE
  8
0
 10
18.2835693359375
 20
-17.050251007080078
 30
0.0
 11
18.43166160583496
 21
-16.890050888061523
 31
0.0
  0
LINE
  8
0
 10
18.43166160583496
 20
-16.890050888061523
 30
0.0
 11
18.578350067138672
 21
-16.72856330871582
 31
0.0
  0
LINE
  8
0
 10
18.578350067138672
 20
-16.72856330871582
 30
0.0
 11
18.72362518310547
 21
-16.56580352783203
 31
0.0
  0
LINE
  8
0
 10
18.72362518310547
 20
-16.56580352783203
 30
0.0
 11
18.867473602294922
 21
-16.40178108215332
 31
0.0
  0
LINE
  8
0
 10
18.867473602294922
 20
-16.40178108215332
 30
0.0
 11
19.009889602661133
 21
-16.23650550842285
 31
0.0
  0
LINE
  8
0
 10
19.009889602661133
 20
-16.23650550842285
 30
0.0
 11
19.15085220336914
 21
-16.069997787475586
 31
0.0
  0
LINE
  8
0
 10
19.15085220336914
 20
-16.069997787475586
 30
0.0
 11
19.29035758972168
 21
-15.902265548706055
 31
0.0
  0
LINE
  8
0
 10
19.29035758972168
 20
-15.902265548706055
 30
0.0
 11
19.428394317626953
 21
-15.73332405090332
 31
0.0
  0
LINE
  8
0
 10
19.428394317626953
 20
-15.73332405090332
 30
0.0
 11
19.564952850341797
 21
-15.563182830810547
 31
0.0
  0
LINE
  8
0
 10
19.564952850341797
 20
-15.563182830810547
 30
0.0
 11
19.70001983642578
 21
-15.391858100891113
 31
0.0
  0
LINE
  8
0
 10
19.70001983642578
 20
-15.391858100891113
 30
0.0
 11
19.833585739135742
 21
-15.219359397888184
 31
0.0
  0
LINE
  8
0
 10
19.833585739135742
 20
-15.219359397888184
 30
0.0
 11
19.965641021728516
 21
-15.04570198059082
 31
0.0
  0
LINE
  8
0
 10
19.965641021728516
 20
-15.04570198059082
 30
0.0
 11
20.096176147460938
 21
-14.87090015411377
 31
0.0
  0
LINE
  8
0
 10
20.096176147460938
 20
-14.87090015411377
 30
0.0
 11
20.225183486938477
 21
-14.694965362548828
 31
0.0
  0
LINE
  8
0
 10
20.225183486938477
 20
-14.694965362548828
 30
0.0
 11
20.35264778137207
 21
-14.517909049987793
 31
0.0
  0
LINE
  8
0
 10
20.35264778137207
 20
-14.517909049987793
 30
0.0
 11
20.47856330871582
 21
-14.339749336242676
 31
0.0
  0
LINE
  8
0
 10
20.47856330871582
 20
-14.339749336242676
 30
0.0
 11
20.60291862487793
 21
-14.160497665405273
 31
0.0
  0
LINE
  8
0
 10
20.60291862487793
 20
-14.160497665405273
 30
0.0
 11
20.725706100463867
 21
-13.980168342590332
 31
0.0
  0
LINE
  8
0
 10
20.725706100463867
 20
-13.980168342590332
 30
0.0
 11
20.84691619873047
 21
-13.798772811889648
 31
0.0
  0
LINE
  8
0
 10
20.84691619873047
 20
-13.798772811889648
 30
0.0
 11
20.966535568237305
 21
-13.616326332092285
 31
0.0
  0
LINE
  8
0
 10
20.966535568237305
 20
-13.616326332092285
 30
0.0
 11
21.08456039428711
 21
-13.432844161987305
 31
0.0
  0
LINE
  8
0
 10
21.08456039428711
 20
-13.432844161987305
 30
0.0
 11
21.200979232788086
 21
-13.248339653015137
 31
0.0
  0
LINE
  8
0
 10
21.200979232788086
 20
-13.248339653015137
 30
0.0
 11
21.31578254699707
 21
-13.062824249267578
 31
0.0
  0
LINE
  8
0
 10
21.31578254699707
 20
-13.062824249267578
 30
0.0
 11
21.42896270751953
 21
-12.876315116882324
 31
0.0
  0
LINE
  8
0
 10
21.42896270751953
 20
-12.876315116882324
 30
0.0
 11
21.54051399230957
 21
-12.688824653625488
 31
0.0
  0
LINE
  8
0
 10
21.54051399230957
 20
-12.688824653625488
 30
0.0
 11
21.650421142578125
 21
-12.500370025634766
 31
0.0
  0
LINE
  8
0
 10
21.650421142578125
 20
-12.500370025634766
 30
0.0
 11
21.758682250976562
 21
-12.31096076965332
 31
0.0
  0
LINE
  8
0
 10
21.758682250976562
 20
-12.31096076965332
 30
0.0
 11
21.865283966064453
 21
-12.12061595916748
 31
0.0
  0
LINE
  8
0
 10
21.865283966064453
 20
-12.12061595916748
 30
0.0
 11
21.97022247314453
 21
-11.929347038269043
 31
0.0
  0
LINE
  8
0
 10
21.97022247314453
 20
-11.929347038269043
 30
0.0
 11
22.073488235473633
 21
-11.737170219421387
 31
0.0
  0
LINE
  8
0
 10
22.073488235473633
 20
-11.737170219421387
 30
0.0
 11
22.17506980895996
 21
-11.544098854064941
 31
0.0
  0
LINE
  8
0
 10
22.17506980895996
 20
-11.544098854064941
 30
0.0
 11
22.274967193603516
 21
-11.350149154663086
 31
0.0
  0
LINE
  8
0
 10
22.274967193603516
 20
-11.350149154663086
 30
0.0
 11
22.373165130615234
 21
-11.15533447265625
 31
0.0
  0
LINE
  8
0
 10
22.373165130615234
 20
-11.15533447265625
 30
0.0
 11
22.46965980529785
 21
-10.959671020507812
 31
0.0
  0
LINE
  8
0
 10
22.46965980529785
 20
-10.959671020507812
 30
0.0
 11
22.564443588256836
 21
-10.763172149658203
 31
0.0
  0
LINE
  8
0
 10
22.564443588256836
 20
-10.763172149658203
 30
0.0
 11
22.657508850097656
 21
-10.5658540725708
 31
0.0
  0
LINE
  8
0
 10
22.657508850097656
 20
-10.5658540725708
 30
0.0
 11
22.74884796142578
 21
-10.367731094360352
 31
0.0
  0
LINE
  8
0
 10
22.74884796142578
 20
-10.367731094360352
 30
0.0
 11
22.838457107543945
 21
-10.168819427490234
 31
0.0
  0
LINE
  8
0
 10
22.838457107543945
 20
-10.168819427490234
 30
0.0
 11
22.926326751708984
 21
-9.969132423400879
 31
0.0
  0
LINE
  8
0
 10
22.926326751708984
 20
-9.969132423400879
 30
0.0
 11
23.012447357177734
 21
-9.768686294555664
 31
0.0
  0
LINE
  8
0
 10
23.012447357177734
 20
-9.768686294555664
 30
0.0
 11
23.096817016601562
 21
-9.567497253417969
 31
0.0
  0
LINE
  8
0
 10
23.096817016601562
 20
-9.567497253417969
 30
0.0
 11
23.17943000793457
 21
-9.365577697753906
 31
0.0
  0
LINE
  8
0
 10
23.17943000793457
 20
-9.365577697753906
 30
0.0
 11
23.260276794433594
 21
-9.162946701049805
 31
0.0
  0
LINE
  8
0
 10
23.260276794433594
 20
-9.162946701049805
 30
0.0
 11
23.3393497467041
 21
-8.959617614746094
 31
0.0
  0
LINE
  8
0
 10
23.3393497467041
 20
-8.959617614746094
 30
0.0
 11
23.41664695739746
 21
-8.755605697631836
 31
0.0
  0
LINE
  8
0
 10
23.41664695739746
 20
-8.755605697631836
 30
0.0
 11
23.492162704467773
 21
-8.55092716217041
 31
0.0
  0
LINE
  8
0
 10
23.492162704467773
 20
-8.55092716217041
 30
0.0
 11
23.565887451171875
 21
-8.345598220825195
 31
0.0
  0
LINE
  8
0
 10
23.565887451171875
 20
-8.345598220825195
 30
0.0
 11
23.637815475463867
 21
-8.139632225036621
 31
0.0
  0
LINE
  8
0
 10
23.637815475463867
 20
-8.139632225036621
 30
0.0
 11
23.70794677734375
 21
-7.933047294616699
 31
0.0
  0
LINE
  8
0
 10
23.70794677734375
 20
-7.933047294616699
 30
0.0
 11
23.77627182006836
 21
-7.725858688354492
 31
0.0
  0
LINE
  8
0
 10
23.77627182006836
 20
-7.725858688354492
 30
0.0
 11
23.84278678894043
 21
-7.518080711364746
 31
0.0
  0
LINE
  8
0
 10
23.84278678894043
 20
-7.518080711364746
 30
0.0
 11
23.907485961914062
 21
-7.3097310066223145
 31
0.0
  0
LINE
  8
0
 10
23.907485961914062
 20
-7.3097310066223145
 30
0.0
 11
23.970361709594727
 21
-7.100824356079102
 31
0.0
  0
LINE
  8
0
 10
23.970361709594727
 20
-7.100824356079102
 30
0.0
 11
24.031415939331055
 21
-6.891376495361328
 31
0.0
  0
LINE
  8
0
 10
24.031415939331055
 20
-6.891376495361328
 30
0.0
 11
24.09063720703125
 21
-6.681405067443848
 31
0.0
  0
LINE
  8
0
 10
24.09063720703125
 20
-6.681405067443848
 30
0.0
 11
24.148025512695312
 21
-6.470923900604248
 31
0.0
  0
LINE
  8
0
 10
24.148025512695312
 20
-6.470923900604248
 30
0.0
 11
24.203575134277344
 21
-6.259949684143066
 31
0.0
  0
LINE
  8
0
 10
24.203575134277344
 20
-6.259949684143066
 30
0.0
 11
24.257280349731445
 21
-6.048499584197998
 31
0.0
  0
LINE
  8
0
 10
24.257280349731445
 20
-6.048499584197998
 30
0.0
 11
24.309139251708984
 21
-5.836587905883789
 31
0.0
  0
LINE
  8
0
 10
24.309139251708984
 20
-5.836587905883789
 30
0.0
 11
24.359146118164062
 21
-5.624232292175293
 31
0.0
  0
LINE
  8
0
 10
24.359146118164062
 20
-5.624232292175293
 30
0.0
 11
24.407299041748047
 21
-5.4114484786987305
 31
0.0
  0
LINE
  8
0
 10
24.407299041748047
 20
-5.4114484786987305
 30
0.0
 11
24.45359230041504
 21
-5.1982526779174805
 31
0.0
  0
LINE
  8
0
 10
24.45359230041504
 20
-5.1982526779174805
 30
0.0
 11
24.498023986816406
 21
-4.984660625457764
 31
0.0
  0
LINE
  8
0
 10
24.498023986816406
 20
-4.984660625457764
 30
0.0
 11
24.540590286254883
 21
-4.770689487457275
 31
0.0
  0
LINE
  8
0
 10
24.540590286254883
 20
-4.770689487457275
 30
0.0
 11
24.58128547668457
 21
-4.556354522705078
 31
0.0
  0
LINE
  8
0
 10
24.58128547668457
 20
-4.556354522705078
 30
0.0
 11
24.6201114654541
 21
-4.341672897338867
 31
0.0
  0
LINE
  8
0
 10
24.6201114654541
 20
-4.341672897338867
 30
0.0
 11
24.657062530517578
 21
-4.126660346984863
 31
0.0
  0
LINE
  8
0
 10
24.657062530517578
 20
-4.126660346984863
 30
0.0
 11
24.6921329498291
 21
-3.9113337993621826
 31
0.0
  0
LINE
  8
0
 10
24.6921329498291
 20
-3.9113337993621826
 30
0.0
 11
24.725324630737305
 21
-3.695709228515625
 31
0.0
  0
LINE
  8
0
 10
24.725324630737305
 20
-3.695709228515625
 30
0.0
 11
24.756633758544922
 21
-3.4798033237457275
 31
0.0
  0
LINE
  8
0
 10
24.756633758544922
 20
-3.4798033237457275
 30
0.0
 11
24.78605842590332
 21
-3.2636325359344482
 31
0.0
  0
LINE
  8
0
 10
24.78605842590332
 20
-3.2636325359344482
 30
0.0
 11
24.813594818115234
 21
-3.047213077545166
 31
0.0
  0
LINE
  8
0
 10
24.813594818115234
 20
-3.047213077545166
 30
0.0
 11
24.83924102783203
 21
-2.830561637878418
 31
0.0
  0
LINE
  8
0
 10
24.83924102783203
 20
-2.830561637878418
 30
0.0
 11
24.86299705505371
 21
-2.613694429397583
 31
0.0
  0
LINE
  8
0
 10
24.86299705505371
 20
-2.613694429397583
 30
0.0
 11
24.884859085083008
 21
-2.3966283798217773
 31
0.0
  0
LINE
  8
0
 10
24.884859085083008
 20
-2.3966283798217773
 30
0.0
 11
24.90482521057129
 21
-2.17937970161438
 31
0.0
  0
LINE
  8
0
 10
24.90482521057129
 20
-2.17937970161438
 30
0.0
 11
24.922895431518555
 21
-1.9619650840759277
 31
0.0
  0
LINE
  8
0
 10
24.922895431518555
 20
-1.9619650840759277
 30
0.0
 11
24.939067840576172
 21
-1.7444010972976685
 31
0.0
  0
LINE
  8
0
 10
24.939067840576172
 20
-1.7444010972976685
 30
0.0
 11
24.953340530395508
 21
-1.5267043113708496
 31
0.0
  0
LINE
  8
0
 10
24.953340530395508
 20
-1.5267043113708496
 30
0.0
 11
24.96571159362793
 21
-1.3088911771774292
 31
0.0
  0
LINE
  8
0
 10
24.96571159362793
 20
-1.3088911771774292
 30
0.0
 11
24.97618293762207
 21
-1.0909785032272339
 31
0.0
  0
LINE
  8
0
 10
24.97618293762207
 20
-1.0909785032272339
 30
0.0
 11
24.984752655029297
 21
-0.8729825615882874
 31
0.0
  0
LINE
  8
0
 10
24.984752655029297
 20
-0.8729825615882874
 30
0.0
 11
24.99142074584961
 21
-0.654920220375061
 31
0.0
  0
LINE
  8
0
 10
24.99142074584961
 20
-0.654920220375061
 30
0.0
 11
24.996183395385742
 21
-0.4368079900741577
 31
0.0
  0
LINE
  8
0
 10
24.996183395385742
 20
-0.4368079900741577
 30
0.0
 11
24.999042510986328
 21
-0.21866250038146973
 31
0.0
  0
LINE
  8
0
 10
24.999042510986328
 20
-0.21866250038146973
 30
0.0
 11
25.0
 21
-0.0005003808764740825
 31
0.0
  0
LINE
  8
0
 10
25.0
 20
-0.0005003808764740825
 30
0.0
 11
24.999052047729492
 21
0.2176617980003357
 31
0.0
  0
LINE
  8
0
 10
24.999052047729492
 20
0.2176617980003357
 30
0.0
 11
24.99620246887207
 21
0.43580737709999084
 31
0.0
  0
LINE
  8
0
 10
24.99620246887207
 20
0.43580737709999084
 30
0.0
 11
24.99144744873047
 21
0.6539198160171509
 31
0.0
  0
LINE
  8
0
 10
24.99144744873047
 20
0.6539198160171509
 30
0.0
 11
24.98478889465332
 21
0.8719824552536011
 31
0.0
  0
LINE
  8
0
 10
24.98478889465332
 20
0.8719824552536011
 30
0.0
 11
24.976228713989258
 21
1.089978575706482
 31
0.0
  0
LINE
  8
0
 10
24.976228713989258
 20
1.089978575706482
 30
0.0
 11
24.96576499938965
 21
1.3078917264938354
 31
0.0
  0
LINE
  8
0
 10
24.96576499938965
 20
1.3078917264938354
 30
0.0
 11
24.953401565551758
 21
1.5257054567337036
 31
0.0
  0
LINE
  8
0
 10
24.953401565551758
 20
1.5257054567337036
 30
0.0
 11
24.939136505126953
 21
1.7434028387069702
 31
0.0
  0
LINE
  8
0
 10
24.939136505126953
 20
1.7434028387069702
 30
0.0
 11
24.9229736328125
 21
1.9609675407409668
 31
0.0
  0
LINE
  8
0
 10
24.9229736328125
 20
1.9609675407409668
 30
0.0
 11
24.9049129486084
 21
2.1783828735351562
 31
0.0
  0
LINE
  8
0
 10
24.9049129486084
 20
2.1783828735351562
 30
0.0
 11
24.88495445251465
 21
2.395632028579712
 31
0.0
  0
LINE
  8
0
 10
24.88495445251465
 20
2.395632028579712
 30
0.0
 11
24.863101959228516
 21
2.612699270248413
 31
0.0
  0
LINE
  8
0
 10
24.863101959228516
 20
2.612699270248413
 30
0.0
 11
24.83935546875
 21
2.8295671939849854
 31
0.0
  0
LINE
  8
0
 10
24.83935546875
 20
2.8295671939849854
 30
0.0
 11
24.813716888427734
 21
3.046219825744629
 31
0.0
  0
LINE
  8
0
 10
24.813716888427734
 20
3.046219825744629
 30
0.0
 11
24.786190032958984
 21
3.2626402378082275
 31
0.0
  0
LINE
  8
0
 10
24.786190032958984
 20
3.2626402378082275
 30
0.0
 11
24.75677490234375
 21
3.4788124561309814
 31
0.0
  0
LINE
  8
0
 10
24.75677490234375
 20
3.4788124561309814
 30
0.0
 11
24.725473403930664
 21
3.6947195529937744
 31
0.0
  0
LINE
  8
0
 10
24.725473403930664
 20
3.6947195529937744
 30
0.0
 11
24.692289352416992
 21
3.9103455543518066
 31
0.0
  0
LINE
  8
0
 10
24.692289352416992
 20
3.9103455543518066
 30
0.0
 11
24.6572265625
 21
4.125673294067383
 31
0.0
  0
LINE
  8
0
 10
24.6572265625
 20
4.125673294067383
 30
0.0
 11
24.620285034179688
 21
4.340687274932861
 31
0.0
  0
LINE
  8
0
 10
24.620285034179688
 20
4.340687274932861
 30
0.0
 11
24.58146858215332
 21
4.555370807647705
 31
0.0
  0
LINE
  8
0
 10
24.58146858215332
 20
4.555370807647705
 30
0.0
 11
24.540781021118164
 21
4.769707202911377
 31
0.0
  0
LINE
  8
0
 10
24.540781021118164
 20
4.769707202911377
 30
0.0
 11
24.49822235107422
 21
4.983680248260498
 31
0.0
  0
LINE
  8
0
 10
24.49822235107422
 20
4.983680248260498
 30
0.0
 11
24.453800201416016
 21
5.1972737312316895
 31
0.0
  0
LINE
  8
0
 10
24.453800201416016
 20
5.1972737312316895
 30
0.0
 11
24.407514572143555
 21
5.410471439361572
 31
0.0
  0
LINE
  8
0
 10
24.407514572143555
 20
5.410471439361572
 30
0.0
 11
24.359371185302734
 21
5.623257637023926
 31
0.0
  0
LINE
  8
0
 10
24.359371185302734
 20
5.623257637023926
 30
0.0
 11
24.309371948242188
 21
5.835615158081055
 31
0.0
  0
LINE
  8
0
 10
24.309371948242188
 20
5.835615158081055
 30
0.0
 11
24.257522583007812
 21
6.047528266906738
 31
0.0
  0
LINE
  8
0
 10
24.257522583007812
 20
6.047528266906738
 30
0.0
 11
24.203824996948242
 21
6.258980751037598
 31
0.0
  0
LINE
  8
0
 10
24.203824996948242
 20
6.258980751037598
 30
0.0
 11
24.148284912109375
 21
6.469956874847412
 31
0.0
  0
LINE
  8
0
 10
24.148284912109375
 20
6.469956874847412
 30
0.0
 11
24.090906143188477
 21
6.6804399490356445
 31
0.0
  0
LINE
  8
0
 10
24.090906143188477
 20
6.6804399490356445
 30
0.0
 11
24.03169059753418
 21
6.890414714813232
 31
0.0
  0
LINE
  8
0
 10
24.03169059753418
 20
6.890414714813232
 30
0.0
 11
23.97064781188965
 21
7.099864482879639
 31
0.0
  0
LINE
  8
0
 10
23.97064781188965
 20
7.099864482879639
 30
0.0
 11
23.907777786254883
 21
7.308773517608643
 31
0.0
  0
LINE
  8
0
 10
23.907777786254883
 20
7.308773517608643
 30
0.0
 11
23.843088150024414
 21
7.517126083374023
 31
0.0
  0
LINE
  8
0
 10
23.843088150024414
 20
7.517126083374023
 30
0.0
 11
23.776582717895508
 21
7.7249064445495605
 31
0.0
  0
LINE
  8
0
 10
23.776582717895508
 20
7.7249064445495605
 30
0.0
 11
23.70826530456543
 21
7.932098388671875
 31
0.0
  0
LINE
  8
0
 10
23.70826530456543
 20
7.932098388671875
 30
0.0
 11
23.63814353942871
 21
8.138686180114746
 31
0.0
  0
LINE
  8
0
 10
23.63814353942871
 20
8.138686180114746
 30
0.0
 11
23.566221237182617
 21
8.34465503692627
 31
0.0
  0
LINE
  8
0
 10
23.566221237182617
 20
8.34465503692627
 30
0.0
 11
23.492504119873047
 21
8.549986839294434
 31
0.0
  0
LINE
  8
0
 10
23.492504119873047
 20
8.549986839294434
 30
0.0
 11
23.4169979095459
 21
8.754668235778809
 31
0.0
  0
LINE
  8
0
 10
23.4169979095459
 20
8.754668235778809
 30
0.0
 11
23.33970832824707
 21
8.958683013916016
 31
0.0
  0
LINE
  8
0
 10
23.33970832824707
 20
8.958683013916016
 30
0.0
 11
23.260643005371094
 21
9.162015914916992
 31
0.0
  0
LINE
  8
0
 10
23.260643005371094
 20
9.162015914916992
 30
0.0
 11
23.1798038482666
 21
9.36465072631836
 31
0.0
  0
LINE
  8
0
 10
23.1798038482666
 20
9.36465072631836
 30
0.0
 11
23.097200393676758
 21
9.566572189331055
 31
0.0
  0
LINE
  8
0
 10
23.097200393676758
 20
9.566572189331055
 30
0.0
 11
23.01283836364746
 21
9.767765998840332
 31
0.0
  0
LINE
  8
0
 10
23.01283836364746
 20
9.767765998840332
 30
0.0
 11
22.92672348022461
 21
9.96821403503418
 31
0.0
  0
LINE
  8
0
 10
22.92672348022461
 20
9.96821403503418
 30
0.0
 11
22.838863372802734
 21
10.1679048538208
 31
0.0
  0
LINE
  8
0
 10
22.838863372802734
 20
10.1679048538208
 30
0.0
 11
22.749263763427734
 21
10.366820335388184
 31
0.0
  0
LINE
  8
0
 10
22.749263763427734
 20
10.366820335388184
 30
0.0
 11
22.65793228149414
 21
10.564947128295898
 31
0.0
  0
LINE
  8
0
 10
22.65793228149414
 20
10.564947128295898
 30
0.0
 11
22.56487464904785
 21
10.762269020080566
 31
0.0
  0
LINE
  8
0
 10
22.56487464904785
 20
10.762269020080566
 30
0.0
 11
22.4700984954834
 21
10.958771705627441
 31
0.0
  0
LINE
  8
0
 10
22.4700984954834
 20
10.958771705627441
 30
0.0
 11
22.373611450195312
 21
11.154438972473145
 31
0.0
  0
LINE
  8
0
 10
22.373611450195312
 20
11.154438972473145
 30
0.0
 11
22.275421142578125
 21
11.349257469177246
 31
0.0
  0
LINE
  8
0
 10
22.275421142578125
 20
11.349257469177246
 30
0.0
 11
22.175533294677734
 21
11.543210983276367
 31
0.0
  0
LINE
  8
0
 10
22.175533294677734
 20
11.543210983276367
 30
0.0
 11
22.073957443237305
 21
11.736286163330078
 31
0.0
  0
LINE
  8
0
 10
22.073957443237305
 20
11.736286163330078
 30
0.0
 11
21.970699310302734
 21
11.928467750549316
 31
0.0
  0
LINE
  8
0
 10
21.970699310302734
 20
11.928467750549316
 30
0.0
 11
21.86577033996582
 21
12.11974048614502
 31
0.0
  0
LINE
  8
0
 10
21.86577033996582
 20
12.11974048614502
 30
0.0
 11
21.759174346923828
 21
12.310090065002441
 31
0.0
  0
LINE
  8
0
 10
21.759174346923828
 20
12.310090065002441
 30
0.0
 11
21.650922775268555
 21
12.499502182006836
 31
0.0
  0
LINE
  8
0
 10
21.650922775268555
 20
12.499502182006836
 30
0.0
 11
21.5410213470459
 21
12.687963485717773
 31
0.0
  0
LINE
  8
0
 10
21.5410213470459
 20
12.687963485717773
 30
0.0
 11
21.429479598999023
 21
12.875456809997559
 31
0.0
  0
LINE
  8
0
 10
21.429479598999023
 20
12.875456809997559
 30
0.0
 11
21.316307067871094
 21
13.061970710754395
 31
0.0
  0
LINE
  8
0
 10
21.316307067871094
 20
13.061970710754395
 30
0.0
 11
21.201509475708008
 21
13.247489929199219
 31
0.0
  0
LINE
  8
0
 10
21.201509475708008
 20
13.247489929199219
 30
0.0
 11
21.085098266601562
 21
13.432000160217285
 31
0.0
  0
LINE
  8
0
 10
21.085098266601562
 20
13.432000160217285
 30
0.0
 11
20.96708106994629
 21
13.615487098693848
 31
0.0
  0
LINE
  8
0
 10
20.96708106994629
 20
13.615487098693848
 30
0.0
 11
20.84746742248535
 21
13.79793930053711
 31
0.0
  0
LINE
  8
0
 10
20.84746742248535
 20
13.79793930053711
 30
0.0
 11
20.726266860961914
 21
13.979337692260742
 31
0.0
  0
LINE
  8
0
 10
20.726266860961914
 20
13.979337692260742
 30
0.0
 11
20.603487014770508
 21
14.159673690795898
 31
0.0
  0
LINE
  8
0
 10
20.603487014770508
 20
14.159673690795898
 30
0.0
 11
20.479137420654297
 21
14.338930130004883
 31
0.0
  0
LINE
  8
0
 10
20.479137420654297
 20
14.338930130004883
 30
0.0
 11
20.353229522705078
 21
14.517095565795898
 31
0.0
  0
LINE
  8
0
 10
20.353229522705078
 20
14.517095565795898
 30
0.0
 11
20.225770950317383
 21
14.694154739379883
 31
0.0
  0
LINE
  8
0
 10
20.225770950317383
 20
14.694154739379883
 30
0.0
 11
20.096773147583008
 21
14.870095252990723
 31
0.0
  0
LINE
  8
0
 10
20.096773147583008
 20
14.870095252990723
 30
0.0
 11
19.966243743896484
 21
15.044901847839355
 31
0.0
  0
LINE
  8
0
 10
19.966243743896484
 20
15.044901847839355
 30
0.0
 11
19.83419418334961
 21
15.218564987182617
 31
0.0
  0
LINE
  8
0
 10
19.83419418334961
 20
15.218564987182617
 30
0.0
 11
19.700634002685547
 21
15.391068458557129
 31
0.0
  0
LINE
  8
0
 10
19.700634002685547
 20
15.391068458557129
 30
0.0
 11
19.565574645996094
 21
15.562399864196777
 31
0.0
  0
LINE
  8
0
 10
19.565574645996094
 20
15.562399864196777
 30
0.0
 11
19.429025650024414
 21
15.732545852661133
 31
0.0
  0
LINE
  8
0
 10
19.429025650024414
 20
15.732545852661133
 30
0.0
 11
19.290996551513672
 21
15.901494026184082
 31
0.0
  0
LINE
  8
0
 10
19.290996551513672
 20
15.901494026184082
 30
0.0
 11
19.15149688720703
 21
16.069231033325195
 31
0.0
  0
LINE
  8
0
 10
19.15149688720703
 20
16.069231033325195
 30
0.0
 11
19.010540008544922
 21
16.23574447631836
 31
0.0
  0
LINE
  8
0
 10
19.010540008544922
 20
16.23574447631836
 30
0.0
 11
18.868135452270508
 21
16.40102195739746
 31
0.0
  0
LINE
  8
0
 10
18.868135452270508
 20
16.40102195739746
 30
0.0
 11
18.724292755126953
 21
16.56505012512207
 31
0.0
  0
LINE
  8
0
 10
18.724292755126953
 20
16.56505012512207
 30
0.0
 11
18.579025268554688
 21
16.727815628051758
 31
0.0
  0
LINE
  8
0
 10
18.579025268554688
 20
16.727815628051758
 30
0.0
 11
18.432342529296875
 21
16.88930892944336
 31
0.0
  0
LINE
  8
0
 10
18.432342529296875
 20
16.88930892944336
 30
0.0
 11
18.284255981445312
 21
17.049514770507812
 31
0.0
  0
LINE
  8
0
 10
18.284255981445312
 20
17.049514770507812
 30
0.0
 11
18.134777069091797
 21
17.208423614501953
 31
0.0
  0
LINE
  8
0
 10
18.134777069091797
 20
17.208423614501953
 30
0.0
 11
17.983917236328125
 21
17.36602020263672
 31
0.0
  0
LINE
  8
0
 10
17.983917236328125
 20
17.36602020263672
 30
0.0
 11
17.831689834594727
 21
17.522296905517578
 31
0.0
  0
LINE
  8
0
 10
17.831689834594727
 20
17.522296905517578
 30
0.0
 11
17.6781005859375
 21
17.677236557006836
 31
0.0
  0
LINE
  8
0
 10
17.6781005859375
 20
17.677236557006836
 30
0.0
 11
17.523168563842773
 21
17.83083152770996
 31
0.0
  0
LINE
  8
0
 10
17.523168563842773
 20
17.83083152770996
 30
0.0
 11
17.366901397705078
 21
17.983068466186523
 31
0.0
  0
LINE
  8
0
 10
17.366901397705078
 20
17.983068466186523
 30
0.0
 11
17.20931053161621
 21
18.133935928344727
 31
0.0
  0
LINE
  8
0
 10
17.20931053161621
 20
18.133935928344727
 30
0.0
 11
17.0504093170166
 21
18.283422470092773
 31
0.0
  0
LINE
  8
0
 10
17.0504093170166
 20
18.283422470092773
 30
0.0
 11
16.89021110534668
 21
18.431516647338867
 31
0.0
  0
LINE
  8
0
 10
16.89021110534668
 20
18.431516647338867
 30
0.0
 11
16.72872543334961
 21
18.578205108642578
 31
0.0
  0
LINE
  8
0
 10
16.72872543334961
 20
18.578205108642578
 30
0.0
 11
16.56596565246582
 21
18.723482131958008
 31
0.0
  0
LINE
  8
0
 10
16.56596565246582
 20
18.723482131958008
 30
0.0
 11
16.401945114135742
 21
18.867332458496094
 31
0.0
  0
LINE
  8
0
 10
16.401945114135742
 20
18.867332458496094
 30
0.0
 11
16.236675262451172
 21
19.00974464416504
 31
0.0
  0
LINE
  8
0
 10
16.236675262451172
 20
19.00974464416504
 30
0.0
 11
16.070167541503906
 21
19.150711059570312
 31
0.0
  0
LINE
  8
0
 10
16.070167541503906
 20
19.150711059570312
 30
0.0
 11
15.902437210083008
 21
19.29021644592285
 31
0.0
  0
LINE
  8
0
 10
15.902437210083008
 20
19.29021644592285
 30
0.0
 11
15.73349666595459
 21
19.428255081176758
 31
0.0
  0
LINE
  8
0
 10
15.73349666595459
 20
19.428255081176758
 30
0.0
 11
15.563356399536133
 21
19.5648136138916
 31
0.0
  0
LINE
  8
0
 10
15.563356399536133
 20
19.5648136138916
 30
0.0
 11
15.392032623291016
 21
19.69988250732422
 31
0.0
  0
LINE
  8
0
 10
15.392032623291016
 20
19.69988250732422
 30
0.0
 11
15.219534873962402
 21
19.833450317382812
 31
0.0
  0
LINE
  8
0
 10
15.219534873962402
 20
19.833450317382812
 30
0.0
 11
15.045879364013672
 21
19.96550750732422
 31
0.0
  0
LINE
  8
0
 10
15.045879364013672
 20
19.96550750732422
 30
0.0
 11
14.871078491210938
 21
20.096046447753906
 31
0.0
  0
LINE
  8
0
 10
14.871078491210938
 20
20.096046447753906
 30
0.0
 11
14.695143699645996
 21
20.225051879882812
 31
0.0
  0
LINE
  8
0
 10
14.695143699645996
 20
20.225051879882812
 30
0.0
 11
14.518091201782227
 21
20.35251808166504
 31
0.0
  0
LINE
  8
0
 10
14.518091201782227
 20
20.35251808166504
 30
0.0
 11
14.339932441711426
 21
20.478435516357422
 31
0.0
  0
LINE
  8
0
 10
14.339932441711426
 20
20.478435516357422
 30
0.0
 11
14.160680770874023
 21
20.602794647216797
 31
0.0
  0
LINE
  8
0
 10
14.160680770874023
 20
20.602794647216797
 30
0.0
 11
13.980352401733398
 21
20.725582122802734
 31
0.0
  0
LINE
  8
0
 10
13.980352401733398
 20
20.725582122802734
 30
0.0
 11
13.798957824707031
 21
20.846792221069336
 31
0.0
  0
LINE
  8
0
 10
13.798957824707031
 20
20.846792221069336
 30
0.0
 11
13.616514205932617
 21
20.966415405273438
 31
0.0
  0
LINE
  8
0
 10
13.616514205932617
 20
20.966415405273438
 30
0.0
 11
13.433032035827637
 21
21.084442138671875
 31
0.0
  0
LINE
  8
0
 10
13.433032035827637
 20
21.084442138671875
 30
0.0
 11
13.248527526855469
 21
21.20086097717285
 31
0.0
  0
LINE
  8
0
 10
13.248527526855469
 20
21.20086097717285
 30
0.0
 11
13.063013076782227
 21
21.31566619873047
 31
0.0
  0
LINE
  8
0
 10
13.063013076782227
 20
21.31566619873047
 30
0.0
 11
12.876505851745605
 21
21.428850173950195
 31
0.0
  0
LINE
  8
0
 10
12.876505851745605
 20
21.428850173950195
 30
0.0
 11
12.689016342163086
 21
21.5403995513916
 31
0.0
  0
LINE
  8
0
 10
12.689016342163086
 20
21.5403995513916
 30
0.0
 11
12.500561714172363
 21
21.650310516357422
 31
0.0
  0
LINE
  8
0
 10
12.500561714172363
 20
21.650310516357422
 30
0.0
 11
12.31115436553955
 21
21.758573532104492
 31
0.0
  0
LINE
  8
0
 10
12.31115436553955
 20
21.758573532104492
 30
0.0
 11
12.120810508728027
 21
21.865177154541016
 31
0.0
  0
LINE
  8
0
 10
12.120810508728027
 20
21.865177154541016
 30
0.0
 11
11.929542541503906
 21
21.970117568969727
 31
0.0
  0
LINE
  8
0
 10
11.929542541503906
 20
21.970117568969727
 30
0.0
 11
11.73736572265625
 21
22.073383331298828
 31
0.0
  0
LINE
  8
0
 10
11.73736572265625
 20
22.073383331298828
 30
0.0
 11
11.544296264648438
 21
22.174968719482422
 31
0.0
  0
LINE
  8
0
 10
11.544296264648438
 20
22.174968719482422
 30
0.0
 11
11.350347518920898
 21
22.274866104125977
 31
0.0
  0
LINE
  8
0
 10
11.350347518920898
 20
22.274866104125977
 30
0.0
 11
11.155533790588379
 21
22.373065948486328
 31
0.0
  0
LINE
  8
0
 10
11.155533790588379
 20
22.373065948486328
 30
0.0
 11
10.959870338439941
 21
22.469562530517578
 31
0.0
  0
LINE
  8
0
 10
10.959870338439941
 20
22.469562530517578
 30
0.0
 11
10.763373374938965
 21
22.564348220825195
 31
0.0
  0
LINE
  8
0
 10
10.763373374938965
 20
22.564348220825195
 30
0.0
 11
10.566055297851562
 21
22.65741539001465
 31
0.0
  0
LINE
  8
0
 10
10.566055297851562
 20
22.65741539001465
 30
0.0
 11
10.36793327331543
 21
22.748756408691406
 31
0.0
  0
LINE
  8
0
 10
10.36793327331543
 20
22.748756408691406
 30
0.0
 11
10.169022560119629
 21
22.83836555480957
 31
0.0
  0
LINE
  8
0
 10
10.169022560119629
 20
22.83836555480957
 30
0.0
 11
9.96933650970459
 21
22.926237106323242
 31
0.0
  0
LINE
  8
0
 10
9.96933650970459
 20
22.926237106323242
 30
0.0
 11
9.768891334533691
 21
23.012361526489258
 31
0.0
  0
LINE
  8
0
 10
9.768891334533691
 20
23.012361526489258
 30
0.0
 11
9.567702293395996
 21
23.09673309326172
 31
0.0
  0
LINE
  8
0
 10
9.567702293395996
 20
23.09673309326172
 30
0.0
 11
9.365784645080566
 21
23.179346084594727
 31
0.0
  0
LINE
  8
0
 10
9.365784645080566
 20
23.179346084594727
 30
0.0
 11
9.163153648376465
 21
23.260194778442383
 31
0.0
  0
LINE
  8
0
 10
9.163153648376465
 20
23.260194778442383
 30
0.0
 11
8.95982551574707
 21
23.339269638061523
 31
0.0
  0
LINE
  8
0
 10
8.95982551574707
 20
23.339269638061523
 30
0.0
 11
8.755814552307129
 21
23.41657066345215
 31
0.0
  0
LINE
  8
0
 10
8.755814552307129
 20
23.41657066345215
 30
0.0
 11
8.551136016845703
 21
23.49208641052246
 31
0.0
  0
LINE
  8
0
 10
8.551136016845703
 20
23.49208641052246
 30
0.0
 11
8.345807075500488
 21
23.565813064575195
 31
0.0
  0
LINE
  8
0
 10
8.345807075500488
 20
23.565813064575195
 30
0.0
 11
8.139842987060547
 21
23.637744903564453
 31
0.0
  0
LINE
  8
0
 10
8.139842987060547
 20
23.637744903564453
 30
0.0
 11
7.933258056640625
 21
23.707876205444336
 31
0.0
  0
LINE
  8
0
 10
7.933258056640625
 20
23.707876205444336
 30
0.0
 11
7.726070404052734
 21
23.776203155517578
 31
0.0
  0
LINE
  8
0
 10
7.726070404052734
 20
23.776203155517578
 30
0.0
 11
7.5182929039001465
 21
23.84272003173828
 31
0.0
  0
LINE
  8
0
 10
7.5182929039001465
 20
23.84272003173828
 30
0.0
 11
7.309943199157715
 21
23.907419204711914
 31
0.0
  0
LINE
  8
0
 10
7.309943199157715
 20
23.907419204711914
 30
0.0
 11
7.101037502288818
 21
23.970300674438477
 31
0.0
  0
LINE
  8
0
 10
7.101037502288818
 20
23.970300674438477
 30
0.0
 11
6.891590118408203
 21
24.031354904174805
 31
0.0
  0
LINE
  8
0
 10
6.891590118408203
 20
24.031354904174805
 30
0.0
 11
6.681618690490723
 21
24.090578079223633
 31
0.0
  0
LINE
  8
0
 10
6.681618690490723
 20
24.090578079223633
 30
0.0
 11
6.4711384773254395
 21
24.147968292236328
 31
0.0
  0
LINE
  8
0
 10
6.4711384773254395
 20
24.147968292236328
 30
0.0
 11
6.260164737701416
 21
24.203519821166992
 31
0.0
  0
LINE
  8
0
 10
6.260164737701416
 20
24.203519821166992
 30
0.0
 11
6.048715114593506
 21
24.257226943969727
 31
0.0
  0
LINE
  8
0
 10
6.048715114593506
 20
24.257226943969727
 30
0.0
 11
5.836804389953613
 21
24.309085845947266
 31
0.0
  0
LINE
  8
0
 10
5.836804389953613
 20
24.309085845947266
 30
0.0
 11
5.624449253082275
 21
24.35909652709961
 31
0.0
  0
LINE
  8
0
 10
5.624449253082275
 20
24.35909652709961
 30
0.0
 11
5.411665916442871
 21
24.407249450683594
 31
0.0
  0
LINE
  8
0
 10
5.411665916442871
 20
24.407249450683594
 30
0.0
 11
5.198470115661621
 21
24.45354652404785
 31
0.0
  0
LINE
  8
0
 10
5.198470115661621
 20
24.45354652404785
 30
0.0
 11
4.9848785400390625
 21
24.49798011779785
 31
0.0
  0
LINE
  8
0
 10
4.9848785400390625
 20
24.49798011779785
 30
0.0
 11
4.770907878875732
 21
24.540546417236328
 31
0.0
  0
LINE
  8
0
 10
4.770907878875732
 20
24.540546417236328
 30
0.0
 11
4.556573390960693
 21
24.58124542236328
 31
0.0
  0
LINE
  8
0
 10
4.556573390960693
 20
24.58124542236328
 30
0.0
 11
4.341891765594482
 21
24.620073318481445
 31
0.0
  0
LINE
  8
0
 10
4.341891765594482
 20
24.620073318481445
 30
0.0
 11
4.126880168914795
 21
24.657024383544922
 31
0.0
  0
LINE
  8
0
 10
4.126880168914795
 20
24.657024383544922
 30
0.0
 11
3.9115536212921143
 21
24.69209861755371
 31
0.0
  0
LINE
  8
0
 10
3.9115536212921143
 20
24.69209861755371
 30
0.0
 11
3.695929527282715
 21
24.725292205810547
 31
0.0
  0
LINE
  8
0
 10
3.695929527282715
 20
24.725292205810547
 30
0.0
 11
3.4800238609313965
 21
24.75660514831543
 31
0.0
  0
LINE
  8
0
 10
3.4800238609313965
 20
24.75660514831543
 30
0.0
 11
3.263853073120117
 21
24.786029815673828
 31
0.0
  0
LINE
  8
0
 10
3.263853073120117
 20
24.786029815673828
 30
0.0
 11
3.047433853149414
 21
24.813566207885742
 31
0.0
  0
LINE
  8
0
 10
3.047433853149414
 20
24.813566207885742
 30
0.0
 11
2.830782413482666
 21
24.839216232299805
 31
0.0
  0
LINE
  8
0
 10
2.830782413482666
 20
24.839216232299805
 30
0.0
 11
2.6139156818389893
 21
24.862974166870117
 31
0.0
  0
LINE
  8
0
 10
2.6139156818389893
 20
24.862974166870117
 30
0.0
 11
2.3968496322631836
 21
24.884836196899414
 31
0.0
  0
LINE
  8
0
 10
2.3968496322631836
 20
24.884836196899414
 30
0.0
 11
2.1796011924743652
 21
24.90480613708496
 31
0.0
  0
LINE
  8
0
 10
2.1796011924743652
 20
24.90480613708496
 30
0.0
 11
1.9621869325637817
 21
24.92287826538086
 31
0.0
  0
LINE
  8
0
 10
1.9621869325637817
 20
24.92287826538086
 30
0.0
 11
1.744623064994812
 21
24.939050674438477
 31
0.0
  0
LINE
  8
0
 10
1.744623064994812
 20
24.939050674438477
 30
0.0
 11
1.5269262790679932
 21
24.953327178955078
 31
0.0
  0
LINE
  8
0
 10
1.5269262790679932
 20
24.953327178955078
 30
0.0
 11
1.3091132640838623
 21
24.965700149536133
 31
0.0
  0
LINE
  8
0
 10
1.3091132640838623
 20
24.965700149536133
 30
0.0
 11
1.0912007093429565
 21
24.97617530822754
 31
0.0
  0
LINE
  8
0
 10
1.0912007093429565
 20
24.97617530822754
 30
0.0
 11
0.8732048869132996
 21
24.984745025634766
 31
0.0
  0
LINE
  8
0
 10
0.8732048869132996
 20
24.984745025634766
 30
0.0
 11
0.6551425457000732
 21
24.991413116455078
 31
0.0
  0
LINE
  8
0
 10
0.6551425457000732
 20
24.991413116455078
 30
0.0
 11
0.4370303750038147
 21
24.996179580688477
 31
0.0
  0
LINE
  8
0
 10
0.4370303750038147
 20
24.996179580688477
 30
0.0
 11
0.2188849300146103
 21
24.999042510986328
 31
0.0
  0
LINE
  8
0
 10
0.0
 20
25.0
 30
0.0
 11
0.2188849300146103
 21
24.999042510986328
 31
0.0
  0
LINE
  8
0
 10
0.0
 20
4.0
 30
0.0
 11
-0.034906141459941864
 21
3.999847650527954
 31
0.0
  0
LINE
  8
0
 10
-0.034906141459941864
 20
3.999847650527954
 30
0.0
 11
-0.06980962306261063
 21
3.9993908405303955
 31
0.0
  0
LINE
  8
0
 10
-0.06980962306261063
 20
3.9993908405303955
 30
0.0
 11
-0.10470779985189438
 21
3.998629331588745
 31
0.0
  0
LINE
  8
0
 10
-0.10470779985189438
 20
3.998629331588745
 30
0.0
 11
-0.13959798216819763
 21
3.997563362121582
 31
0.0
  0
LINE
  8
0
 10
-0.13959798216819763
 20
3.997563362121582
 30
0.0
 11
-0.17447754740715027
 21
3.9961929321289062
 31
0.0
  0
LINE
  8
0
 10
-0.17447754740715027
 20
3.9961929321289062
 30
0.0
 11
-0.209343820810318
 21
3.9945180416107178
 31
0.0
  0
LINE
  8
0
 10
-0.209343820810318
 20
3.9945180416107178
 30
0.0
 11
-0.2441941499710083
 21
3.992539167404175
 31
0.0
  0
LINE
  8
0
 10
-0.2441941499710083
 20
3.992539167404175
 30
0.0
 11
-0.2790258824825287
 21
3.9902563095092773
 31
0.0
  0
LINE
  8
0
 10
-0.2790258824825287
 20
3.9902563095092773
 30
0.0
 11
-0.31383639574050903
 21
3.9876692295074463
 31
0.0
  0
LINE
  8
0
 10
-0.31383639574050903
 20
3.9876692295074463
 30
0.0
 11
-0.34862297773361206
 21
3.984778881072998
 31
0.0
  0
LINE
  8
0
 10
-0.34862297773361206
 20
3.984778881072998
 30
0.0
 11
-0.38338303565979004
 21
3.9815847873687744
 31
0.0
  0
LINE
  8
0
 10
-0.38338303565979004
 20
3.9815847873687744
 30
0.0
 11
-0.4181138873100281
 21
3.9780876636505127
 31
0.0
  0
LINE
  8
0
 10
-0.4181138873100281
 20
3.9780876636505127
 30
0.0
 11
-0.45281291007995605
 21
3.974287509918213
 31
0.0
  0
LINE
  8
0
 10
-0.45281291007995605
 20
3.974287509918213
 30
0.0
 11
-0.4874774217605591
 21
3.970184564590454
 31
0.0
  0
LINE
  8
0
 10
-0.4874774217605591
 20
3.970184564590454
 30
0.0
 11
-0.5221048593521118
 21
3.9657795429229736
 31
0.0
  0
LINE
  8
0
 10
-0.5221048593521118
 20
3.9657795429229736
 30
0.0
 11
-0.5566924810409546
 21
3.9610722064971924
 31
0.0
  0
LINE
  8
0
 10
-0.5566924810409546
 20
3.9610722064971924
 30
0.0
 11
-0.5912376642227173
 21
3.9560635089874268
 31
0.0
  0
LINE
  8
0
 10
-0.5912376642227173
 20
3.9560635089874268
 30
0.0
 11
-0.6257379055023193
 21
3.9507534503936768
 31
0.0
  0
LINE
  8
0
 10
-0.6257379055023193
 20
3.9507534503936768
 30
0.0
 11
-0.6601904034614563
 21
3.9451425075531006
 31
0.0
  0
LINE
  8
0
 10
-0.6601904034614563
 20
3.9451425075531006
 30
0.0
 11
-0.6945927143096924
 21
3.9392309188842773
 31
0.0
  0
LINE
  8
0
 10
-0.6945927143096924
 20
3.9392309188842773
 30
0.0
 11
-0.7289420366287231
 21
3.9330196380615234
 31
0.0
  0
LINE
  8
0
 10
-0.7289420366287231
 20
3.9330196380615234
 30
0.0
 11
-0.7632359266281128
 21
3.926508665084839
 31
0.0
  0
LINE
  8
0
 10
-0.7632359266281128
 20
3.926508665084839
 30
0.0
 11
-0.7974716424942017
 21
3.919698715209961
 31
0.0
  0
LINE
  8
0
 10
-0.7974716424942017
 20
3.919698715209961
 30
0.0
 11
-0.8316466808319092
 21
3.912590503692627
 31
0.0
  0
LINE
  8
0
 10
-0.8316466808319092
 20
3.912590503692627
 30
0.0
 11
-0.8657583594322205
 21
3.905184030532837
 31
0.0
  0
LINE
  8
0
 10
-0.8657583594322205
 20
3.905184030532837
 30
0.0
 11
-0.8998041152954102
 21
3.8974802494049072
 31
0.0
  0
LINE
  8
0
 10
-0.8998041152954102
 20
3.8974802494049072
 30
0.0
 11
-0.9337813258171082
 21
3.889479637145996
 31
0.0
  0
LINE
  8
0
 10
-0.9337813258171082
 20
3.889479637145996
 30
0.0
 11
-0.9676874279975891
 21
3.881182909011841
 31
0.0
  0
LINE
  8
0
 10
-0.9676874279975891
 20
3.881182909011841
 30
0.0
 11
-1.0015199184417725
 21
3.8725905418395996
 31
0.0
  0
LINE
  8
0
 10
-1.0015199184417725
 20
3.8725905418395996
 30
0.0
 11
-1.0352760553359985
 21
3.8637032508850098
 31
0.0
  0
LINE
  8
0
 10
-1.0352760553359985
 20
3.8637032508850098
 30
0.0
 11
-1.068953514099121
 21
3.8545217514038086
 31
0.0
  0
LINE
  8
0
 10
-1.068953514099121
 20
3.8545217514038086
 30
0.0
 11
-1.102549433708191
 21
3.8450467586517334
 31
0.0
  0
LINE
  8
0
 10
-1.102549433708191
 20
3.8450467586517334
 30
0.0
 11
-1.136061429977417
 21
3.8352789878845215
 31
0.0
  0
LINE
  8
0
 10
-1.136061429977417
 20
3.8352789878845215
 30
0.0
 11
-1.1694868803024292
 21
3.825218915939331
 31
0.0
  0
LINE
  8
0
 10
-1.1694868803024292
 20
3.825218915939331
 30
0.0
 11
-1.202823281288147
 21
3.8148677349090576
 31
0.0
  0
LINE
  8
0
 10
-1.202823281288147
 20
3.8148677349090576
 30
0.0
 11
-1.2360681295394897
 21
3.8042259216308594
 31
0.0
  0
LINE
  8
0
 10
-1.2360681295394897
 20
3.8042259216308594
 30
0.0
 11
-1.2692188024520874
 21
3.793294668197632
 31
0.0
  0
LINE
  8
0
 10
-1.2692188024520874
 20
3.793294668197632
 30
0.0
 11
-1.3022727966308594
 21
3.782074213027954
 31
0.0
  0
LINE
  8
0
 10
-1.3022727966308594
 20
3.782074213027954
 30
0.0
 11
-1.3352277278900146
 21
3.770565986633301
 31
0.0
  0
LINE
  8
0
 10
-1.3352277278900146
 20
3.770565986633301
 30
0.0
 11
-1.3680808544158936
 21
3.75877046585083
 31
0.0
  0
LINE
  8
0
 10
-1.3680808544158936
 20
3.75877046585083
 30
0.0
 11
-1.4008299112319946
 21
3.7466886043548584
 31
0.0
  0
LINE
  8
0
 10
-1.4008299112319946
 20
3.7466886043548584
 30
0.0
 11
-1.4334721565246582
 21
3.7343215942382812
 31
0.0
  0
LINE
  8
0
 10
-1.4334721565246582
 20
3.7343215942382812
 30
0.0
 11
-1.4660053253173828
 21
3.721670150756836
 31
0.0
  0
LINE
  8
0
 10
-1.4660053253173828
 20
3.721670150756836
 30
0.0
 11
-1.4984267950057983
 21
3.708735227584839
 31
0.0
  0
LINE
  8
0
 10
-1.4984267950057983
 20
3.708735227584839
 30
0.0
 11
-1.5307341814041138
 21
3.6955180168151855
 31
0.0
  0
LINE
  8
0
 10
-1.5307341814041138
 20
3.6955180168151855
 30
0.0
 11
-1.5629249811172485
 21
3.6820192337036133
 31
0.0
  0
LINE
  8
0
 10
-1.5629249811172485
 20
3.6820192337036133
 30
0.0
 11
-1.5949968099594116
 21
3.6682400703430176
 31
0.0
  0
LINE
  8
0
 10
-1.5949968099594116
 20
3.6682400703430176
 30
0.0
 11
-1.6269471645355225
 21
3.654181480407715
 31
0.0
  0
LINE
  8
0
 10
-1.6269471645355225
 20
3.654181480407715
 30
0.0
 11
-1.6587735414505005
 21
3.6398448944091797
 31
0.0
  0
LINE
  8
0
 10
-1.6587735414505005
 20
3.6398448944091797
 30
0.0
 11
-1.6904736757278442
 21
3.6252307891845703
 31
0.0
  0
LINE
  8
0
 10
-1.6904736757278442
 20
3.6252307891845703
 30
0.0
 11
-1.7220450639724731
 21
3.6103408336639404
 31
0.0
  0
LINE
  8
0
 10
-1.7220450639724731
 20
3.6103408336639404
 30
0.0
 11
-1.7534853219985962
 21
3.5951757431030273
 31
0.0
  0
LINE
  8
0
 10
-1.7534853219985962
 20
3.5951757431030273
 30
0.0
 11
-1.7847920656204224
 21
3.5797371864318848
 31
0.0
  0
LINE
  8
0
 10
-1.7847920656204224
 20
3.5797371864318848
 30
0.0
 11
-1.815962791442871
 21
3.564025640487671
 31
0.0
  0
LINE
  8
0
 10
-1.815962791442871
 20
3.564025640487671
 30
0.0
 11
-1.846995234489441
 21
3.5480430126190186
 31
0.0
  0
LINE
  8
0
 10
-1.846995234489441
 20
3.5480430126190186
 30
0.0
 11
-1.8778871297836304
 21
3.531790018081665
 31
0.0
  0
LINE
  8
0
 10
-1.8778871297836304
 20
3.531790018081665
 30
0.0
 11
-1.9086359739303589
 21
3.515268087387085
 31
0.0
  0
LINE
  8
0
 10
-1.9086359739303589
 20
3.515268087387085
 30
0.0
 11
-1.939239263534546
 21
3.498478412628174
 31
0.0
  0
LINE
  8
0
 10
-1.939239263534546
 20
3.498478412628174
 30
0.0
 11
-1.9696950912475586
 21
3.4814224243164062
 31
0.0
  0
LINE
  8
0
 10
-1.9696950912475586
 20
3.4814224243164062
 30
0.0
 11
-2.0000009536743164
 21
3.4641010761260986
 31
0.0
  0
LINE
  8
0
 10
-2.0000009536743164
 20
3.4641010761260986
 30
0.0
 11
-2.0301544666290283
 21
3.4465160369873047
 31
0.0
  0
LINE
  8
0
 10
-2.0301544666290283
 20
3.4465160369873047
 30
0.0
 11
-2.0601532459259033
 21
3.428668737411499
 31
0.0
  0
LINE
  8
0
 10
-2.0601532459259033
 20
3.428668737411499
 30
0.0
 11
-2.0899951457977295
 21
3.410560131072998
 31
0.0
  0
LINE
  8
0
 10
-2.0899951457977295
 20
3.410560131072998
 30
0.0
 11
-2.119678020477295
 21
3.3921916484832764
 31
0.0
  0
LINE
  8
0
 10
-2.119678020477295
 20
3.3921916484832764
 30
0.0
 11
-2.1491994857788086
 21
3.373565196990967
 31
0.0
  0
LINE
  8
0
 10
-2.1491994857788086
 20
3.373565196990967
 30
0.0
 11
-2.1785571575164795
 21
3.3546814918518066
 31
0.0
  0
LINE
  8
0
 10
-2.1785571575164795
 20
3.3546814918518066
 30
0.0
 11
-2.207749128341675
 21
3.335542678833008
 31
0.0
  0
LINE
  8
0
 10
-2.207749128341675
 20
3.335542678833008
 30
0.0
 11
-2.2367727756500244
 21
3.3161494731903076
 31
0.0
  0
LINE
  8
0
 10
-2.2367727756500244
 20
3.3161494731903076
 30
0.0
 11
-2.2656261920928955
 21
3.296504020690918
 31
0.0
  0
LINE
  8
0
 10
-2.2656261920928955
 20
3.296504020690918
 30
0.0
 11
-2.294306993484497
 21
3.2766072750091553
 31
0.0
  0
LINE
  8
0
 10
-2.294306993484497
 20
3.2766072750091553
 30
0.0
 11
-2.322813034057617
 21
3.2564611434936523
 31
0.0
  0
LINE
  8
0
 10
-2.322813034057617
 20
3.2564611434936523
 30
0.0
 11
-2.351142168045044
 21
3.236067056655884
 31
0.0
  0
LINE
  8
0
 10
-2.351142168045044
 20
3.236067056655884
 30
0.0
 11
-2.3792924880981445
 21
3.215426445007324
 31
0.0
  0
LINE
  8
0
 10
-2.3792924880981445
 20
3.215426445007324
 30
0.0
 11
-2.407261371612549
 21
3.1945409774780273
 31
0.0
  0
LINE
  8
0
 10
-2.407261371612549
 20
3.1945409774780273
 30
0.0
 11
-2.435046911239624
 21
3.173412322998047
 31
0.0
  0
LINE
  8
0
 10
-2.435046911239624
 20
3.173412322998047
 30
0.0
 11
-2.4626471996307373
 21
3.1520419120788574
 31
0.0
  0
LINE
  8
0
 10
-2.4626471996307373
 20
3.1520419120788574
 30
0.0
 11
-2.4900598526000977
 21
3.130431652069092
 31
0.0
  0
LINE
  8
0
 10
-2.4900598526000977
 20
3.130431652069092
 30
0.0
 11
-2.5172829627990723
 21
3.1085827350616455
 31
0.0
  0
LINE
  8
0
 10
-2.5172829627990723
 20
3.1085827350616455
 30
0.0
 11
-2.54431414604187
 21
3.0864973068237305
 31
0.0
  0
LINE
  8
0
 10
-2.54431414604187
 20
3.0864973068237305
 30
0.0
 11
-2.5711517333984375
 21
3.064176559448242
 31
0.0
  0
LINE
  8
0
 10
-2.5711517333984375
 20
3.064176559448242
 30
0.0
 11
-2.5977935791015625
 21
3.0416226387023926
 31
0.0
  0
LINE
  8
0
 10
-2.5977935791015625
 20
3.0416226387023926
 30
0.0
 11
-2.624237537384033
 21
3.0188369750976562
 31
0.0
  0
LINE
  8
0
 10
-2.624237537384033
 20
3.0188369750976562
 30
0.0
 11
-2.650481700897217
 21
2.995821475982666
 31
0.0
  0
LINE
  8
0
 10
-2.650481700897217
 20
2.995821475982666
 30
0.0
 11
-2.6765239238739014
 21
2.9725780487060547
 31
0.0
  0
LINE
  8
0
 10
-2.6765239238739014
 20
2.9725780487060547
 30
0.0
 11
-2.702362298965454
 21
2.9491078853607178
 31
0.0
  0
LINE
  8
0
 10
-2.702362298965454
 20
2.9491078853607178
 30
0.0
 11
-2.727994918823242
 21
2.9254133701324463
 31
0.0
  0
LINE
  8
0
 10
-2.727994918823242
 20
2.9254133701324463
 30
0.0
 11
-2.753419876098633
 21
2.901495933532715
 31
0.0
  0
LINE
  8
0
 10
-2.753419876098633
 20
2.901495933532715
 30
0.0
 11
-2.778635025024414
 21
2.8773577213287354
 31
0.0
  0
LINE
  8
0
 10
-2.778635025024414
 20
2.8773577213287354
 30
0.0
 11
-2.8036386966705322
 21
2.8530001640319824
 31
0.0
  0
LINE
  8
0
 10
-2.8036386966705322
 20
2.8530001640319824
 30
0.0
 11
-2.8284287452697754
 21
2.828425645828247
 31
0.0
  0
LINE
  8
0
 10
-2.8284287452697754
 20
2.828425645828247
 30
0.0
 11
-2.85300350189209
 21
2.803635358810425
 31
0.0
  0
LINE
  8
0
 10
-2.85300350189209
 20
2.803635358810425
 30
0.0
 11
-2.8773608207702637
 21
2.7786319255828857
 31
0.0
  0
LINE
  8
0
 10
-2.8773608207702637
 20
2.7786319255828857
 30
0.0
 11
-2.901499032974243
 21
2.7534165382385254
 31
0.0
  0
LINE
  8
0
 10
-2.901499032974243
 20
2.7534165382385254
 30
0.0
 11
-2.9254164695739746
 21
2.7279915809631348
 31
0.0
  0
LINE
  8
0
 10
-2.9254164695739746
 20
2.7279915809631348
 30
0.0
 11
-2.949110984802246
 21
2.7023589611053467
 31
0.0
  0
LINE
  8
0
 10
-2.949110984802246
 20
2.7023589611053467
 30
0.0
 11
-2.972580909729004
 21
2.676520586013794
 31
0.0
  0
LINE
  8
0
 10
-2.972580909729004
 20
2.676520586013794
 30
0.0
 11
-2.9958245754241943
 21
2.6504783630371094
 31
0.0
  0
LINE
  8
0
 10
-2.9958245754241943
 20
2.6504783630371094
 30
0.0
 11
-3.0188400745391846
 21
2.624234199523926
 31
0.0
  0
LINE
  8
0
 10
-3.0188400745391846
 20
2.624234199523926
 30
0.0
 11
-3.041625499725342
 21
2.597790241241455
 31
0.0
  0
LINE
  8
0
 10
-3.041625499725342
 20
2.597790241241455
 30
0.0
 11
-3.0641794204711914
 21
2.57114839553833
 31
0.0
  0
LINE
  8
0
 10
-3.0641794204711914
 20
2.57114839553833
 30
0.0
 11
-3.0864999294281006
 21
2.5443108081817627
 31
0.0
  0
LINE
  8
0
 10
-3.0864999294281006
 20
2.5443108081817627
 30
0.0
 11
-3.1085855960845947
 21
2.5172793865203857
 31
0.0
  0
LINE
  8
0
 10
-3.1085855960845947
 20
2.5172793865203857
 30
0.0
 11
-3.130434274673462
 21
2.490056276321411
 31
0.0
  0
LINE
  8
0
 10
-3.130434274673462
 20
2.490056276321411
 30
0.0
 11
-3.1520447731018066
 21
2.462643623352051
 31
0.0
  0
LINE
  8
0
 10
-3.1520447731018066
 20
2.462643623352051
 30
0.0
 11
-3.173415184020996
 21
2.4350435733795166
 31
0.0
  0
LINE
  8
0
 10
-3.173415184020996
 20
2.4350435733795166
 30
0.0
 11
-3.1945438385009766
 21
2.4072577953338623
 31
0.0
  0
LINE
  8
0
 10
-3.1945438385009766
 20
2.4072577953338623
 30
0.0
 11
-3.2154290676116943
 21
2.379288911819458
 31
0.0
  0
LINE
  8
0
 10
-3.2154290676116943
 20
2.379288911819458
 30
0.0
 11
-3.236069679260254
 21
2.3511385917663574
 31
0.0
  0
LINE
  8
0
 10
-3.236069679260254
 20
2.3511385917663574
 30
0.0
 11
-3.2564637660980225
 21
2.3228094577789307
 31
0.0
  0
LINE
  8
0
 10
-3.2564637660980225
 20
2.3228094577789307
 30
0.0
 11
-3.2766098976135254
 21
2.2943031787872314
 31
0.0
  0
LINE
  8
0
 10
-3.2766098976135254
 20
2.2943031787872314
 30
0.0
 11
-3.296506404876709
 21
2.26562237739563
 31
0.0
  0
LINE
  8
0
 10
-3.296506404876709
 20
2.26562237739563
 30
0.0
 11
-3.3161520957946777
 21
2.236768960952759
 31
0.0
  0
LINE
  8
0
 10
-3.3161520957946777
 20
2.236768960952759
 30
0.0
 11
-3.335545063018799
 21
2.207745313644409
 31
0.0
  0
LINE
  8
0
 10
-3.335545063018799
 20
2.207745313644409
 30
0.0
 11
-3.3546841144561768
 21
2.178553342819214
 31
0.0
  0
LINE
  8
0
 10
-3.3546841144561768
 20
2.178553342819214
 30
0.0
 11
-3.3735673427581787
 21
2.149195909500122
 31
0.0
  0
LINE
  8
0
 10
-3.3735673427581787
 20
2.149195909500122
 30
0.0
 11
-3.3921937942504883
 21
2.1196746826171875
 31
0.0
  0
LINE
  8
0
 10
-3.3921937942504883
 20
2.1196746826171875
 30
0.0
 11
-3.410562038421631
 21
2.089992046356201
 31
0.0
  0
LINE
  8
0
 10
-3.410562038421631
 20
2.089992046356201
 30
0.0
 11
-3.4286704063415527
 21
2.060150146484375
 31
0.0
  0
LINE
  8
0
 10
-3.4286704063415527
 20
2.060150146484375
 30
0.0
 11
-3.4465177059173584
 21
2.030151605606079
 31
0.0
  0
LINE
  8
0
 10
-3.4465177059173584
 20
2.030151605606079
 30
0.0
 11
-3.4641027450561523
 21
1.9999982118606567
 31
0.0
  0
LINE
  8
0
 10
-3.4641027450561523
 20
1.9999982118606567
 30
0.0
 11
-3.4814236164093018
 21
1.9696927070617676
 31
0.0
  0
LINE
  8
0
 10
-3.4814236164093018
 20
1.9696927070617676
 30
0.0
 11
-3.4984796047210693
 21
1.9392369985580444
 31
0.0
  0
LINE
  8
0
 10
-3.4984796047210693
 20
1.9392369985580444
 30
0.0
 11
-3.5152690410614014
 21
1.908633828163147
 31
0.0
  0
LINE
  8
0
 10
-3.5152690410614014
 20
1.908633828163147
 30
0.0
 11
-3.5317909717559814
 21
1.877885103225708
 31
0.0
  0
LINE
  8
0
 10
-3.5317909717559814
 20
1.877885103225708
 30
0.0
 11
-3.548043727874756
 21
1.8469935655593872
 31
0.0
  0
LINE
  8
0
 10
-3.548043727874756
 20
1.8469935655593872
 30
0.0
 11
-3.5640265941619873
 21
1.815961241722107
 31
0.0
  0
LINE
  8
0
 10
-3.5640265941619873
 20
1.815961241722107
 30
0.0
 11
-3.579737663269043
 21
1.7847906351089478
 31
0.0
  0
LINE
  8
0
 10
-3.579737663269043
 20
1.7847906351089478
 30
0.0
 11
-3.5951764583587646
 21
1.7534842491149902
 31
0.0
  0
LINE
  8
0
 10
-3.5951764583587646
 20
1.7534842491149902
 30
0.0
 11
-3.6103413105010986
 21
1.7220441102981567
 31
0.0
  0
LINE
  8
0
 10
-3.6103413105010986
 20
1.7220441102981567
 30
0.0
 11
-3.6252312660217285
 21
1.690472960472107
 31
0.0
  0
LINE
  8
0
 10
-3.6252312660217285
 20
1.690472960472107
 30
0.0
 11
-3.639845132827759
 21
1.6587730646133423
 31
0.0
  0
LINE
  8
0
 10
-3.639845132827759
 20
1.6587730646133423
 30
0.0
 11
-3.654181718826294
 21
1.6269469261169434
 31
0.0
  0
LINE
  8
0
 10
-3.654181718826294
 20
1.6269469261169434
 30
0.0
 11
-3.6682400703430176
 21
1.5949968099594116
 31
0.0
  0
LINE
  8
0
 10
-3.6682400703430176
 20
1.5949968099594116
 30
0.0
 11
-3.6820192337036133
 21
1.5629252195358276
 31
0.0
  0
LINE
  8
0
 10
-3.6820192337036133
 20
1.5629252195358276
 30
0.0
 11
-3.6955177783966064
 21
1.530734658241272
 31
0.0
  0
LINE
  8
0
 10
-3.6955177783966064
 20
1.530734658241272
 30
0.0
 11
-3.7087349891662598
 21
1.498427391052246
 31
0.0
  0
LINE
  8
0
 10
-3.7087349891662598
 20
1.498427391052246
 30
0.0
 11
-3.7216696739196777
 21
1.4660061597824097
 31
0.0
  0
LINE
  8
0
 10
-3.7216696739196777
 20
1.4660061597824097
 30
0.0
 11
-3.734321117401123
 21
1.4334732294082642
 31
0.0
  0
LINE
  8
0
 10
-3.734321117401123
 20
1.4334732294082642
 30
0.0
 11
-3.7466881275177
 21
1.4008311033248901
 31
0.0
  0
LINE
  8
0
 10
-3.7466881275177
 20
1.4008311033248901
 30
0.0
 11
-3.7587697505950928
 21
1.3680824041366577
 31
0.0
  0
LINE
  8
0
 10
-3.7587697505950928
 20
1.3680824041366577
 30
0.0
 11
-3.7705652713775635
 21
1.3352293968200684
 31
0.0
  0
LINE
  8
0
 10
-3.7705652713775635
 20
1.3352293968200684
 30
0.0
 11
-3.782073497772217
 21
1.3022748231887817
 31
0.0
  0
LINE
  8
0
 10
-3.782073497772217
 20
1.3022748231887817
 30
0.0
 11
-3.7932937145233154
 21
1.2692210674285889
 31
0.0
  0
LINE
  8
0
 10
-3.7932937145233154
 20
1.2692210674285889
 30
0.0
 11
-3.804225206375122
 21
1.2360705137252808
 31
0.0
  0
LINE
  8
0
 10
-3.804225206375122
 20
1.2360705137252808
 30
0.0
 11
-3.8148670196533203
 21
1.2028260231018066
 31
0.0
  0
LINE
  8
0
 10
-3.8148670196533203
 20
1.2028260231018066
 30
0.0
 11
-3.8252182006835938
 21
1.1694897413253784
 31
0.0
  0
LINE
  8
0
 10
-3.8252182006835938
 20
1.1694897413253784
 30
0.0
 11
-3.835278034210205
 21
1.1360645294189453
 31
0.0
  0
LINE
  8
0
 10
-3.835278034210205
 20
1.1360645294189453
 30
0.0
 11
-3.845045804977417
 21
1.1025527715682983
 31
0.0
  0
LINE
  8
0
 10
-3.845045804977417
 20
1.1025527715682983
 30
0.0
 11
-3.854520797729492
 21
1.0689570903778076
 31
0.0
  0
LINE
  8
0
 10
-3.854520797729492
 20
1.0689570903778076
 30
0.0
 11
-3.8637022972106934
 21
1.0352799892425537
 31
0.0
  0
LINE
  8
0
 10
-3.8637022972106934
 20
1.0352799892425537
 30
0.0
 11
-3.872589588165283
 21
1.0015239715576172
 31
0.0
  0
LINE
  8
0
 10
-3.872589588165283
 20
1.0015239715576172
 30
0.0
 11
-3.8811819553375244
 21
0.9676917791366577
 31
0.0
  0
LINE
  8
0
 10
-3.8811819553375244
 20
0.9676917791366577
 30
0.0
 11
-3.8894786834716797
 21
0.9337858557701111
 31
0.0
  0
LINE
  8
0
 10
-3.8894786834716797
 20
0.9337858557701111
 30
0.0
 11
-3.897479295730591
 21
0.8998088240623474
 31
0.0
  0
LINE
  8
0
 10
-3.897479295730591
 20
0.8998088240623474
 30
0.0
 11
-3.9051830768585205
 21
0.865763247013092
 31
0.0
  0
LINE
  8
0
 10
-3.9051830768585205
 20
0.865763247013092
 30
0.0
 11
-3.9125893115997314
 21
0.8316517472267151
 31
0.0
  0
LINE
  8
0
 10
-3.9125893115997314
 20
0.8316517472267151
 30
0.0
 11
-3.9196977615356445
 21
0.7974769473075867
 31
0.0
  0
LINE
  8
0
 10
-3.9196977615356445
 20
0.7974769473075867
 30
0.0
 11
-3.9265077114105225
 21
0.7632413506507874
 31
0.0
  0
LINE
  8
0
 10
-3.9265077114105225
 20
0.7632413506507874
 30
0.0
 11
-3.933018684387207
 21
0.7289476990699768
 31
0.0
  0
LINE
  8
0
 10
-3.933018684387207
 20
0.7289476990699768
 30
0.0
 11
-3.939229965209961
 21
0.6945984959602356
 31
0.0
  0
LINE
  8
0
 10
-3.939229965209961
 20
0.6945984959602356
 30
0.0
 11
-3.945141315460205
 21
0.6601964235305786
 31
0.0
  0
LINE
  8
0
 10
-3.945141315460205
 20
0.6601964235305786
 30
0.0
 11
-3.9507524967193604
 21
0.6257440447807312
 31
0.0
  0
LINE
  8
0
 10
-3.9507524967193604
 20
0.6257440447807312
 30
0.0
 11
-3.9560625553131104
 21
0.5912440419197083
 31
0.0
  0
LINE
  8
0
 10
-3.9560625553131104
 20
0.5912440419197083
 30
0.0
 11
-3.961071252822876
 21
0.5566990375518799
 31
0.0
  0
LINE
  8
0
 10
-3.961071252822876
 20
0.5566990375518799
 30
0.0
 11
-3.9657785892486572
 21
0.5221115946769714
 31
0.0
  0
LINE
  8
0
 10
-3.9657785892486572
 20
0.5221115946769714
 30
0.0
 11
-3.970183849334717
 21
0.4874843955039978
 31
0.0
  0
LINE
  8
0
 10
-3.970183849334717
 20
0.4874843955039978
 30
0.0
 11
-3.9742865562438965
 21
0.4528200626373291
 31
0.0
  0
LINE
  8
0
 10
-3.9742865562438965
 20
0.4528200626373291
 30
0.0
 11
-3.9780867099761963
 21
0.4181212782859802
 31
0.0
  0
LINE
  8
0
 10
-3.9780867099761963
 20
0.4181212782859802
 30
0.0
 11
-3.981584072113037
 21
0.3833906352519989
 31
0.0
  0
LINE
  8
0
 10
-3.981584072113037
 20
0.3833906352519989
 30
0.0
 11
-3.9847781658172607
 21
0.3486308157444
 31
0.0
  0
LINE
  8
0
 10
-3.9847781658172607
 20
0.3486308157444
 30
0.0
 11
-3.987668752670288
 21
0.3138444125652313
 31
0.0
  0
LINE
  8
0
 10
-3.987668752670288
 20
0.3138444125652313
 30
0.0
 11
-3.99025559425354
 21
0.2790341377258301
 31
0.0
  0
LINE
  8
0
 10
-3.99025559425354
 20
0.2790341377258301
 30
0.0
 11
-3.9925386905670166
 21
0.2442025989294052
 31
0.0
  0
LINE
  8
0
 10
-3.9925386905670166
 20
0.2442025989294052
 30
0.0
 11
-3.9945178031921387
 21
0.20935246348381042
 31
0.0
  0
LINE
  8
0
 10
-3.9945178031921387
 20
0.20935246348381042
 30
0.0
 11
-3.996192455291748
 21
0.17448638379573822
 31
0.0
  0
LINE
  8
0
 10
-3.996192455291748
 20
0.17448638379573822
 30
0.0
 11
-3.997562885284424
 21
0.1396070271730423
 31
0.0
  0
LINE
  8
0
 10
-3.997562885284424
 20
0.1396070271730423
 30
0.0
 11
-3.998629093170166
 21
0.10471703857183456
 31
0.0
  0
LINE
  8
0
 10
-3.998629093170166
 20
0.10471703857183456
 30
0.0
 11
-3.9993906021118164
 21
0.06981907039880753
 31
0.0
  0
LINE
  8
0
 10
-3.9993906021118164
 20
0.06981907039880753
 30
0.0
 11
-3.999847650527954
 21
0.03491578251123428
 31
0.0
  0
LINE
  8
0
 10
-3.999847650527954
 20
0.03491578251123428
 30
0.0
 11
-4.0
 21
9.838734513323288e-06
 31
0.0
  0
LINE
  8
0
 10
-4.0
 20
9.838734513323288e-06
 30
0.0
 11
-3.999847888946533
 21
-0.03489610552787781
 31
0.0
  0
LINE
  8
0
 10
-3.999847888946533
 20
-0.03489610552787781
 30
0.0
 11
-3.9993908405303955
 21
-0.06979939341545105
 31
0.0
  0
LINE
  8
0
 10
-3.9993908405303955
 20
-0.06979939341545105
 30
0.0
 11
-3.998629570007324
 21
-0.10469736158847809
 31
0.0
  0
LINE
  8
0
 10
-3.998629570007324
 20
-0.10469736158847809
 30
0.0
 11
-3.997563600540161
 21
-0.13958735764026642
 31
0.0
  0
LINE
  8
0
 10
-3.997563600540161
 20
-0.13958735764026642
 30
0.0
 11
-3.9961934089660645
 21
-0.17446672916412354
 31
0.0
  0
LINE
  8
0
 10
-3.9961934089660645
 20
-0.17446672916412354
 30
0.0
 11
-3.994518756866455
 21
-0.20933280885219574
 31
0.0
  0
LINE
  8
0
 10
-3.994518756866455
 20
-0.20933280885219574
 30
0.0
 11
-3.992539882659912
 21
-0.24418295919895172
 31
0.0
  0
LINE
  8
0
 10
-3.992539882659912
 20
-0.24418295919895172
 30
0.0
 11
-3.9902570247650146
 21
-0.2790144979953766
 31
0.0
  0
LINE
  8
0
 10
-3.9902570247650146
 20
-0.2790144979953766
 30
0.0
 11
-3.9876701831817627
 21
-0.3138248026371002
 31
0.0
  0
LINE
  8
0
 10
-3.9876701831817627
 20
-0.3138248026371002
 30
0.0
 11
-3.9847798347473145
 21
-0.3486112058162689
 31
0.0
  0
LINE
  8
0
 10
-3.9847798347473145
 20
-0.3486112058162689
 30
0.0
 11
-3.98158597946167
 21
-0.3833710551261902
 31
0.0
  0
LINE
  8
0
 10
-3.98158597946167
 20
-0.3833710551261902
 30
0.0
 11
-3.978088855743408
 21
-0.4181016981601715
 31
0.0
  0
LINE
  8
0
 10
-3.978088855743408
 20
-0.4181016981601715
 30
0.0
 11
-3.9742889404296875
 21
-0.4528005123138428
 31
0.0
  0
LINE
  8
0
 10
-3.9742889404296875
 20
-0.4528005123138428
 30
0.0
 11
-3.970186233520508
 21
-0.48746487498283386
 31
0.0
  0
LINE
  8
0
 10
-3.970186233520508
 20
-0.48746487498283386
 30
0.0
 11
-3.9657812118530273
 21
-0.5220920443534851
 31
0.0
  0
LINE
  8
0
 10
-3.9657812118530273
 20
-0.5220920443534851
 30
0.0
 11
-3.961074113845825
 21
-0.5566795468330383
 31
0.0
  0
LINE
  8
0
 10
-3.961074113845825
 20
-0.5566795468330383
 30
0.0
 11
-3.9560654163360596
 21
-0.5912246108055115
 31
0.0
  0
LINE
  8
0
 10
-3.9560654163360596
 20
-0.5912246108055115
 30
0.0
 11
-3.9507553577423096
 21
-0.6257246136665344
 31
0.0
  0
LINE
  8
0
 10
-3.9507553577423096
 20
-0.6257246136665344
 30
0.0
 11
-3.9451446533203125
 21
-0.6601769924163818
 31
0.0
  0
LINE
  8
0
 10
-3.9451446533203125
 20
-0.6601769924163818
 30
0.0
 11
-3.9392333030700684
 21
-0.6945791244506836
 31
0.0
  0
LINE
  8
0
 10
-3.9392333030700684
 20
-0.6945791244506836
 30
0.0
 11
-3.9330222606658936
 21
-0.7289283275604248
 31
0.0
  0
LINE
  8
0
 10
-3.9330222606658936
 20
-0.7289283275604248
 30
0.0
 11
-3.926511526107788
 21
-0.7632220387458801
 31
0.0
  0
LINE
  8
0
 10
-3.926511526107788
 20
-0.7632220387458801
 30
0.0
 11
-3.91970157623291
 21
-0.7974576354026794
 31
0.0
  0
LINE
  8
0
 10
-3.91970157623291
 20
-0.7974576354026794
 30
0.0
 11
-3.912593364715576
 21
-0.8316324949264526
 31
0.0
  0
LINE
  8
0
 10
-3.912593364715576
 20
-0.8316324949264526
 30
0.0
 11
-3.9051871299743652
 21
-0.8657440543174744
 31
0.0
  0
LINE
  8
0
 10
-3.9051871299743652
 20
-0.8657440543174744
 30
0.0
 11
-3.8974835872650146
 21
-0.8997896313667297
 31
0.0
  0
LINE
  8
0
 10
-3.8974835872650146
 20
-0.8997896313667297
 30
0.0
 11
-3.8894832134246826
 21
-0.9337667226791382
 31
0.0
  0
LINE
  8
0
 10
-3.8894832134246826
 20
-0.9337667226791382
 30
0.0
 11
-3.8811867237091064
 21
-0.9676726460456848
 31
0.0
  0
LINE
  8
0
 10
-3.8811867237091064
 20
-0.9676726460456848
 30
0.0
 11
-3.8725943565368652
 21
-1.001504898071289
 31
0.0
  0
LINE
  8
0
 10
-3.8725943565368652
 20
-1.001504898071289
 30
0.0
 11
-3.8637073040008545
 21
-1.0352609157562256
 31
0.0
  0
LINE
  8
0
 10
-3.8637073040008545
 20
-1.0352609157562256
 30
0.0
 11
-3.8545260429382324
 21
-1.068938136100769
 31
0.0
  0
LINE
  8
0
 10
-3.8545260429382324
 20
-1.068938136100769
 30
0.0
 11
-3.8450512886047363
 21
-1.1025339365005493
 31
0.0
  0
LINE
  8
0
 10
-3.8450512886047363
 20
-1.1025339365005493
 30
0.0
 11
-3.8352835178375244
 21
-1.1360456943511963
 31
0.0
  0
LINE
  8
0
 10
-3.8352835178375244
 20
-1.1360456943511963
 30
0.0
 11
-3.825223922729492
 21
-1.169471025466919
 31
0.0
  0
LINE
  8
0
 10
-3.825223922729492
 20
-1.169471025466919
 30
0.0
 11
-3.8148727416992188
 21
-1.2028071880340576
 31
0.0
  0
LINE
  8
0
 10
-3.8148727416992188
 20
-1.2028071880340576
 30
0.0
 11
-3.8042314052581787
 21
-1.2360517978668213
 31
0.0
  0
LINE
  8
0
 10
-3.8042314052581787
 20
-1.2360517978668213
 30
0.0
 11
-3.793300151824951
 21
-1.2692023515701294
 31
0.0
  0
LINE
  8
0
 10
-3.793300151824951
 20
-1.2692023515701294
 30
0.0
 11
-3.7820799350738525
 21
-1.3022562265396118
 31
0.0
  0
LINE
  8
0
 10
-3.7820799350738525
 20
-1.3022562265396118
 30
0.0
 11
-3.770571708679199
 21
-1.335210919380188
 31
0.0
  0
LINE
  8
0
 10
-3.770571708679199
 20
-1.335210919380188
 30
0.0
 11
-3.7587766647338867
 21
-1.3680639266967773
 31
0.0
  0
LINE
  8
0
 10
-3.7587766647338867
 20
-1.3680639266967773
 30
0.0
 11
-3.746695041656494
 21
-1.4008127450942993
 31
0.0
  0
LINE
  8
0
 10
-3.746695041656494
 20
-1.4008127450942993
 30
0.0
 11
-3.734328269958496
 21
-1.4334548711776733
 31
0.0
  0
LINE
  8
0
 10
-3.734328269958496
 20
-1.4334548711776733
 30
0.0
 11
-3.72167706489563
 21
-1.4659878015518188
 31
0.0
  0
LINE
  8
0
 10
-3.72167706489563
 20
-1.4659878015518188
 30
0.0
 11
-3.708742380142212
 21
-1.4984091520309448
 31
0.0
  0
LINE
  8
0
 10
-3.708742380142212
 20
-1.4984091520309448
 30
0.0
 11
-3.6955254077911377
 21
-1.5307164192199707
 31
0.0
  0
LINE
  8
0
 10
-3.6955254077911377
 20
-1.5307164192199707
 30
0.0
 11
-3.6820268630981445
 21
-1.562907099723816
 31
0.0
  0
LINE
  8
0
 10
-3.6820268630981445
 20
-1.562907099723816
 30
0.0
 11
-3.668247938156128
 21
-1.5949786901474
 31
0.0
  0
LINE
  8
0
 10
-3.668247938156128
 20
-1.5949786901474
 30
0.0
 11
-3.6541895866394043
 21
-1.6269289255142212
 31
0.0
  0
LINE
  8
0
 10
-3.6541895866394043
 20
-1.6269289255142212
 30
0.0
 11
-3.6398532390594482
 21
-1.6587551832199097
 31
0.0
  0
LINE
  8
0
 10
-3.6398532390594482
 20
-1.6587551832199097
 30
0.0
 11
-3.625239372253418
 21
-1.6904551982879639
 31
0.0
  0
LINE
  8
0
 10
-3.625239372253418
 20
-1.6904551982879639
 30
0.0
 11
-3.610349655151367
 21
-1.7220263481140137
 31
0.0
  0
LINE
  8
0
 10
-3.610349655151367
 20
-1.7220263481140137
 30
0.0
 11
-3.5951850414276123
 21
-1.7534664869308472
 31
0.0
  0
LINE
  8
0
 10
-3.5951850414276123
 20
-1.7534664869308472
 30
0.0
 11
-3.5797464847564697
 21
-1.7847731113433838
 31
0.0
  0
LINE
  8
0
 10
-3.5797464847564697
 20
-1.7847731113433838
 30
0.0
 11
-3.564035415649414
 21
-1.815943717956543
 31
0.0
  0
LINE
  8
0
 10
-3.564035415649414
 20
-1.815943717956543
 30
0.0
 11
-3.5480527877807617
 21
-1.8469760417938232
 31
0.0
  0
LINE
  8
0
 10
-3.5480527877807617
 20
-1.8469760417938232
 30
0.0
 11
-3.5318002700805664
 21
-1.8778678178787231
 31
0.0
  0
LINE
  8
0
 10
-3.5318002700805664
 20
-1.8778678178787231
 30
0.0
 11
-3.5152785778045654
 21
-1.908616542816162
 31
0.0
  0
LINE
  8
0
 10
-3.5152785778045654
 20
-1.908616542816162
 30
0.0
 11
-3.4984891414642334
 21
-1.9392198324203491
 31
0.0
  0
LINE
  8
0
 10
-3.4984891414642334
 20
-1.9392198324203491
 30
0.0
 11
-3.481433391571045
 21
-1.9696755409240723
 31
0.0
  0
LINE
  8
0
 10
-3.481433391571045
 20
-1.9696755409240723
 30
0.0
 11
-3.4641125202178955
 21
-1.999981164932251
 31
0.0
  0
LINE
  8
0
 10
-3.4641125202178955
 20
-1.999981164932251
 30
0.0
 11
-3.4465277194976807
 21
-2.030134677886963
 31
0.0
  0
LINE
  8
0
 10
-3.4465277194976807
 20
-2.030134677886963
 30
0.0
 11
-3.428680658340454
 21
-2.060133457183838
 31
0.0
  0
LINE
  8
0
 10
-3.428680658340454
 20
-2.060133457183838
 30
0.0
 11
-3.4105722904205322
 21
-2.089975357055664
 31
0.0
  0
LINE
  8
0
 10
-3.4105722904205322
 20
-2.089975357055664
 30
0.0
 11
-3.3922042846679688
 21
-2.1196579933166504
 31
0.0
  0
LINE
  8
0
 10
-3.3922042846679688
 20
-2.1196579933166504
 30
0.0
 11
-3.3735780715942383
 21
-2.149179220199585
 31
0.0
  0
LINE
  8
0
 10
-3.3735780715942383
 20
-2.149179220199585
 30
0.0
 11
-3.3546948432922363
 21
-2.178536891937256
 31
0.0
  0
LINE
  8
0
 10
-3.3546948432922363
 20
-2.178536891937256
 30
0.0
 11
-3.3355560302734375
 21
-2.207728624343872
 31
0.0
  0
LINE
  8
0
 10
-3.3355560302734375
 20
-2.207728624343872
 30
0.0
 11
-3.3161633014678955
 21
-2.2367522716522217
 31
0.0
  0
LINE
  8
0
 10
-3.3161633014678955
 20
-2.2367522716522217
 30
0.0
 11
-3.296518087387085
 21
-2.2656056880950928
 31
0.0
  0
LINE
  8
0
 10
-3.296518087387085
 20
-2.2656056880950928
 30
0.0
 11
-3.2766218185424805
 21
-2.2942862510681152
 31
0.0
  0
LINE
  8
0
 10
-3.2766218185424805
 20
-2.2942862510681152
 30
0.0
 11
-3.2564759254455566
 21
-2.3227922916412354
 31
0.0
  0
LINE
  8
0
 10
-3.2564759254455566
 20
-2.3227922916412354
 30
0.0
 11
-3.236082077026367
 21
-2.351121425628662
 31
0.0
  0
LINE
  8
0
 10
-3.236082077026367
 20
-2.351121425628662
 30
0.0
 11
-3.215441942214966
 21
-2.3792717456817627
 31
0.0
  0
LINE
  8
0
 10
-3.215441942214966
 20
-2.3792717456817627
 30
0.0
 11
-3.194556713104248
 21
-2.407240629196167
 31
0.0
  0
LINE
  8
0
 10
-3.194556713104248
 20
-2.407240629196167
 30
0.0
 11
-3.1734282970428467
 21
-2.435026168823242
 31
0.0
  0
LINE
  8
0
 10
-3.1734282970428467
 20
-2.435026168823242
 30
0.0
 11
-3.1520583629608154
 21
-2.4626262187957764
 31
0.0
  0
LINE
  8
0
 10
-3.1520583629608154
 20
-2.4626262187957764
 30
0.0
 11
-3.130448341369629
 21
-2.4900388717651367
 31
0.0
  0
LINE
  8
0
 10
-3.130448341369629
 20
-2.4900388717651367
 30
0.0
 11
-3.1085996627807617
 21
-2.5172619819641113
 31
0.0
  0
LINE
  8
0
 10
-3.1085996627807617
 20
-2.5172619819641113
 30
0.0
 11
-3.086514472961426
 21
-2.544293165206909
 31
0.0
  0
LINE
  8
0
 10
-3.086514472961426
 20
-2.544293165206909
 30
0.0
 11
-3.0641942024230957
 21
-2.5711307525634766
 31
0.0
  0
LINE
  8
0
 10
-3.0641942024230957
 20
-2.5711307525634766
 30
0.0
 11
-3.0416407585144043
 21
-2.5977725982666016
 31
0.0
  0
LINE
  8
0
 10
-3.0416407585144043
 20
-2.5977725982666016
 30
0.0
 11
-3.018855333328247
 21
-2.6242165565490723
 31
0.0
  0
LINE
  8
0
 10
-3.018855333328247
 20
-2.6242165565490723
 30
0.0
 11
-2.995840311050415
 21
-2.6504604816436768
 31
0.0
  0
LINE
  8
0
 10
-2.995840311050415
 20
-2.6504604816436768
 30
0.0
 11
-2.9725968837738037
 21
-2.6765027046203613
 31
0.0
  0
LINE
  8
0
 10
-2.9725968837738037
 20
-2.6765027046203613
 30
0.0
 11
-2.949127435684204
 21
-2.702341079711914
 31
0.0
  0
LINE
  8
0
 10
-2.949127435684204
 20
-2.702341079711914
 30
0.0
 11
-2.9254331588745117
 21
-2.727973699569702
 31
0.0
  0
LINE
  8
0
 10
-2.9254331588745117
 20
-2.727973699569702
 30
0.0
 11
-2.9015161991119385
 21
-2.7533986568450928
 31
0.0
  0
LINE
  8
0
 10
-2.9015161991119385
 20
-2.7533986568450928
 30
0.0
 11
-2.877378225326538
 21
-2.778613805770874
 31
0.0
  0
LINE
  8
0
 10
-2.877378225326538
 20
-2.778613805770874
 30
0.0
 11
-2.8530209064483643
 21
-2.803617477416992
 31
0.0
  0
LINE
  8
0
 10
-2.8530209064483643
 20
-2.803617477416992
 30
0.0
 11
-2.828446626663208
 21
-2.8284075260162354
 31
0.0
  0
LINE
  8
0
 10
-2.828446626663208
 20
-2.8284075260162354
 30
0.0
 11
-2.803656816482544
 21
-2.85298228263855
 31
0.0
  0
LINE
  8
0
 10
-2.803656816482544
 20
-2.85298228263855
 30
0.0
 11
-2.778653621673584
 21
-2.8773398399353027
 31
0.0
  0
LINE
  8
0
 10
-2.778653621673584
 20
-2.8773398399353027
 30
0.0
 11
-2.753438711166382
 21
-2.9014780521392822
 31
0.0
  0
LINE
  8
0
 10
-2.753438711166382
 20
-2.9014780521392822
 30
0.0
 11
-2.7280142307281494
 21
-2.9253954887390137
 31
0.0
  0
LINE
  8
0
 10
-2.7280142307281494
 20
-2.9253954887390137
 30
0.0
 11
-2.7023818492889404
 21
-2.949090003967285
 31
0.0
  0
LINE
  8
0
 10
-2.7023818492889404
 20
-2.949090003967285
 30
0.0
 11
-2.676543951034546
 21
-2.972559928894043
 31
0.0
  0
LINE
  8
0
 10
-2.676543951034546
 20
-2.972559928894043
 30
0.0
 11
-2.6505019664764404
 21
-2.9958035945892334
 31
0.0
  0
LINE
  8
0
 10
-2.6505019664764404
 20
-2.9958035945892334
 30
0.0
 11
-2.624258279800415
 21
-3.0188190937042236
 31
0.0
  0
LINE
  8
0
 10
-2.624258279800415
 20
-3.0188190937042236
 30
0.0
 11
-2.5978145599365234
 21
-3.04160475730896
 31
0.0
  0
LINE
  8
0
 10
-2.5978145599365234
 20
-3.04160475730896
 30
0.0
 11
-2.5711731910705566
 21
-3.0641586780548096
 31
0.0
  0
LINE
  8
0
 10
-2.5711731910705566
 20
-3.0641586780548096
 30
0.0
 11
-2.5443358421325684
 21
-3.086479425430298
 31
0.0
  0
LINE
  8
0
 10
-2.5443358421325684
 20
-3.086479425430298
 30
0.0
 11
-2.5173048973083496
 21
-3.108564853668213
 31
0.0
  0
LINE
  8
0
 10
-2.5173048973083496
 20
-3.108564853668213
 30
0.0
 11
-2.490082263946533
 21
-3.130413770675659
 31
0.0
  0
LINE
  8
0
 10
-2.490082263946533
 20
-3.130413770675659
 30
0.0
 11
-2.462669849395752
 21
-3.152024269104004
 31
0.0
  0
LINE
  8
0
 10
-2.462669849395752
 20
-3.152024269104004
 30
0.0
 11
-2.435070037841797
 21
-3.1733946800231934
 31
0.0
  0
LINE
  8
0
 10
-2.435070037841797
 20
-3.1733946800231934
 30
0.0
 11
-2.407284736633301
 21
-3.194523572921753
 31
0.0
  0
LINE
  8
0
 10
-2.407284736633301
 20
-3.194523572921753
 30
0.0
 11
-2.3793160915374756
 21
-3.21540904045105
 31
0.0
  0
LINE
  8
0
 10
-2.3793160915374756
 20
-3.21540904045105
 30
0.0
 11
-2.351166248321533
 21
-3.2360496520996094
 31
0.0
  0
LINE
  8
0
 10
-2.351166248321533
 20
-3.2360496520996094
 30
0.0
 11
-2.3228373527526855
 21
-3.256443738937378
 31
0.0
  0
LINE
  8
0
 10
-2.3228373527526855
 20
-3.256443738937378
 30
0.0
 11
-2.2943315505981445
 21
-3.27659010887146
 31
0.0
  0
LINE
  8
0
 10
-2.2943315505981445
 20
-3.27659010887146
 30
0.0
 11
-2.265651226043701
 21
-3.2964868545532227
 31
0.0
  0
LINE
  8
0
 10
-2.265651226043701
 20
-3.2964868545532227
 30
0.0
 11
-2.236798048019409
 21
-3.3161323070526123
 31
0.0
  0
LINE
  8
0
 10
-2.236798048019409
 20
-3.3161323070526123
 30
0.0
 11
-2.2077748775482178
 21
-3.3355255126953125
 31
0.0
  0
LINE
  8
0
 10
-2.2077748775482178
 20
-3.3355255126953125
 30
0.0
 11
-2.1785833835601807
 21
-3.3546645641326904
 31
0.0
  0
LINE
  8
0
 10
-2.1785833835601807
 20
-3.3546645641326904
 30
0.0
 11
-2.149225950241089
 21
-3.3735482692718506
 31
0.0
  0
LINE
  8
0
 10
-2.149225950241089
 20
-3.3735482692718506
 30
0.0
 11
-2.1197049617767334
 21
-3.3921749591827393
 31
0.0
  0
LINE
  8
0
 10
-2.1197049617767334
 20
-3.3921749591827393
 30
0.0
 11
-2.090022325515747
 21
-3.410543441772461
 31
0.0
  0
LINE
  8
0
 10
-2.090022325515747
 20
-3.410543441772461
 30
0.0
 11
-2.0601806640625
 21
-3.428652048110962
 31
0.0
  0
LINE
  8
0
 10
-2.0601806640625
 20
-3.428652048110962
 30
0.0
 11
-2.030182123184204
 21
-3.446499824523926
 31
0.0
  0
LINE
  8
0
 10
-2.030182123184204
 20
-3.446499824523926
 30
0.0
 11
-2.0000290870666504
 21
-3.4640848636627197
 31
0.0
  0
LINE
  8
0
 10
-2.0000290870666504
 20
-3.4640848636627197
 30
0.0
 11
-1.9697235822677612
 21
-3.4814062118530273
 31
0.0
  0
LINE
  8
0
 10
-1.9697235822677612
 20
-3.4814062118530273
 30
0.0
 11
-1.9392682313919067
 21
-3.498462438583374
 31
0.0
  0
LINE
  8
0
 10
-1.9392682313919067
 20
-3.498462438583374
 30
0.0
 11
-1.9086650609970093
 21
-3.515252113342285
 31
0.0
  0
LINE
  8
0
 10
-1.9086650609970093
 20
-3.515252113342285
 30
0.0
 11
-1.8779165744781494
 21
-3.5317742824554443
 31
0.0
  0
LINE
  8
0
 10
-1.8779165744781494
 20
-3.5317742824554443
 30
0.0
 11
-1.8470251560211182
 21
-3.548027276992798
 31
0.0
  0
LINE
  8
0
 10
-1.8470251560211182
 20
-3.548027276992798
 30
0.0
 11
-1.8159929513931274
 21
-3.5640103816986084
 31
0.0
  0
LINE
  8
0
 10
-1.8159929513931274
 20
-3.5640103816986084
 30
0.0
 11
-1.7848225831985474
 21
-3.5797219276428223
 31
0.0
  0
LINE
  8
0
 10
-1.7848225831985474
 20
-3.5797219276428223
 30
0.0
 11
-1.7535161972045898
 21
-3.595160722732544
 31
0.0
  0
LINE
  8
0
 10
-1.7535161972045898
 20
-3.595160722732544
 30
0.0
 11
-1.7220762968063354
 21
-3.610325813293457
 31
0.0
  0
LINE
  8
0
 10
-1.7220762968063354
 20
-3.610325813293457
 30
0.0
 11
-1.6905052661895752
 21
-3.625216245651245
 31
0.0
  0
LINE
  8
0
 10
-1.6905052661895752
 20
-3.625216245651245
 30
0.0
 11
-1.6588054895401
 21
-3.6398303508758545
 31
0.0
  0
LINE
  8
0
 10
-1.6588054895401
 20
-3.6398303508758545
 30
0.0
 11
-1.6269793510437012
 21
-3.6541671752929688
 31
0.0
  0
LINE
  8
0
 10
-1.6269793510437012
 20
-3.6541671752929688
 30
0.0
 11
-1.595029354095459
 21
-3.6682260036468506
 31
0.0
  0
LINE
  8
0
 10
-1.595029354095459
 20
-3.6682260036468506
 30
0.0
 11
-1.562958002090454
 21
-3.6820051670074463
 31
0.0
  0
LINE
  8
0
 10
-1.562958002090454
 20
-3.6820051670074463
 30
0.0
 11
-1.5307674407958984
 21
-3.6955041885375977
 31
0.0
  0
LINE
  8
0
 10
-1.5307674407958984
 20
-3.6955041885375977
 30
0.0
 11
-1.4984604120254517
 21
-3.70872163772583
 31
0.0
  0
LINE
  8
0
 10
-1.4984604120254517
 20
-3.70872163772583
 30
0.0
 11
-1.4660392999649048
 21
-3.7216567993164062
 31
0.0
  0
LINE
  8
0
 10
-1.4660392999649048
 20
-3.7216567993164062
 30
0.0
 11
-1.4335064888000488
 21
-3.7343084812164307
 31
0.0
  0
LINE
  8
0
 10
-1.4335064888000488
 20
-3.7343084812164307
 30
0.0
 11
-1.4008644819259644
 21
-3.746675729751587
 31
0.0
  0
LINE
  8
0
 10
-1.4008644819259644
 20
-3.746675729751587
 30
0.0
 11
-1.368115782737732
 21
-3.7587575912475586
 31
0.0
  0
LINE
  8
0
 10
-1.368115782737732
 20
-3.7587575912475586
 30
0.0
 11
-1.3352630138397217
 21
-3.7705533504486084
 31
0.0
  0
LINE
  8
0
 10
-1.3352630138397217
 20
-3.7705533504486084
 30
0.0
 11
-1.302308440208435
 21
-3.78206205368042
 31
0.0
  0
LINE
  8
0
 10
-1.302308440208435
 20
-3.78206205368042
 30
0.0
 11
-1.2692548036575317
 21
-3.7932825088500977
 31
0.0
  0
LINE
  8
0
 10
-1.2692548036575317
 20
-3.7932825088500977
 30
0.0
 11
-1.2361043691635132
 21
-3.8042142391204834
 31
0.0
  0
LINE
  8
0
 10
-1.2361043691635132
 20
-3.8042142391204834
 30
0.0
 11
-1.202859878540039
 21
-3.8148562908172607
 31
0.0
  0
LINE
  8
0
 10
-1.202859878540039
 20
-3.8148562908172607
 30
0.0
 11
-1.16952383518219
 21
-3.8252077102661133
 31
0.0
  0
LINE
  8
0
 10
-1.16952383518219
 20
-3.8252077102661133
 30
0.0
 11
-1.1360986232757568
 21
-3.8352677822113037
 31
0.0
  0
LINE
  8
0
 10
-1.1360986232757568
 20
-3.8352677822113037
 30
0.0
 11
-1.1025869846343994
 21
-3.845036029815674
 31
0.0
  0
LINE
  8
0
 10
-1.1025869846343994
 20
-3.845036029815674
 30
0.0
 11
-1.0689914226531982
 21
-3.854511260986328
 31
0.0
  0
LINE
  8
0
 10
-1.0689914226531982
 20
-3.854511260986328
 30
0.0
 11
-1.0353143215179443
 21
-3.8636929988861084
 31
0.0
  0
LINE
  8
0
 10
-1.0353143215179443
 20
-3.8636929988861084
 30
0.0
 11
-1.0015584230422974
 21
-3.8725805282592773
 31
0.0
  0
LINE
  8
0
 10
-1.0015584230422974
 20
-3.8725805282592773
 30
0.0
 11
-0.9677262902259827
 21
-3.8811733722686768
 31
0.0
  0
LINE
  8
0
 10
-0.9677262902259827
 20
-3.8811733722686768
 30
0.0
 11
-0.9338204264640808
 21
-3.889470338821411
 31
0.0
  0
LINE
  8
0
 10
-0.9338204264640808
 20
-3.889470338821411
 30
0.0
 11
-0.8998434543609619
 21
-3.8974711894989014
 31
0.0
  0
LINE
  8
0
 10
-0.8998434543609619
 20
-3.8974711894989014
 30
0.0
 11
-0.8657979965209961
 21
-3.90517520904541
 31
0.0
  0
LINE
  8
0
 10
-0.8657979965209961
 20
-3.90517520904541
 30
0.0
 11
-0.8316865563392639
 21
-3.9125819206237793
 31
0.0
  0
LINE
  8
0
 10
-0.8316865563392639
 20
-3.9125819206237793
 30
0.0
 11
-0.7975118160247803
 21
-3.9196906089782715
 31
0.0
  0
LINE
  8
0
 10
-0.7975118160247803
 20
-3.9196906089782715
 30
0.0
 11
-0.7632762789726257
 21
-3.9265007972717285
 31
0.0
  0
LINE
  8
0
 10
-0.7632762789726257
 20
-3.9265007972717285
 30
0.0
 11
-0.72898268699646
 21
-3.933012008666992
 31
0.0
  0
LINE
  8
0
 10
-0.72898268699646
 20
-3.933012008666992
 30
0.0
 11
-0.6946335434913635
 21
-3.9392237663269043
 31
0.0
  0
LINE
  8
0
 10
-0.6946335434913635
 20
-3.9392237663269043
 30
0.0
 11
-0.6602315306663513
 21
-3.9451355934143066
 31
0.0
  0
LINE
  8
0
 10
-0.6602315306663513
 20
-3.9451355934143066
 30
0.0
 11
-0.6257792115211487
 21
-3.950746774673462
 31
0.0
  0
LINE
  8
0
 10
-0.6257792115211487
 20
-3.950746774673462
 30
0.0
 11
-0.5912792682647705
 21
-3.95605731010437
 31
0.0
  0
LINE
  8
0
 10
-0.5912792682647705
 20
-3.95605731010437
 30
0.0
 11
-0.5567342638969421
 21
-3.961066484451294
 31
0.0
  0
LINE
  8
0
 10
-0.5567342638969421
 20
-3.961066484451294
 30
0.0
 11
-0.5221468806266785
 21
-3.965773820877075
 31
0.0
  0
LINE
  8
0
 10
-0.5221468806266785
 20
-3.965773820877075
 30
0.0
 11
-0.4875197112560272
 21
-3.970179319381714
 31
0.0
  0
LINE
  8
0
 10
-0.4875197112560272
 20
-3.970179319381714
 30
0.0
 11
-0.4528554379940033
 21
-3.9742825031280518
 31
0.0
  0
LINE
  8
0
 10
-0.4528554379940033
 20
-3.9742825031280518
 30
0.0
 11
-0.4181566834449768
 21
-3.9780831336975098
 31
0.0
  0
LINE
  8
0
 10
-0.4181566834449768
 20
-3.9780831336975098
 30
0.0
 11
-0.38342607021331787
 21
-3.9815807342529297
 31
0.0
  0
LINE
  8
0
 10
-0.38342607021331787
 20
-3.9815807342529297
 30
0.0
 11
-0.348666250705719
 21
-3.9847750663757324
 31
0.0
  0
LINE
  8
0
 10
-0.348666250705719
 20
-3.9847750663757324
 30
0.0
 11
-0.31387990713119507
 21
-3.987665891647339
 31
0.0
  0
LINE
  8
0
 10
-0.31387990713119507
 20
-3.987665891647339
 30
0.0
 11
-0.2790696322917938
 21
-3.990253210067749
 31
0.0
  0
LINE
  8
0
 10
-0.2790696322917938
 20
-3.990253210067749
 30
0.0
 11
-0.24423812329769135
 21
-3.9925365447998047
 31
0.0
  0
LINE
  8
0
 10
-0.24423812329769135
 20
-3.9925365447998047
 30
0.0
 11
-0.20938800275325775
 21
-3.994515895843506
 31
0.0
  0
LINE
  8
0
 10
-0.20938800275325775
 20
-3.994515895843506
 30
0.0
 11
-0.17452193796634674
 21
-3.9961910247802734
 31
0.0
  0
LINE
  8
0
 10
-0.17452193796634674
 20
-3.9961910247802734
 30
0.0
 11
-0.139642596244812
 21
-3.9975616931915283
 31
0.0
  0
LINE
  8
0
 10
-0.139642596244812
 20
-3.9975616931915283
 30
0.0
 11
-0.10475261509418488
 21
-3.9986281394958496
 31
0.0
  0
LINE
  8
0
 10
-0.10475261509418488
 20
-3.9986281394958496
 30
0.0
 11
-0.06985464692115784
 21
-3.999389886856079
 31
0.0
  0
LINE
  8
0
 10
-0.06985464692115784
 20
-3.999389886856079
 30
0.0
 11
-0.03495137020945549
 21
-3.999847412109375
 31
0.0
  0
LINE
  8
0
 10
-0.03495137020945549
 20
-3.999847412109375
 30
0.0
 11
-4.542667738860473e-05
 21
-4.0
 31
0.0
  0
LINE
  8
0
 10
-4.542667738860473e-05
 20
-4.0
 30
0.0
 11
0.0348605178296566
 21
-3.9998481273651123
 31
0.0
  0
LINE
  8
0
 10
0.0348605178296566
 20
-3.9998481273651123
 30
0.0
 11
0.06976380944252014
 21
-3.999391555786133
 31
0.0
  0
LINE
  8
0
 10
0.06976380944252014
 20
-3.999391555786133
 30
0.0
 11
0.10466179251670837
 21
-3.9986305236816406
 31
0.0
  0
LINE
  8
0
 10
0.10466179251670837
 20
-3.9986305236816406
 30
0.0
 11
0.1395518034696579
 21
-3.9975650310516357
 31
0.0
  0
LINE
  8
0
 10
0.1395518034696579
 20
-3.9975650310516357
 30
0.0
 11
0.17443117499351501
 21
-3.996194839477539
 31
0.0
  0
LINE
  8
0
 10
0.17443117499351501
 20
-3.996194839477539
 30
0.0
 11
0.2092972695827484
 21
-3.994520664215088
 31
0.0
  0
LINE
  8
0
 10
0.2092972695827484
 20
-3.994520664215088
 30
0.0
 11
0.2441474348306656
 21
-3.992542028427124
 31
0.0
  0
LINE
  8
0
 10
0.2441474348306656
 20
-3.992542028427124
 30
0.0
 11
0.27897900342941284
 21
-3.9902594089508057
 31
0.0
  0
LINE
  8
0
 10
0.27897900342941284
 20
-3.9902594089508057
 30
0.0
 11
0.3137893080711365
 21
-3.987673044204712
 31
0.0
  0
LINE
  8
0
 10
0.3137893080711365
 20
-3.987673044204712
 30
0.0
 11
0.34857574105262756
 21
-3.9847829341888428
 31
0.0
  0
LINE
  8
0
 10
0.34857574105262756
 20
-3.9847829341888428
 30
0.0
 11
0.3833356201648712
 21
-3.9815893173217773
 31
0.0
  0
LINE
  8
0
 10
0.3833356201648712
 20
-3.9815893173217773
 30
0.0
 11
0.4180663228034973
 21
-3.978092670440674
 31
0.0
  0
LINE
  8
0
 10
0.4180663228034973
 20
-3.978092670440674
 30
0.0
 11
0.45276516675949097
 21
-3.974292755126953
 31
0.0
  0
LINE
  8
0
 10
0.45276516675949097
 20
-3.974292755126953
 30
0.0
 11
0.48742952942848206
 21
-3.9701905250549316
 31
0.0
  0
LINE
  8
0
 10
0.48742952942848206
 20
-3.9701905250549316
 30
0.0
 11
0.5220568180084229
 21
-3.9657857418060303
 31
0.0
  0
LINE
  8
0
 10
0.5220568180084229
 20
-3.9657857418060303
 30
0.0
 11
0.5566442608833313
 21
-3.9610791206359863
 31
0.0
  0
LINE
  8
0
 10
0.5566442608833313
 20
-3.9610791206359863
 30
0.0
 11
0.5911893844604492
 21
-3.9560706615448
 31
0.0
  0
LINE
  8
0
 10
0.5911893844604492
 20
-3.9560706615448
 30
0.0
 11
0.6256895065307617
 21
-3.950761079788208
 31
0.0
  0
LINE
  8
0
 10
0.6256895065307617
 20
-3.950761079788208
 30
0.0
 11
0.6601418852806091
 21
-3.94515061378479
 31
0.0
  0
LINE
  8
0
 10
0.6601418852806091
 20
-3.94515061378479
 30
0.0
 11
0.6945440769195557
 21
-3.939239501953125
 31
0.0
  0
LINE
  8
0
 10
0.6945440769195557
 20
-3.939239501953125
 30
0.0
 11
0.7288933396339417
 21
-3.9330286979675293
 31
0.0
  0
LINE
  8
0
 10
0.7288933396339417
 20
-3.9330286979675293
 30
0.0
 11
0.7631871104240417
 21
-3.926518201828003
 31
0.0
  0
LINE
  8
0
 10
0.7631871104240417
 20
-3.926518201828003
 30
0.0
 11
0.7974227666854858
 21
-3.919708728790283
 31
0.0
  0
LINE
  8
0
 10
0.7974227666854858
 20
-3.919708728790283
 30
0.0
 11
0.8315976858139038
 21
-3.9126007556915283
 31
0.0
  0
LINE
  8
0
 10
0.8315976858139038
 20
-3.9126007556915283
 30
0.0
 11
0.8657093048095703
 21
-3.9051949977874756
 31
0.0
  0
LINE
  8
0
 10
0.8657093048095703
 20
-3.9051949977874756
 30
0.0
 11
0.8997549414634705
 21
-3.897491693496704
 31
0.0
  0
LINE
  8
0
 10
0.8997549414634705
 20
-3.897491693496704
 30
0.0
 11
0.9337320923805237
 21
-3.889491558074951
 31
0.0
  0
LINE
  8
0
 10
0.9337320923805237
 20
-3.889491558074951
 30
0.0
 11
0.9676381349563599
 21
-3.881195306777954
 31
0.0
  0
LINE
  8
0
 10
0.9676381349563599
 20
-3.881195306777954
 30
0.0
 11
1.0014704465866089
 21
-3.872603416442871
 31
0.0
  0
LINE
  8
0
 10
1.0014704465866089
 20
-3.872603416442871
 30
0.0
 11
1.035226583480835
 21
-3.8637166023254395
 31
0.0
  0
LINE
  8
0
 10
1.035226583480835
 20
-3.8637166023254395
 30
0.0
 11
1.0689038038253784
 21
-3.8545355796813965
 31
0.0
  0
LINE
  8
0
 10
1.0689038038253784
 20
-3.8545355796813965
 30
0.0
 11
1.1024997234344482
 21
-3.8450610637664795
 31
0.0
  0
LINE
  8
0
 10
1.1024997234344482
 20
-3.8450610637664795
 30
0.0
 11
1.1360116004943848
 21
-3.835293769836426
 31
0.0
  0
LINE
  8
0
 10
1.1360116004943848
 20
-3.835293769836426
 30
0.0
 11
1.1694369316101074
 21
-3.8252341747283936
 31
0.0
  0
LINE
  8
0
 10
1.1694369316101074
 20
-3.8252341747283936
 30
0.0
 11
1.2027733325958252
 21
-3.8148834705352783
 31
0.0
  0
LINE
  8
0
 10
1.2027733325958252
 20
-3.8148834705352783
 30
0.0
 11
1.2360180616378784
 21
-3.8042423725128174
 31
0.0
  0
LINE
  8
0
 10
1.2360180616378784
 20
-3.8042423725128174
 30
0.0
 11
1.2691686153411865
 21
-3.793311357498169
 31
0.0
  0
LINE
  8
0
 10
1.2691686153411865
 20
-3.793311357498169
 30
0.0
 11
1.3022226095199585
 21
-3.7820916175842285
 31
0.0
  0
LINE
  8
0
 10
1.3022226095199585
 20
-3.7820916175842285
 30
0.0
 11
1.3351773023605347
 21
-3.7705836296081543
 31
0.0
  0
LINE
  8
0
 10
1.3351773023605347
 20
-3.7705836296081543
 30
0.0
 11
1.3680304288864136
 21
-3.758788824081421
 31
0.0
  0
LINE
  8
0
 10
1.3680304288864136
 20
-3.758788824081421
 30
0.0
 11
1.400779366493225
 21
-3.7467074394226074
 31
0.0
  0
LINE
  8
0
 10
1.400779366493225
 20
-3.7467074394226074
 30
0.0
 11
1.4334216117858887
 21
-3.7343409061431885
 31
0.0
  0
LINE
  8
0
 10
1.4334216117858887
 20
-3.7343409061431885
 30
0.0
 11
1.4659547805786133
 21
-3.7216899394989014
 31
0.0
  0
LINE
  8
0
 10
1.4659547805786133
 20
-3.7216899394989014
 30
0.0
 11
1.4983761310577393
 21
-3.7087557315826416
 31
0.0
  0
LINE
  8
0
 10
1.4983761310577393
 20
-3.7087557315826416
 30
0.0
 11
1.5306835174560547
 21
-3.6955389976501465
 31
0.0
  0
LINE
  8
0
 10
1.5306835174560547
 20
-3.6955389976501465
 30
0.0
 11
1.5628743171691895
 21
-3.6820406913757324
 31
0.0
  0
LINE
  8
0
 10
1.5628743171691895
 20
-3.6820406913757324
 30
0.0
 11
1.5949461460113525
 21
-3.668262004852295
 31
0.0
  0
LINE
  8
0
 10
1.5949461460113525
 20
-3.668262004852295
 30
0.0
 11
1.6268963813781738
 21
-3.6542041301727295
 31
0.0
  0
LINE
  8
0
 10
1.6268963813781738
 20
-3.6542041301727295
 30
0.0
 11
1.6587228775024414
 21
-3.6398680210113525
 31
0.0
  0
LINE
  8
0
 10
1.6587228775024414
 20
-3.6398680210113525
 30
0.0
 11
1.6904228925704956
 21
-3.6252546310424805
 31
0.0
  0
LINE
  8
0
 10
1.6904228925704956
 20
-3.6252546310424805
 30
0.0
 11
1.7219942808151245
 21
-3.610365152359009
 31
0.0
  0
LINE
  8
0
 10
1.7219942808151245
 20
-3.610365152359009
 30
0.0
 11
1.7534345388412476
 21
-3.595200538635254
 31
0.0
  0
LINE
  8
0
 10
1.7534345388412476
 20
-3.595200538635254
 30
0.0
 11
1.7847411632537842
 21
-3.5797624588012695
 31
0.0
  0
LINE
  8
0
 10
1.7847411632537842
 20
-3.5797624588012695
 30
0.0
 11
1.8159120082855225
 21
-3.564051628112793
 31
0.0
  0
LINE
  8
0
 10
1.8159120082855225
 20
-3.564051628112793
 30
0.0
 11
1.8469445705413818
 21
-3.5480692386627197
 31
0.0
  0
LINE
  8
0
 10
1.8469445705413818
 20
-3.5480692386627197
 30
0.0
 11
1.8778363466262817
 21
-3.5318169593811035
 31
0.0
  0
LINE
  8
0
 10
1.8778363466262817
 20
-3.5318169593811035
 30
0.0
 11
1.9085851907730103
 21
-3.5152955055236816
 31
0.0
  0
LINE
  8
0
 10
1.9085851907730103
 20
-3.5152955055236816
 30
0.0
 11
1.9391887187957764
 21
-3.4985063076019287
 31
0.0
  0
LINE
  8
0
 10
1.9391887187957764
 20
-3.4985063076019287
 30
0.0
 11
1.969644546508789
 21
-3.4814507961273193
 31
0.0
  0
LINE
  8
0
 10
1.969644546508789
 20
-3.4814507961273193
 30
0.0
 11
1.9999504089355469
 21
-3.464130163192749
 31
0.0
  0
LINE
  8
0
 10
1.9999504089355469
 20
-3.464130163192749
 30
0.0
 11
2.030103921890259
 21
-3.4465458393096924
 31
0.0
  0
LINE
  8
0
 10
2.030103921890259
 20
-3.4465458393096924
 30
0.0
 11
2.060102939605713
 21
-3.428699016571045
 31
0.0
  0
LINE
  8
0
 10
2.060102939605713
 20
-3.428699016571045
 30
0.0
 11
2.089944839477539
 21
-3.410590887069702
 31
0.0
  0
LINE
  8
0
 10
2.089944839477539
 20
-3.410590887069702
 30
0.0
 11
2.1196277141571045
 21
-3.3922231197357178
 31
0.0
  0
LINE
  8
0
 10
2.1196277141571045
 20
-3.3922231197357178
 30
0.0
 11
2.149149179458618
 21
-3.3735971450805664
 31
0.0
  0
LINE
  8
0
 10
2.149149179458618
 20
-3.3735971450805664
 30
0.0
 11
2.178507089614868
 21
-3.3547141551971436
 31
0.0
  0
LINE
  8
0
 10
2.178507089614868
 20
-3.3547141551971436
 30
0.0
 11
2.2076990604400635
 21
-3.335575580596924
 31
0.0
  0
LINE
  8
0
 10
2.2076990604400635
 20
-3.335575580596924
 30
0.0
 11
2.236722707748413
 21
-3.31618332862854
 31
0.0
  0
LINE
  8
0
 10
2.236722707748413
 20
-3.31618332862854
 30
0.0
 11
2.2655763626098633
 21
-3.2965381145477295
 31
0.0
  0
LINE
  8
0
 10
2.2655763626098633
 20
-3.2965381145477295
 30
0.0
 11
2.294257164001465
 21
-3.276642084121704
 31
0.0
  0
LINE
  8
0
 10
2.294257164001465
 20
-3.276642084121704
 30
0.0
 11
2.322763442993164
 21
-3.2564966678619385
 31
0.0
  0
LINE
  8
0
 10
2.322763442993164
 20
-3.2564966678619385
 30
0.0
 11
2.35109281539917
 21
-3.236103057861328
 31
0.0
  0
LINE
  8
0
 10
2.35109281539917
 20
-3.236103057861328
 30
0.0
 11
2.3792431354522705
 21
-3.215463161468506
 31
0.0
  0
LINE
  8
0
 10
2.3792431354522705
 20
-3.215463161468506
 30
0.0
 11
2.407212018966675
 21
-3.194578170776367
 31
0.0
  0
LINE
  8
0
 10
2.407212018966675
 20
-3.194578170776367
 30
0.0
 11
2.434997797012329
 21
-3.173449993133545
 31
0.0
  0
LINE
  8
0
 10
2.434997797012329
 20
-3.173449993133545
 30
0.0
 11
2.4625983238220215
 21
-3.1520802974700928
 31
0.0
  0
LINE
  8
0
 10
2.4625983238220215
 20
-3.1520802974700928
 30
0.0
 11
2.490010976791382
 21
-3.1304702758789062
 31
0.0
  0
LINE
  8
0
 10
2.490010976791382
 20
-3.1304702758789062
 30
0.0
 11
2.5172343254089355
 21
-3.1086220741271973
 31
0.0
  0
LINE
  8
0
 10
2.5172343254089355
 20
-3.1086220741271973
 30
0.0
 11
2.5442657470703125
 21
-3.0865371227264404
 31
0.0
  0
LINE
  8
0
 10
2.5442657470703125
 20
-3.0865371227264404
 30
0.0
 11
2.571103572845459
 21
-3.0642170906066895
 31
0.0
  0
LINE
  8
0
 10
2.571103572845459
 20
-3.0642170906066895
 30
0.0
 11
2.597745418548584
 21
-3.041663646697998
 31
0.0
  0
LINE
  8
0
 10
2.597745418548584
 20
-3.041663646697998
 30
0.0
 11
2.624189615249634
 21
-3.018878698348999
 31
0.0
  0
LINE
  8
0
 10
2.624189615249634
 20
-3.018878698348999
 30
0.0
 11
2.6504337787628174
 21
-2.995863914489746
 31
0.0
  0
LINE
  8
0
 10
2.6504337787628174
 20
-2.995863914489746
 30
0.0
 11
2.676476240158081
 21
-2.972620725631714
 31
0.0
  0
LINE
  8
0
 10
2.676476240158081
 20
-2.972620725631714
 30
0.0
 11
2.702314853668213
 21
-2.9491512775421143
 31
0.0
  0
LINE
  8
0
 10
2.702314853668213
 20
-2.9491512775421143
 30
0.0
 11
2.72794771194458
 21
-2.92545747756958
 31
0.0
  0
LINE
  8
0
 10
2.72794771194458
 20
-2.92545747756958
 30
0.0
 11
2.75337290763855
 21
-2.901540517807007
 31
0.0
  0
LINE
  8
0
 10
2.75337290763855
 20
-2.901540517807007
 30
0.0
 11
2.77858829498291
 21
-2.8774027824401855
 31
0.0
  0
LINE
  8
0
 10
2.77858829498291
 20
-2.8774027824401855
 30
0.0
 11
2.8035922050476074
 21
-2.85304594039917
 31
0.0
  0
LINE
  8
0
 10
2.8035922050476074
 20
-2.85304594039917
 30
0.0
 11
2.8283824920654297
 21
-2.8284718990325928
 31
0.0
  0
LINE
  8
0
 10
2.8283824920654297
 20
-2.8284718990325928
 30
0.0
 11
2.852957248687744
 21
-2.803682327270508
 31
0.0
  0
LINE
  8
0
 10
2.852957248687744
 20
-2.803682327270508
 30
0.0
 11
2.877315044403076
 21
-2.778679132461548
 31
0.0
  0
LINE
  8
0
 10
2.877315044403076
 20
-2.778679132461548
 30
0.0
 11
2.9014534950256348
 21
-2.753464698791504
 31
0.0
  0
LINE
  8
0
 10
2.9014534950256348
 20
-2.753464698791504
 30
0.0
 11
2.9253711700439453
 21
-2.7280402183532715
 31
0.0
  0
LINE
  8
0
 10
2.9253711700439453
 20
-2.7280402183532715
 30
0.0
 11
2.949065923690796
 21
-2.7024080753326416
 31
0.0
  0
LINE
  8
0
 10
2.949065923690796
 20
-2.7024080753326416
 30
0.0
 11
2.972536087036133
 21
-2.676570177078247
 31
0.0
  0
LINE
  8
0
 10
2.972536087036133
 20
-2.676570177078247
 30
0.0
 11
2.9957799911499023
 21
-2.6505286693573
 31
0.0
  0
LINE
  8
0
 10
2.9957799911499023
 20
-2.6505286693573
 30
0.0
 11
3.0187957286834717
 21
-2.6242849826812744
 31
0.0
  0
LINE
  8
0
 10
3.0187957286834717
 20
-2.6242849826812744
 30
0.0
 11
3.0415823459625244
 21
-2.5978407859802246
 31
0.0
  0
LINE
  8
0
 10
3.0415823459625244
 20
-2.5978407859802246
 30
0.0
 11
3.064136505126953
 21
-2.571199655532837
 31
0.0
  0
LINE
  8
0
 10
3.064136505126953
 20
-2.571199655532837
 30
0.0
 11
3.0864572525024414
 21
-2.5443625450134277
 31
0.0
  0
LINE
  8
0
 10
3.0864572525024414
 20
-2.5443625450134277
 30
0.0
 11
3.1085431575775146
 21
-2.517331838607788
 31
0.0
  0
LINE
  8
0
 10
3.1085431575775146
 20
-2.517331838607788
 30
0.0
 11
3.13039231300354
 21
-2.4901092052459717
 31
0.0
  0
LINE
  8
0
 10
3.13039231300354
 20
-2.4901092052459717
 30
0.0
 11
3.152003049850464
 21
-2.4626972675323486
 31
0.0
  0
LINE
  8
0
 10
3.152003049850464
 20
-2.4626972675323486
 30
0.0
 11
3.1733736991882324
 21
-2.4350974559783936
 31
0.0
  0
LINE
  8
0
 10
3.1733736991882324
 20
-2.4350974559783936
 30
0.0
 11
3.194502592086792
 21
-2.4073123931884766
 31
0.0
  0
LINE
  8
0
 10
3.194502592086792
 20
-2.4073123931884766
 30
0.0
 11
3.215388298034668
 21
-2.3793439865112305
 31
0.0
  0
LINE
  8
0
 10
3.215388298034668
 20
-2.3793439865112305
 30
0.0
 11
3.2360293865203857
 21
-2.351194381713867
 31
0.0
  0
LINE
  8
0
 10
3.2360293865203857
 20
-2.351194381713867
 30
0.0
 11
3.2564237117767334
 21
-2.3228654861450195
 31
0.0
  0
LINE
  8
0
 10
3.2564237117767334
 20
-2.3228654861450195
 30
0.0
 11
3.2765700817108154
 21
-2.2943599224090576
 31
0.0
  0
LINE
  8
0
 10
3.2765700817108154
 20
-2.2943599224090576
 30
0.0
 11
3.2964670658111572
 21
-2.2656795978546143
 31
0.0
  0
LINE
  8
0
 10
3.2964670658111572
 20
-2.2656795978546143
 30
0.0
 11
3.316112995147705
 21
-2.2368268966674805
 31
0.0
  0
LINE
  8
0
 10
3.316112995147705
 20
-2.2368268966674805
 30
0.0
 11
3.3355064392089844
 21
-2.207803726196289
 31
0.0
  0
LINE
  8
0
 10
3.3355064392089844
 20
-2.207803726196289
 30
0.0
 11
3.3546457290649414
 21
-2.178612232208252
 31
0.0
  0
LINE
  8
0
 10
3.3546457290649414
 20
-2.178612232208252
 30
0.0
 11
3.3735296726226807
 21
-2.1492550373077393
 31
0.0
  0
LINE
  8
0
 10
3.3735296726226807
 20
-2.1492550373077393
 30
0.0
 11
3.3921566009521484
 21
-2.119734287261963
 31
0.0
  0
LINE
  8
0
 10
3.3921566009521484
 20
-2.119734287261963
 30
0.0
 11
3.410525321960449
 21
-2.0900518894195557
 31
0.0
  0
LINE
  8
0
 10
3.410525321960449
 20
-2.0900518894195557
 30
0.0
 11
3.4286341667175293
 21
-2.0602104663848877
 31
0.0
  0
LINE
  8
0
 10
3.4286341667175293
 20
-2.0602104663848877
 30
0.0
 11
3.4464821815490723
 21
-2.030211925506592
 31
0.0
  0
LINE
  8
0
 10
3.4464821815490723
 20
-2.030211925506592
 30
0.0
 11
3.4640674591064453
 21
-2.000059127807617
 31
0.0
  0
LINE
  8
0
 10
3.4640674591064453
 20
-2.000059127807617
 30
0.0
 11
3.481389045715332
 21
-1.9697537422180176
 31
0.0
  0
LINE
  8
0
 10
3.481389045715332
 20
-1.9697537422180176
 30
0.0
 11
3.498445510864258
 21
-1.9392985105514526
 31
0.0
  0
LINE
  8
0
 10
3.498445510864258
 20
-1.9392985105514526
 30
0.0
 11
3.515235662460327
 21
-1.9086954593658447
 31
0.0
  0
LINE
  8
0
 10
3.515235662460327
 20
-1.9086954593658447
 30
0.0
 11
3.5317580699920654
 21
-1.877947211265564
 31
0.0
  0
LINE
  8
0
 10
3.5317580699920654
 20
-1.877947211265564
 30
0.0
 11
3.548011302947998
 21
-1.8470557928085327
 31
0.0
  0
LINE
  8
0
 10
3.548011302947998
 20
-1.8470557928085327
 30
0.0
 11
3.5639946460723877
 21
-1.816023826599121
 31
0.0
  0
LINE
  8
0
 10
3.5639946460723877
 20
-1.816023826599121
 30
0.0
 11
3.5797064304351807
 21
-1.7848535776138306
 31
0.0
  0
LINE
  8
0
 10
3.5797064304351807
 20
-1.7848535776138306
 30
0.0
 11
3.5951457023620605
 21
-1.7535473108291626
 31
0.0
  0
LINE
  8
0
 10
3.5951457023620605
 20
-1.7535473108291626
 30
0.0
 11
3.6103110313415527
 21
-1.7221075296401978
 31
0.0
  0
LINE
  8
0
 10
3.6103110313415527
 20
-1.7221075296401978
 30
0.0
 11
3.625201463699341
 21
-1.690536618232727
 31
0.0
  0
LINE
  8
0
 10
3.625201463699341
 20
-1.690536618232727
 30
0.0
 11
3.6398158073425293
 21
-1.6588369607925415
 31
0.0
  0
LINE
  8
0
 10
3.6398158073425293
 20
-1.6588369607925415
 30
0.0
 11
3.6541531085968018
 21
-1.6270110607147217
 31
0.0
  0
LINE
  8
0
 10
3.6541531085968018
 20
-1.6270110607147217
 30
0.0
 11
3.6682121753692627
 21
-1.595061182975769
 31
0.0
  0
LINE
  8
0
 10
3.6682121753692627
 20
-1.595061182975769
 30
0.0
 11
3.6819915771484375
 21
-1.5629898309707642
 31
0.0
  0
LINE
  8
0
 10
3.6819915771484375
 20
-1.5629898309707642
 30
0.0
 11
3.695490837097168
 21
-1.5307995080947876
 31
0.0
  0
LINE
  8
0
 10
3.695490837097168
 20
-1.5307995080947876
 30
0.0
 11
3.7087087631225586
 21
-1.4984924793243408
 31
0.0
  0
LINE
  8
0
 10
3.7087087631225586
 20
-1.4984924793243408
 30
0.0
 11
3.721644163131714
 21
-1.4660714864730835
 31
0.0
  0
LINE
  8
0
 10
3.721644163131714
 20
-1.4660714864730835
 30
0.0
 11
3.7342960834503174
 21
-1.433538794517517
 31
0.0
  0
LINE
  8
0
 10
3.7342960834503174
 20
-1.433538794517517
 30
0.0
 11
3.7466635704040527
 21
-1.4008969068527222
 31
0.0
  0
LINE
  8
0
 10
3.7466635704040527
 20
-1.4008969068527222
 30
0.0
 11
3.7587459087371826
 21
-1.3681483268737793
 31
0.0
  0
LINE
  8
0
 10
3.7587459087371826
 20
-1.3681483268737793
 30
0.0
 11
3.7705419063568115
 21
-1.3352956771850586
 31
0.0
  0
LINE
  8
0
 10
3.7705419063568115
 20
-1.3352956771850586
 30
0.0
 11
3.782050609588623
 21
-1.3023412227630615
 31
0.0
  0
LINE
  8
0
 10
3.782050609588623
 20
-1.3023412227630615
 30
0.0
 11
3.793271541595459
 21
-1.2692875862121582
 31
0.0
  0
LINE
  8
0
 10
3.793271541595459
 20
-1.2692875862121582
 30
0.0
 11
3.804203510284424
 21
-1.2361373901367188
 31
0.0
  0
LINE
  8
0
 10
3.804203510284424
 20
-1.2361373901367188
 30
0.0
 11
3.8148458003997803
 21
-1.2028928995132446
 31
0.0
  0
LINE
  8
0
 10
3.8148458003997803
 20
-1.2028928995132446
 30
0.0
 11
3.825197696685791
 21
-1.169556975364685
 31
0.0
  0
LINE
  8
0
 10
3.825197696685791
 20
-1.169556975364685
 30
0.0
 11
3.8352580070495605
 21
-1.1361318826675415
 31
0.0
  0
LINE
  8
0
 10
3.8352580070495605
 20
-1.1361318826675415
 30
0.0
 11
3.8450264930725098
 21
-1.102620244026184
 31
0.0
  0
LINE
  8
0
 10
3.8450264930725098
 20
-1.102620244026184
 30
0.0
 11
3.854501962661743
 21
-1.0690248012542725
 31
0.0
  0
LINE
  8
0
 10
3.854501962661743
 20
-1.0690248012542725
 30
0.0
 11
3.8636841773986816
 21
-1.035347819328308
 31
0.0
  0
LINE
  8
0
 10
3.8636841773986816
 20
-1.035347819328308
 30
0.0
 11
3.8725719451904297
 21
-1.0015919208526611
 31
0.0
  0
LINE
  8
0
 10
3.8725719451904297
 20
-1.0015919208526611
 30
0.0
 11
3.881164789199829
 21
-0.967759907245636
 31
0.0
  0
LINE
  8
0
 10
3.881164789199829
 20
-0.967759907245636
 30
0.0
 11
3.8894622325897217
 21
-0.9338541030883789
 31
0.0
  0
LINE
  8
0
 10
3.8894622325897217
 20
-0.9338541030883789
 30
0.0
 11
3.897463321685791
 21
-0.8998771905899048
 31
0.0
  0
LINE
  8
0
 10
3.897463321685791
 20
-0.8998771905899048
 30
0.0
 11
3.905167818069458
 21
-0.8658317923545837
 31
0.0
  0
LINE
  8
0
 10
3.905167818069458
 20
-0.8658317923545837
 30
0.0
 11
3.9125747680664062
 21
-0.8317204117774963
 31
0.0
  0
LINE
  8
0
 10
3.9125747680664062
 20
-0.8317204117774963
 30
0.0
 11
3.9196836948394775
 21
-0.7975457310676575
 31
0.0
  0
LINE
  8
0
 10
3.9196836948394775
 20
-0.7975457310676575
 30
0.0
 11
3.9264943599700928
 21
-0.7633103132247925
 31
0.0
  0
LINE
  8
0
 10
3.9264943599700928
 20
-0.7633103132247925
 30
0.0
 11
3.9330058097839355
 21
-0.7290167212486267
 31
0.0
  0
LINE
  8
0
 10
3.9330058097839355
 20
-0.7290167212486267
 30
0.0
 11
3.9392178058624268
 21
-0.694667637348175
 31
0.0
  0
LINE
  8
0
 10
3.9392178058624268
 20
-0.694667637348175
 30
0.0
 11
3.945129871368408
 21
-0.6602656841278076
 31
0.0
  0
LINE
  8
0
 10
3.945129871368408
 20
-0.6602656841278076
 30
0.0
 11
3.9507412910461426
 21
-0.6258134245872498
 31
0.0
  0
LINE
  8
0
 10
3.9507412910461426
 20
-0.6258134245872498
 30
0.0
 11
3.95605206489563
 21
-0.5913134813308716
 31
0.0
  0
LINE
  8
0
 10
3.95605206489563
 20
-0.5913134813308716
 30
0.0
 11
3.961061477661133
 21
-0.556768536567688
 31
0.0
  0
LINE
  8
0
 10
3.961061477661133
 20
-0.556768536567688
 30
0.0
 11
3.9657692909240723
 21
-0.5221812129020691
 31
0.0
  0
LINE
  8
0
 10
3.9657692909240723
 20
-0.5221812129020691
 30
0.0
 11
3.970175266265869
 21
-0.4875541031360626
 31
0.0
  0
LINE
  8
0
 10
3.970175266265869
 20
-0.4875541031360626
 30
0.0
 11
3.974278688430786
 21
-0.4528898596763611
 31
0.0
  0
LINE
  8
0
 10
3.974278688430786
 20
-0.4528898596763611
 30
0.0
 11
3.9780795574188232
 21
-0.4181911051273346
 31
0.0
  0
LINE
  8
0
 10
3.9780795574188232
 20
-0.4181911051273346
 30
0.0
 11
3.9815773963928223
 21
-0.38346055150032043
 31
0.0
  0
LINE
  8
0
 10
3.9815773963928223
 20
-0.38346055150032043
 30
0.0
 11
3.984771966934204
 21
-0.34870076179504395
 31
0.0
  0
LINE
  8
0
 10
3.984771966934204
 20
-0.34870076179504395
 30
0.0
 11
3.9876632690429688
 21
-0.31391441822052
 31
0.0
  0
LINE
  8
0
 10
3.9876632690429688
 20
-0.31391441822052
 30
0.0
 11
3.990250825881958
 21
-0.27910417318344116
 31
0.0
  0
LINE
  8
0
 10
3.990250825881958
 20
-0.27910417318344116
 30
0.0
 11
3.9925343990325928
 21
-0.24427269399166107
 31
0.0
  0
LINE
  8
0
 10
3.9925343990325928
 20
-0.24427269399166107
 30
0.0
 11
3.994513988494873
 21
-0.20942258834838867
 31
0.0
  0
LINE
  8
0
 10
3.994513988494873
 20
-0.20942258834838867
 30
0.0
 11
3.9961893558502197
 21
-0.17455655336380005
 31
0.0
  0
LINE
  8
0
 10
3.9961893558502197
 20
-0.17455655336380005
 30
0.0
 11
3.997560501098633
 21
-0.13967721164226532
 31
0.0
  0
LINE
  8
0
 10
3.997560501098633
 20
-0.13967721164226532
 30
0.0
 11
3.998627185821533
 21
-0.10478723049163818
 31
0.0
  0
LINE
  8
0
 10
3.998627185821533
 20
-0.10478723049163818
 30
0.0
 11
3.999389410018921
 21
-0.06988927721977234
 31
0.0
  0
LINE
  8
0
 10
3.999389410018921
 20
-0.06988927721977234
 30
0.0
 11
3.999846935272217
 21
-0.03498600050806999
 31
0.0
  0
LINE
  8
0
 10
3.999846935272217
 20
-0.03498600050806999
 30
0.0
 11
4.0
 21
-8.006094140000641e-05
 31
0.0
  0
LINE
  8
0
 10
4.0
 20
-8.006094140000641e-05
 30
0.0
 11
3.9998483657836914
 21
0.0348258875310421
 31
0.0
  0
LINE
  8
0
 10
3.9998483657836914
 20
0.0348258875310421
 30
0.0
 11
3.99939227104187
 21
0.06972917914390564
 31
0.0
  0
LINE
  8
0
 10
3.99939227104187
 20
0.06972917914390564
 30
0.0
 11
3.998631477355957
 21
0.10462716966867447
 31
0.0
  0
LINE
  8
0
 10
3.998631477355957
 20
0.10462716966867447
 30
0.0
 11
3.9975662231445312
 21
0.1395171880722046
 31
0.0
  0
LINE
  8
0
 10
3.9975662231445312
 20
0.1395171880722046
 30
0.0
 11
3.9961965084075928
 21
0.1743965744972229
 31
0.0
  0
LINE
  8
0
 10
3.9961965084075928
 20
0.1743965744972229
 30
0.0
 11
3.9945223331451416
 21
0.2092626839876175
 31
0.0
  0
LINE
  8
0
 10
3.9945223331451416
 20
0.2092626839876175
 30
0.0
 11
3.992544174194336
 21
0.24411286413669586
 31
0.0
  0
LINE
  8
0
 10
3.992544174194336
 20
0.24411286413669586
 30
0.0
 11
3.9902617931365967
 21
0.2789444625377655
 31
0.0
  0
LINE
  8
0
 10
3.9902617931365967
 20
0.2789444625377655
 30
0.0
 11
3.987675666809082
 21
0.3137547969818115
 31
0.0
  0
LINE
  8
0
 10
3.987675666809082
 20
0.3137547969818115
 30
0.0
 11
3.984786033630371
 21
0.348541259765625
 31
0.0
  0
LINE
  8
0
 10
3.984786033630371
 20
0.348541259765625
 30
0.0
 11
3.9815926551818848
 21
0.38330113887786865
 31
0.0
  0
LINE
  8
0
 10
3.9815926551818848
 20
0.38330113887786865
 30
0.0
 11
3.9780962467193604
 21
0.41803187131881714
 31
0.0
  0
LINE
  8
0
 10
3.9780962467193604
 20
0.41803187131881714
 30
0.0
 11
3.974296808242798
 21
0.4527307450771332
 31
0.0
  0
LINE
  8
0
 10
3.974296808242798
 20
0.4527307450771332
 30
0.0
 11
3.9701948165893555
 21
0.48739516735076904
 31
0.0
  0
LINE
  8
0
 10
3.9701948165893555
 20
0.48739516735076904
 30
0.0
 11
3.965790271759033
 21
0.5220224261283875
 31
0.0
  0
LINE
  8
0
 10
3.965790271759033
 20
0.5220224261283875
 30
0.0
 11
3.9610838890075684
 21
0.5566099882125854
 31
0.0
  0
LINE
  8
0
 10
3.9610838890075684
 20
0.5566099882125854
 30
0.0
 11
3.956075668334961
 21
0.5911551117897034
 31
0.0
  0
LINE
  8
0
 10
3.956075668334961
 20
0.5911551117897034
 30
0.0
 11
3.9507663249969482
 21
0.6256552934646606
 31
0.0
  0
LINE
  8
0
 10
3.9507663249969482
 20
0.6256552934646606
 30
0.0
 11
3.9451563358306885
 21
0.6601077318191528
 31
0.0
  0
LINE
  8
0
 10
3.9451563358306885
 20
0.6601077318191528
 30
0.0
 11
3.9392457008361816
 21
0.6945099830627441
 31
0.0
  0
LINE
  8
0
 10
3.9392457008361816
 20
0.6945099830627441
 30
0.0
 11
3.933034896850586
 21
0.7288593053817749
 31
0.0
  0
LINE
  8
0
 10
3.933034896850586
 20
0.7288593053817749
 30
0.0
 11
3.9265248775482178
 21
0.7631531357765198
 31
0.0
  0
LINE
  8
0
 10
3.9265248775482178
 20
0.7631531357765198
 30
0.0
 11
3.919715642929077
 21
0.7973888516426086
 31
0.0
  0
LINE
  8
0
 10
3.919715642929077
 20
0.7973888516426086
 30
0.0
 11
3.9126081466674805
 21
0.8315638303756714
 31
0.0
  0
LINE
  8
0
 10
3.9126081466674805
 20
0.8315638303756714
 30
0.0
 11
3.9052023887634277
 21
0.8656754493713379
 31
0.0
  0
LINE
  8
0
 10
3.9052023887634277
 20
0.8656754493713379
 30
0.0
 11
3.8974993228912354
 21
0.8997212052345276
 31
0.0
  0
LINE
  8
0
 10
3.8974993228912354
 20
0.8997212052345276
 30
0.0
 11
3.8894996643066406
 21
0.9336984157562256
 31
0.0
  0
LINE
  8
0
 10
3.8894996643066406
 20
0.9336984157562256
 30
0.0
 11
3.8812036514282227
 21
0.9676045179367065
 31
0.0
  0
LINE
  8
0
 10
3.8812036514282227
 20
0.9676045179367065
 30
0.0
 11
3.8726119995117188
 21
1.0014369487762451
 31
0.0
  0
LINE
  8
0
 10
3.8726119995117188
 20
1.0014369487762451
 30
0.0
 11
3.8637256622314453
 21
1.0351930856704712
 31
0.0
  0
LINE
  8
0
 10
3.8637256622314453
 20
1.0351930856704712
 30
0.0
 11
3.8545448780059814
 21
1.0688704252243042
 31
0.0
  0
LINE
  8
0
 10
3.8545448780059814
 20
1.0688704252243042
 30
0.0
 11
3.8450706005096436
 21
1.102466344833374
 31
0.0
  0
LINE
  8
0
 10
3.8450706005096436
 20
1.102466344833374
 30
0.0
 11
3.835303544998169
 21
1.1359783411026
 31
0.0
  0
LINE
  8
0
 10
3.835303544998169
 20
1.1359783411026
 30
0.0
 11
3.825244426727295
 21
1.1694037914276123
 31
0.0
  0
LINE
  8
0
 10
3.825244426727295
 20
1.1694037914276123
 30
0.0
 11
3.814893960952759
 21
1.20274019241333
 31
0.0
  0
LINE
  8
0
 10
3.814893960952759
 20
1.20274019241333
 30
0.0
 11
3.804253101348877
 21
1.2359850406646729
 31
0.0
  0
LINE
  8
0
 10
3.804253101348877
 20
1.2359850406646729
 30
0.0
 11
3.7933223247528076
 21
1.2691357135772705
 31
0.0
  0
LINE
  8
0
 10
3.7933223247528076
 20
1.2691357135772705
 30
0.0
 11
3.7821028232574463
 21
1.302189826965332
 31
0.0
  0
LINE
  8
0
 10
3.7821028232574463
 20
1.302189826965332
 30
0.0
 11
3.7705953121185303
 21
1.3351447582244873
 31
0.0
  0
LINE
  8
0
 10
3.7705953121185303
 20
1.3351447582244873
 30
0.0
 11
3.758800506591797
 21
1.3679978847503662
 31
0.0
  0
LINE
  8
0
 10
3.758800506591797
 20
1.3679978847503662
 30
0.0
 11
3.7467195987701416
 21
1.4007469415664673
 31
0.0
  0
LINE
  8
0
 10
3.7467195987701416
 20
1.4007469415664673
 30
0.0
 11
3.7343533039093018
 21
1.4333893060684204
 31
0.0
  0
LINE
  8
0
 10
3.7343533039093018
 20
1.4333893060684204
 30
0.0
 11
3.721702814102173
 21
1.465922474861145
 31
0.0
  0
LINE
  8
0
 10
3.721702814102173
 20
1.465922474861145
 30
0.0
 11
3.708768606185913
 21
1.49834406375885
 31
0.0
  0
LINE
  8
0
 10
3.708768606185913
 20
1.49834406375885
 30
0.0
 11
3.695552110671997
 21
1.530651569366455
 31
0.0
  0
LINE
  8
0
 10
3.695552110671997
 20
1.530651569366455
 30
0.0
 11
3.682054281234741
 21
1.5628424882888794
 31
0.0
  0
LINE
  8
0
 10
3.682054281234741
 20
1.5628424882888794
 30
0.0
 11
3.668275833129883
 21
1.5949143171310425
 31
0.0
  0
LINE
  8
0
 10
3.668275833129883
 20
1.5949143171310425
 30
0.0
 11
3.6542181968688965
 21
1.6268647909164429
 31
0.0
  0
LINE
  8
0
 10
3.6542181968688965
 20
1.6268647909164429
 30
0.0
 11
3.6398823261260986
 21
1.6586912870407104
 31
0.0
  0
LINE
  8
0
 10
3.6398823261260986
 20
1.6586912870407104
 30
0.0
 11
3.6252691745758057
 21
1.6903915405273438
 31
0.0
  0
LINE
  8
0
 10
3.6252691745758057
 20
1.6903915405273438
 30
0.0
 11
3.610379934310913
 21
1.7219630479812622
 31
0.0
  0
LINE
  8
0
 10
3.610379934310913
 20
1.7219630479812622
 30
0.0
 11
3.5952157974243164
 21
1.7534034252166748
 31
0.0
  0
LINE
  8
0
 10
3.5952157974243164
 20
1.7534034252166748
 30
0.0
 11
3.579777956008911
 21
1.784710168838501
 31
0.0
  0
LINE
  8
0
 10
3.579777956008911
 20
1.784710168838501
 30
0.0
 11
3.5640673637390137
 21
1.8158811330795288
 31
0.0
  0
LINE
  8
0
 10
3.5640673637390137
 20
1.8158811330795288
 30
0.0
 11
3.5480852127075195
 21
1.8469138145446777
 31
0.0
  0
LINE
  8
0
 10
3.5480852127075195
 20
1.8469138145446777
 30
0.0
 11
3.5318331718444824
 21
1.8778058290481567
 31
0.0
  0
LINE
  8
0
 10
3.5318331718444824
 20
1.8778058290481567
 30
0.0
 11
3.5153119564056396
 21
1.9085547924041748
 31
0.0
  0
LINE
  8
0
 10
3.5153119564056396
 20
1.9085547924041748
 30
0.0
 11
3.498523235321045
 21
1.9391584396362305
 31
0.0
  0
LINE
  8
0
 10
3.498523235321045
 20
1.9391584396362305
 30
0.0
 11
3.4814679622650146
 21
1.9696143865585327
 31
0.0
  0
LINE
  8
0
 10
3.4814679622650146
 20
1.9696143865585327
 30
0.0
 11
3.4641475677490234
 21
1.99992036819458
 31
0.0
  0
LINE
  8
0
 10
3.4641475677490234
 20
1.99992036819458
 30
0.0
 11
3.446563482284546
 21
2.030074119567871
 31
0.0
  0
LINE
  8
0
 10
3.446563482284546
 20
2.030074119567871
 30
0.0
 11
3.4287166595458984
 21
2.060073137283325
 31
0.0
  0
LINE
  8
0
 10
3.4287166595458984
 20
2.060073137283325
 30
0.0
 11
3.410609006881714
 21
2.0899152755737305
 31
0.0
  0
LINE
  8
0
 10
3.410609006881714
 20
2.0899152755737305
 30
0.0
 11
3.3922414779663086
 21
2.119598388671875
 31
0.0
  0
LINE
  8
0
 10
3.3922414779663086
 20
2.119598388671875
 30
0.0
 11
3.3736157417297363
 21
2.1491200923919678
 31
0.0
  0
LINE
  8
0
 10
3.3736157417297363
 20
2.1491200923919678
 30
0.0
 11
3.3547329902648926
 21
2.1784780025482178
 31
0.0
  0
LINE
  8
0
 10
3.3547329902648926
 20
2.1784780025482178
 30
0.0
 11
3.335594892501831
 21
2.207670211791992
 31
0.0
  0
LINE
  8
0
 10
3.335594892501831
 20
2.207670211791992
 30
0.0
 11
3.3162026405334473
 21
2.236694097518921
 31
0.0
  0
LINE
  8
0
 10
3.3162026405334473
 20
2.236694097518921
 30
0.0
 11
3.296557903289795
 21
2.265547752380371
 31
0.0
  0
LINE
  8
0
 10
3.296557903289795
 20
2.265547752380371
 30
0.0
 11
3.2766621112823486
 21
2.2942287921905518
 31
0.0
  0
LINE
  8
0
 10
3.2766621112823486
 20
2.2942287921905518
 30
0.0
 11
3.256516695022583
 21
2.32273530960083
 31
0.0
  0
LINE
  8
0
 10
3.256516695022583
 20
2.32273530960083
 30
0.0
 11
3.2361233234405518
 21
2.351064682006836
 31
0.0
  0
LINE
  8
0
 10
3.2361233234405518
 20
2.351064682006836
 30
0.0
 11
3.2154836654663086
 21
2.3792152404785156
 31
0.0
  0
LINE
  8
0
 10
3.2154836654663086
 20
2.3792152404785156
 30
0.0
 11
3.194598913192749
 21
2.407184362411499
 31
0.0
  0
LINE
  8
0
 10
3.194598913192749
 20
2.407184362411499
 30
0.0
 11
3.173471212387085
 21
2.4349703788757324
 31
0.0
  0
LINE
  8
0
 10
3.173471212387085
 20
2.4349703788757324
 30
0.0
 11
3.152101516723633
 21
2.462570905685425
 31
0.0
  0
LINE
  8
0
 10
3.152101516723633
 20
2.462570905685425
 30
0.0
 11
3.1304919719696045
 21
2.4899840354919434
 31
0.0
  0
LINE
  8
0
 10
3.1304919719696045
 20
2.4899840354919434
 30
0.0
 11
3.1086440086364746
 21
2.517207384109497
 31
0.0
  0
LINE
  8
0
 10
3.1086440086364746
 20
2.517207384109497
 30
0.0
 11
3.086559295654297
 21
2.544239044189453
 31
0.0
  0
LINE
  8
0
 10
3.086559295654297
 20
2.544239044189453
 30
0.0
 11
3.064239501953125
 21
2.5710771083831787
 31
0.0
  0
LINE
  8
0
 10
3.064239501953125
 20
2.5710771083831787
 30
0.0
 11
3.0416862964630127
 21
2.597719192504883
 31
0.0
  0
LINE
  8
0
 10
3.0416862964630127
 20
2.597719192504883
 30
0.0
 11
3.0189015865325928
 21
2.6241633892059326
 31
0.0
  0
LINE
  8
0
 10
3.0189015865325928
 20
2.6241633892059326
 30
0.0
 11
2.99588680267334
 21
2.6504080295562744
 31
0.0
  0
LINE
  8
0
 10
2.99588680267334
 20
2.6504080295562744
 30
0.0
 11
2.972644090652466
 21
2.676450490951538
 31
0.0
  0
LINE
  8
0
 10
2.972644090652466
 20
2.676450490951538
 30
0.0
 11
2.9491748809814453
 21
2.702289342880249
 31
0.0
  0
LINE
  8
0
 10
2.9491748809814453
 20
2.702289342880249
 30
0.0
 11
2.925481081008911
 21
2.7279224395751953
 31
0.0
  0
LINE
  8
0
 10
2.925481081008911
 20
2.7279224395751953
 30
0.0
 11
2.901564359664917
 21
2.753347873687744
 31
0.0
  0
LINE
  8
0
 10
2.901564359664917
 20
2.753347873687744
 30
0.0
 11
2.877426862716675
 21
2.7785632610321045
 31
0.0
  0
LINE
  8
0
 10
2.877426862716675
 20
2.7785632610321045
 30
0.0
 11
2.8530702590942383
 21
2.803567409515381
 31
0.0
  0
LINE
  8
0
 10
2.8530702590942383
 20
2.803567409515381
 30
0.0
 11
2.828496217727661
 21
2.8283579349517822
 31
0.0
  0
LINE
  8
0
 10
2.828496217727661
 20
2.8283579349517822
 30
0.0
 11
2.8037068843841553
 21
2.852933168411255
 31
0.0
  0
LINE
  8
0
 10
2.8037068843841553
 20
2.852933168411255
 30
0.0
 11
2.7787041664123535
 21
2.877290964126587
 31
0.0
  0
LINE
  8
0
 10
2.7787041664123535
 20
2.877290964126587
 30
0.0
 11
2.7534897327423096
 21
2.9014296531677246
 31
0.0
  0
LINE
  8
0
 10
2.7534897327423096
 20
2.9014296531677246
 30
0.0
 11
2.7280654907226562
 21
2.9253475666046143
 31
0.0
  0
LINE
  8
0
 10
2.7280654907226562
 20
2.9253475666046143
 30
0.0
 11
2.7024338245391846
 21
2.949042558670044
 31
0.0
  0
LINE
  8
0
 10
2.7024338245391846
 20
2.949042558670044
 30
0.0
 11
2.67659592628479
 21
2.97251296043396
 31
0.0
  0
LINE
  8
0
 10
2.67659592628479
 20
2.97251296043396
 30
0.0
 11
2.6505544185638428
 21
2.9957571029663086
 31
0.0
  0
LINE
  8
0
 10
2.6505544185638428
 20
2.9957571029663086
 30
0.0
 11
2.6243112087249756
 21
3.018773078918457
 31
0.0
  0
LINE
  8
0
 10
2.6243112087249756
 20
3.018773078918457
 30
0.0
 11
2.597867965698242
 21
3.0415592193603516
 31
0.0
  0
LINE
  8
0
 10
2.597867965698242
 20
3.0415592193603516
 30
0.0
 11
2.5712268352508545
 21
3.0641136169433594
 31
0.0
  0
LINE
  8
0
 10
2.5712268352508545
 20
3.0641136169433594
 30
0.0
 11
2.5443899631500244
 21
3.0864346027374268
 31
0.0
  0
LINE
  8
0
 10
2.5443899631500244
 20
3.0864346027374268
 30
0.0
 11
2.517359495162964
 21
3.108520746231079
 31
0.0
  0
LINE
  8
0
 10
2.517359495162964
 20
3.108520746231079
 30
0.0
 11
2.4901371002197266
 21
3.1303701400756836
 31
0.0
  0
LINE
  8
0
 10
2.4901371002197266
 20
3.1303701400756836
 30
0.0
 11
2.4627251625061035
 21
3.1519811153411865
 31
0.0
  0
LINE
  8
0
 10
2.4627251625061035
 20
3.1519811153411865
 30
0.0
 11
2.4351255893707275
 21
3.173352003097534
 31
0.0
  0
LINE
  8
0
 10
2.4351255893707275
 20
3.173352003097534
 30
0.0
 11
2.4073407649993896
 21
3.194481134414673
 31
0.0
  0
LINE
  8
0
 10
2.4073407649993896
 20
3.194481134414673
 30
0.0
 11
2.3793725967407227
 21
3.215367317199707
 31
0.0
  0
LINE
  8
0
 10
2.3793725967407227
 20
3.215367317199707
 30
0.0
 11
2.3512229919433594
 21
3.236008405685425
 31
0.0
  0
LINE
  8
0
 10
2.3512229919433594
 20
3.236008405685425
 30
0.0
 11
2.32289457321167
 21
3.2564029693603516
 31
0.0
  0
LINE
  8
0
 10
2.32289457321167
 20
3.2564029693603516
 30
0.0
 11
2.294389247894287
 21
3.276549816131592
 31
0.0
  0
LINE
  8
0
 10
2.294389247894287
 20
3.276549816131592
 30
0.0
 11
2.2657089233398438
 21
3.2964470386505127
 31
0.0
  0
LINE
  8
0
 10
2.2657089233398438
 20
3.2964470386505127
 30
0.0
 11
2.236856460571289
 21
3.3160932064056396
 31
0.0
  0
LINE
  8
0
 10
2.236856460571289
 20
3.3160932064056396
 30
0.0
 11
2.2078332901000977
 21
3.335486650466919
 31
0.0
  0
LINE
  8
0
 10
2.2078332901000977
 20
3.335486650466919
 30
0.0
 11
2.1786422729492188
 21
3.354626417160034
 31
0.0
  0
LINE
  8
0
 10
2.1786422729492188
 20
3.354626417160034
 30
0.0
 11
2.149285078048706
 21
3.3735105991363525
 31
0.0
  0
LINE
  8
0
 10
2.149285078048706
 20
3.3735105991363525
 30
0.0
 11
2.1197643280029297
 21
3.3921377658843994
 31
0.0
  0
LINE
  8
0
 10
2.1197643280029297
 20
3.3921377658843994
 30
0.0
 11
2.0900821685791016
 21
3.4105067253112793
 31
0.0
  0
LINE
  8
0
 10
2.0900821685791016
 20
3.4105067253112793
 30
0.0
 11
2.0602409839630127
 21
3.4286160469055176
 31
0.0
  0
LINE
  8
0
 10
2.0602409839630127
 20
3.4286160469055176
 30
0.0
 11
2.030242681503296
 21
3.4464640617370605
 31
0.0
  0
LINE
  8
0
 10
2.030242681503296
 20
3.4464640617370605
 30
0.0
 11
2.0000898838043213
 21
3.464049816131592
 31
0.0
  0
LINE
  8
0
 10
2.0000898838043213
 20
3.464049816131592
 30
0.0
 11
1.9697847366333008
 21
3.4813716411590576
 31
0.0
  0
LINE
  8
0
 10
1.9697847366333008
 20
3.4813716411590576
 30
0.0
 11
1.9393296241760254
 21
3.4984283447265625
 31
0.0
  0
LINE
  8
0
 10
1.9393296241760254
 20
3.4984283447265625
 30
0.0
 11
1.9087268114089966
 21
3.515218734741211
 31
0.0
  0
LINE
  8
0
 10
1.9087268114089966
 20
3.515218734741211
 30
0.0
 11
1.8779785633087158
 21
3.5317413806915283
 31
0.0
  0
LINE
  8
0
 10
1.8779785633087158
 20
3.5317413806915283
 30
0.0
 11
1.8470873832702637
 21
3.54799485206604
 31
0.0
  0
LINE
  8
0
 10
1.8470873832702637
 20
3.54799485206604
 30
0.0
 11
1.8160555362701416
 21
3.563978433609009
 31
0.0
  0
LINE
  8
0
 10
1.8160555362701416
 20
3.563978433609009
 30
0.0
 11
1.7848854064941406
 21
3.579690456390381
 31
0.0
  0
LINE
  8
0
 10
1.7848854064941406
 20
3.579690456390381
 30
0.0
 11
1.7535792589187622
 21
3.59512996673584
 31
0.0
  0
LINE
  8
0
 10
1.7535792589187622
 20
3.59512996673584
 30
0.0
 11
1.7221397161483765
 21
3.6102957725524902
 31
0.0
  0
LINE
  8
0
 10
1.7221397161483765
 20
3.6102957725524902
 30
0.0
 11
1.6905689239501953
 21
3.6251864433288574
 31
0.0
  0
LINE
  8
0
 10
1.6905689239501953
 20
3.6251864433288574
 30
0.0
 11
1.6588693857192993
 21
3.639801025390625
 31
0.0
  0
LINE
  8
0
 10
1.6588693857192993
 20
3.639801025390625
 30
0.0
 11
1.627043604850769
 21
3.6541385650634766
 31
0.0
  0
LINE
  8
0
 10
1.627043604850769
 20
3.6541385650634766
 30
0.0
 11
1.595093846321106
 21
3.6681978702545166
 31
0.0
  0
LINE
  8
0
 10
1.595093846321106
 20
3.6681978702545166
 30
0.0
 11
1.5630226135253906
 21
3.6819777488708496
 31
0.0
  0
LINE
  8
0
 10
1.5630226135253906
 20
3.6819777488708496
 30
0.0
 11
1.5308324098587036
 21
3.695477247238159
 31
0.0
  0
LINE
  8
0
 10
1.5308324098587036
 20
3.695477247238159
 30
0.0
 11
1.4985255002975464
 21
3.708695411682129
 31
0.0
  0
LINE
  8
0
 10
1.4985255002975464
 20
3.708695411682129
 30
0.0
 11
1.4661046266555786
 21
3.7216310501098633
 31
0.0
  0
LINE
  8
0
 10
1.4661046266555786
 20
3.7216310501098633
 30
0.0
 11
1.4335720539093018
 21
3.734283208847046
 31
0.0
  0
LINE
  8
0
 10
1.4335720539093018
 20
3.734283208847046
 30
0.0
 11
1.4009302854537964
 21
3.7466511726379395
 31
0.0
  0
LINE
  8
0
 10
1.4009302854537964
 20
3.7466511726379395
 30
0.0
 11
1.368181824684143
 21
3.7587337493896484
 31
0.0
  0
LINE
  8
0
 10
1.368181824684143
 20
3.7587337493896484
 30
0.0
 11
1.3353291749954224
 21
3.7705299854278564
 31
0.0
  0
LINE
  8
0
 10
1.3353291749954224
 20
3.7705299854278564
 30
0.0
 11
1.3023748397827148
 21
3.782039165496826
 31
0.0
  0
LINE
  8
0
 10
1.3023748397827148
 20
3.782039165496826
 30
0.0
 11
1.269321322441101
 21
3.793260335922241
 31
0.0
  0
LINE
  8
0
 10
1.269321322441101
 20
3.793260335922241
 30
0.0
 11
1.2361712455749512
 21
3.804192543029785
 31
0.0
  0
LINE
  8
0
 10
1.2361712455749512
 20
3.804192543029785
 30
0.0
 11
1.2029268741607666
 21
3.8148350715637207
 31
0.0
  0
LINE
  8
0
 10
1.2029268741607666
 20
3.8148350715637207
 30
0.0
 11
1.169590950012207
 21
3.8251872062683105
 31
0.0
  0
LINE
  8
0
 10
1.169590950012207
 20
3.8251872062683105
 30
0.0
 11
1.136165976524353
 21
3.8352479934692383
 31
0.0
  0
LINE
  8
0
 10
1.136165976524353
 20
3.8352479934692383
 30
0.0
 11
1.1026544570922852
 21
3.8450167179107666
 31
0.0
  0
LINE
  8
0
 10
1.1026544570922852
 20
3.8450167179107666
 30
0.0
 11
1.0690590143203735
 21
3.854492425918579
 31
0.0
  0
LINE
  8
0
 10
1.0690590143203735
 20
3.854492425918579
 30
0.0
 11
1.0353821516036987
 21
3.8636748790740967
 31
0.0
  0
LINE
  8
0
 10
1.0353821516036987
 20
3.8636748790740967
 30
0.0
 11
1.0016263723373413
 21
3.872563123703003
 31
0.0
  0
LINE
  8
0
 10
1.0016263723373413
 20
3.872563123703003
 30
0.0
 11
0.9677944183349609
 21
3.8811562061309814
 31
0.0
  0
LINE
  8
0
 10
0.9677944183349609
 20
3.8811562061309814
 30
0.0
 11
0.9338887333869934
 21
3.889453887939453
 31
0.0
  0
LINE
  8
0
 10
0.9338887333869934
 20
3.889453887939453
 30
0.0
 11
0.8999118804931641
 21
3.8974554538726807
 31
0.0
  0
LINE
  8
0
 10
0.8999118804931641
 20
3.8974554538726807
 30
0.0
 11
0.8658665418624878
 21
3.9051599502563477
 31
0.0
  0
LINE
  8
0
 10
0.8658665418624878
 20
3.9051599502563477
 30
0.0
 11
0.8317552208900452
 21
3.912567377090454
 31
0.0
  0
LINE
  8
0
 10
0.8317552208900452
 20
3.912567377090454
 30
0.0
 11
0.7975805997848511
 21
3.9196767807006836
 31
0.0
  0
LINE
  8
0
 10
0.7975805997848511
 20
3.9196767807006836
 30
0.0
 11
0.7633452415466309
 21
3.926487445831299
 31
0.0
  0
LINE
  8
0
 10
0.7633452415466309
 20
3.926487445831299
 30
0.0
 11
0.7290517091751099
 21
3.9329993724823
 31
0.0
  0
LINE
  8
0
 10
0.7290517091751099
 20
3.9329993724823
 30
0.0
 11
0.694702684879303
 21
3.93921160697937
 31
0.0
  0
LINE
  8
0
 10
0.694702684879303
 20
3.93921160697937
 30
0.0
 11
0.6603007912635803
 21
3.9451239109039307
 31
0.0
  0
LINE
  8
0
 10
0.6603007912635803
 20
3.9451239109039307
 30
0.0
 11
0.6258485913276672
 21
3.9507358074188232
 31
0.0
  0
LINE
  8
0
 10
0.6258485913276672
 20
3.9507358074188232
 30
0.0
 11
0.5913487076759338
 21
3.9560468196868896
 31
0.0
  0
LINE
  8
0
 10
0.5913487076759338
 20
3.9560468196868896
 30
0.0
 11
0.556803822517395
 21
3.961056709289551
 31
0.0
  0
LINE
  8
0
 10
0.556803822517395
 20
3.961056709289551
 30
0.0
 11
0.5222164988517761
 21
3.9657647609710693
 31
0.0
  0
LINE
  8
0
 10
0.5222164988517761
 20
3.9657647609710693
 30
0.0
 11
0.48758941888809204
 21
3.970170736312866
 31
0.0
  0
LINE
  8
0
 10
0.48758941888809204
 20
3.970170736312866
 30
0.0
 11
0.4529252052307129
 21
3.9742746353149414
 31
0.0
  0
LINE
  8
0
 10
0.4529252052307129
 20
3.9742746353149414
 30
0.0
 11
0.4182265102863312
 21
3.9780757427215576
 31
0.0
  0
LINE
  8
0
 10
0.4182265102863312
 20
3.9780757427215576
 30
0.0
 11
0.383495956659317
 21
3.9815738201141357
 31
0.0
  0
LINE
  8
0
 10
0.383495956659317
 20
3.9815738201141357
 30
0.0
 11
0.3487361967563629
 21
3.984768867492676
 31
0.0
  0
LINE
  8
0
 10
0.3487361967563629
 20
3.984768867492676
 30
0.0
 11
0.31394991278648376
 21
3.9876604080200195
 31
0.0
  0
LINE
  8
0
 10
0.31394991278648376
 20
3.9876604080200195
 30
0.0
 11
0.2791396975517273
 21
3.990248203277588
 31
0.0
  0
LINE
  8
0
 10
0.2791396975517273
 20
3.990248203277588
 30
0.0
 11
0.244308203458786
 21
3.992532253265381
 31
0.0
  0
LINE
  8
0
 10
0.244308203458786
 20
3.992532253265381
 30
0.0
 11
0.209458127617836
 21
3.9945120811462402
 31
0.0
  0
LINE
  8
0
 10
0.209458127617836
 20
3.9945120811462402
 30
0.0
 11
0.17459210753440857
 21
3.996187925338745
 31
0.0
  0
LINE
  8
0
 10
0.17459210753440857
 20
3.996187925338745
 30
0.0
 11
0.13971278071403503
 21
3.9975593090057373
 31
0.0
  0
LINE
  8
0
 10
0.13971278071403503
 20
3.9975593090057373
 30
0.0
 11
0.1048228070139885
 21
3.998626232147217
 31
0.0
  0
LINE
  8
0
 10
0.1048228070139885
 20
3.998626232147217
 30
0.0
 11
0.06992486119270325
 21
3.9993886947631836
 31
0.0
  0
LINE
  8
0
 10
0.06992486119270325
 20
3.9993886947631836
 30
0.0
 11
0.0350215882062912
 21
3.9998466968536377
 31
0.0
  0
LINE
  8
0
 10
0.0
 20
4.0
 30
0.0
 11
0.0350215882062912
 21
3.9998466968536377
 31
0.0
  0
ENDSEC
  0
EOF
