ISO-10303-21;
HEADER;
/* Generated by software containing ST-Developer
 * from STEP Tools, Inc. (www.steptools.com) 
 */
/* OPTION: using custom renumber hook */

FILE_DESCRIPTION(
/* description */ ('STEP AP214'),
/* implementation_level */ '2;1');

FILE_NAME(
/* name */ '60354988ecaad51544d11b21',
/* time_stamp */ '2021-02-23T18:29:29+00:00',
/* author */ (''),
/* organization */ (''),
/* preprocessor_version */ 'ST-DEVELOPER v18.1',
/* originating_system */ '  ',
/* authorisation */ '  ');

FILE_SCHEMA (('AUTOMOTIVE_DESIGN {1 0 10303 214 3 1 1}'));
ENDSEC;

DATA;
#10=PROPERTY_DEFINITION_REPRESENTATION(#14,#12);
#11=PROPERTY_DEFINITION_REPRESENTATION(#15,#13);
#12=REPRESENTATION('',(#16),#645);
#13=REPRESENTATION('',(#17),#645);
#14=PROPERTY_DEFINITION('pmi validation property','',#655);
#15=PROPERTY_DEFINITION('pmi validation property','',#655);
#16=VALUE_REPRESENTATION_ITEM('number of annotations',COUNT_MEASURE(0.));
#17=VALUE_REPRESENTATION_ITEM('number of views',COUNT_MEASURE(0.));
#18=CONICAL_SURFACE('',#433,0.02185,0.785398163397448);
#19=CONICAL_SURFACE('',#434,0.01685,0.785398163397448);
#20=SHAPE_REPRESENTATION_RELATIONSHIP('','',#392,#22);
#21=SHAPE_REPRESENTATION_RELATIONSHIP('','',#393,#23);
#22=ADVANCED_BREP_SHAPE_REPRESENTATION('',(#388),#644);
#23=ADVANCED_BREP_SHAPE_REPRESENTATION('',(#389),#645);
#24=CYLINDRICAL_SURFACE('',#409,0.005);
#25=CYLINDRICAL_SURFACE('',#411,0.005);
#26=CYLINDRICAL_SURFACE('',#413,0.007);
#27=CYLINDRICAL_SURFACE('',#421,0.01685);
#28=CYLINDRICAL_SURFACE('',#426,0.02185);
#29=CYLINDRICAL_SURFACE('',#431,0.025);
#30=CYLINDRICAL_SURFACE('',#432,0.00700000000000017);
#31=CIRCLE('',#397,0.007);
#32=CIRCLE('',#399,0.005);
#33=CIRCLE('',#400,0.005);
#34=CIRCLE('',#403,0.005);
#35=CIRCLE('',#404,0.005);
#36=CIRCLE('',#406,0.007);
#37=CIRCLE('',#416,0.00700000000000017);
#38=CIRCLE('',#417,0.025);
#39=CIRCLE('',#419,0.01585);
#40=CIRCLE('',#420,0.00700000000000017);
#41=CIRCLE('',#422,0.01685);
#42=CIRCLE('',#423,0.01685);
#43=CIRCLE('',#425,0.02085);
#44=CIRCLE('',#427,0.02185);
#45=CIRCLE('',#428,0.02185);
#46=CIRCLE('',#430,0.025);
#47=ORIENTED_EDGE('',*,*,#131,.F.);
#48=ORIENTED_EDGE('',*,*,#132,.F.);
#49=ORIENTED_EDGE('',*,*,#133,.T.);
#50=ORIENTED_EDGE('',*,*,#134,.T.);
#51=ORIENTED_EDGE('',*,*,#135,.F.);
#52=ORIENTED_EDGE('',*,*,#136,.T.);
#53=ORIENTED_EDGE('',*,*,#137,.F.);
#54=ORIENTED_EDGE('',*,*,#138,.F.);
#55=ORIENTED_EDGE('',*,*,#132,.T.);
#56=ORIENTED_EDGE('',*,*,#139,.F.);
#57=ORIENTED_EDGE('',*,*,#140,.T.);
#58=ORIENTED_EDGE('',*,*,#141,.T.);
#59=ORIENTED_EDGE('',*,*,#142,.F.);
#60=ORIENTED_EDGE('',*,*,#143,.T.);
#61=ORIENTED_EDGE('',*,*,#144,.F.);
#62=ORIENTED_EDGE('',*,*,#145,.F.);
#63=ORIENTED_EDGE('',*,*,#137,.T.);
#64=ORIENTED_EDGE('',*,*,#146,.T.);
#65=ORIENTED_EDGE('',*,*,#147,.F.);
#66=ORIENTED_EDGE('',*,*,#148,.F.);
#67=ORIENTED_EDGE('',*,*,#144,.T.);
#68=ORIENTED_EDGE('',*,*,#149,.F.);
#69=ORIENTED_EDGE('',*,*,#150,.T.);
#70=ORIENTED_EDGE('',*,*,#151,.T.);
#71=ORIENTED_EDGE('',*,*,#152,.F.);
#72=ORIENTED_EDGE('',*,*,#153,.F.);
#73=ORIENTED_EDGE('',*,*,#154,.F.);
#74=ORIENTED_EDGE('',*,*,#155,.T.);
#75=ORIENTED_EDGE('',*,*,#147,.T.);
#76=ORIENTED_EDGE('',*,*,#156,.F.);
#77=ORIENTED_EDGE('',*,*,#157,.F.);
#78=ORIENTED_EDGE('',*,*,#134,.F.);
#79=ORIENTED_EDGE('',*,*,#158,.T.);
#80=ORIENTED_EDGE('',*,*,#154,.T.);
#81=ORIENTED_EDGE('',*,*,#133,.F.);
#82=ORIENTED_EDGE('',*,*,#138,.T.);
#83=ORIENTED_EDGE('',*,*,#145,.T.);
#84=ORIENTED_EDGE('',*,*,#148,.T.);
#85=ORIENTED_EDGE('',*,*,#155,.F.);
#86=ORIENTED_EDGE('',*,*,#158,.F.);
#87=ORIENTED_EDGE('',*,*,#131,.T.);
#88=ORIENTED_EDGE('',*,*,#157,.T.);
#89=ORIENTED_EDGE('',*,*,#153,.T.);
#90=ORIENTED_EDGE('',*,*,#146,.F.);
#91=ORIENTED_EDGE('',*,*,#143,.F.);
#92=ORIENTED_EDGE('',*,*,#136,.F.);
#93=ORIENTED_EDGE('',*,*,#159,.T.);
#94=ORIENTED_EDGE('',*,*,#149,.T.);
#95=ORIENTED_EDGE('',*,*,#160,.F.);
#96=ORIENTED_EDGE('',*,*,#140,.F.);
#97=ORIENTED_EDGE('',*,*,#160,.T.);
#98=ORIENTED_EDGE('',*,*,#152,.T.);
#99=ORIENTED_EDGE('',*,*,#161,.F.);
#100=ORIENTED_EDGE('',*,*,#141,.F.);
#101=ORIENTED_EDGE('',*,*,#142,.T.);
#102=ORIENTED_EDGE('',*,*,#161,.T.);
#103=ORIENTED_EDGE('',*,*,#151,.F.);
#104=ORIENTED_EDGE('',*,*,#162,.F.);
#105=ORIENTED_EDGE('',*,*,#139,.T.);
#106=ORIENTED_EDGE('',*,*,#162,.T.);
#107=ORIENTED_EDGE('',*,*,#150,.F.);
#108=ORIENTED_EDGE('',*,*,#159,.F.);
#109=ORIENTED_EDGE('',*,*,#156,.T.);
#110=ORIENTED_EDGE('',*,*,#135,.T.);
#111=ORIENTED_EDGE('',*,*,#163,.F.);
#112=ORIENTED_EDGE('',*,*,#164,.T.);
#113=ORIENTED_EDGE('',*,*,#165,.T.);
#114=ORIENTED_EDGE('',*,*,#166,.F.);
#115=ORIENTED_EDGE('',*,*,#167,.T.);
#116=ORIENTED_EDGE('',*,*,#168,.F.);
#117=ORIENTED_EDGE('',*,*,#169,.T.);
#118=ORIENTED_EDGE('',*,*,#168,.T.);
#119=ORIENTED_EDGE('',*,*,#170,.T.);
#120=ORIENTED_EDGE('',*,*,#171,.F.);
#121=ORIENTED_EDGE('',*,*,#171,.T.);
#122=ORIENTED_EDGE('',*,*,#172,.F.);
#123=ORIENTED_EDGE('',*,*,#172,.T.);
#124=ORIENTED_EDGE('',*,*,#164,.F.);
#125=ORIENTED_EDGE('',*,*,#163,.T.);
#126=ORIENTED_EDGE('',*,*,#166,.T.);
#127=ORIENTED_EDGE('',*,*,#169,.F.);
#128=ORIENTED_EDGE('',*,*,#170,.F.);
#129=ORIENTED_EDGE('',*,*,#165,.F.);
#130=ORIENTED_EDGE('',*,*,#167,.F.);
#131=EDGE_CURVE('',#173,#174,#205,.T.);
#132=EDGE_CURVE('',#175,#173,#206,.T.);
#133=EDGE_CURVE('',#175,#176,#207,.T.);
#134=EDGE_CURVE('',#176,#174,#208,.T.);
#135=EDGE_CURVE('',#177,#177,#31,.T.);
#136=EDGE_CURVE('',#173,#178,#209,.T.);
#137=EDGE_CURVE('',#179,#178,#210,.T.);
#138=EDGE_CURVE('',#175,#179,#211,.T.);
#139=EDGE_CURVE('',#180,#181,#212,.T.);
#140=EDGE_CURVE('',#180,#182,#32,.T.);
#141=EDGE_CURVE('',#182,#183,#213,.T.);
#142=EDGE_CURVE('',#181,#183,#33,.F.);
#143=EDGE_CURVE('',#178,#184,#214,.T.);
#144=EDGE_CURVE('',#185,#184,#215,.T.);
#145=EDGE_CURVE('',#179,#185,#216,.T.);
#146=EDGE_CURVE('',#184,#186,#217,.T.);
#147=EDGE_CURVE('',#187,#186,#218,.T.);
#148=EDGE_CURVE('',#185,#187,#219,.T.);
#149=EDGE_CURVE('',#188,#189,#34,.T.);
#150=EDGE_CURVE('',#188,#190,#220,.T.);
#151=EDGE_CURVE('',#190,#191,#35,.T.);
#152=EDGE_CURVE('',#189,#191,#221,.T.);
#153=EDGE_CURVE('',#192,#186,#222,.T.);
#154=EDGE_CURVE('',#193,#192,#223,.T.);
#155=EDGE_CURVE('',#193,#187,#224,.T.);
#156=EDGE_CURVE('',#194,#194,#36,.T.);
#157=EDGE_CURVE('',#174,#192,#225,.T.);
#158=EDGE_CURVE('',#176,#193,#226,.T.);
#159=EDGE_CURVE('',#180,#188,#227,.T.);
#160=EDGE_CURVE('',#182,#189,#228,.T.);
#161=EDGE_CURVE('',#183,#191,#229,.T.);
#162=EDGE_CURVE('',#181,#190,#230,.T.);
#163=EDGE_CURVE('',#195,#195,#37,.T.);
#164=EDGE_CURVE('',#196,#196,#38,.T.);
#165=EDGE_CURVE('',#197,#197,#39,.T.);
#166=EDGE_CURVE('',#198,#198,#40,.T.);
#167=EDGE_CURVE('',#199,#199,#41,.F.);
#168=EDGE_CURVE('',#200,#200,#42,.T.);
#169=EDGE_CURVE('',#201,#201,#43,.T.);
#170=EDGE_CURVE('',#202,#202,#44,.F.);
#171=EDGE_CURVE('',#203,#203,#45,.T.);
#172=EDGE_CURVE('',#204,#204,#46,.T.);
#173=VERTEX_POINT('',#546);
#174=VERTEX_POINT('',#547);
#175=VERTEX_POINT('',#549);
#176=VERTEX_POINT('',#551);
#177=VERTEX_POINT('',#555);
#178=VERTEX_POINT('',#557);
#179=VERTEX_POINT('',#559);
#180=VERTEX_POINT('',#563);
#181=VERTEX_POINT('',#564);
#182=VERTEX_POINT('',#566);
#183=VERTEX_POINT('',#568);
#184=VERTEX_POINT('',#571);
#185=VERTEX_POINT('',#573);
#186=VERTEX_POINT('',#577);
#187=VERTEX_POINT('',#579);
#188=VERTEX_POINT('',#583);
#189=VERTEX_POINT('',#584);
#190=VERTEX_POINT('',#586);
#191=VERTEX_POINT('',#588);
#192=VERTEX_POINT('',#591);
#193=VERTEX_POINT('',#593);
#194=VERTEX_POINT('',#597);
#195=VERTEX_POINT('',#614);
#196=VERTEX_POINT('',#616);
#197=VERTEX_POINT('',#619);
#198=VERTEX_POINT('',#621);
#199=VERTEX_POINT('',#624);
#200=VERTEX_POINT('',#626);
#201=VERTEX_POINT('',#629);
#202=VERTEX_POINT('',#632);
#203=VERTEX_POINT('',#634);
#204=VERTEX_POINT('',#637);
#205=LINE('',#545,#231);
#206=LINE('',#548,#232);
#207=LINE('',#550,#233);
#208=LINE('',#552,#234);
#209=LINE('',#556,#235);
#210=LINE('',#558,#236);
#211=LINE('',#560,#237);
#212=LINE('',#562,#238);
#213=LINE('',#567,#239);
#214=LINE('',#570,#240);
#215=LINE('',#572,#241);
#216=LINE('',#574,#242);
#217=LINE('',#576,#243);
#218=LINE('',#578,#244);
#219=LINE('',#580,#245);
#220=LINE('',#585,#246);
#221=LINE('',#589,#247);
#222=LINE('',#590,#248);
#223=LINE('',#592,#249);
#224=LINE('',#594,#250);
#225=LINE('',#598,#251);
#226=LINE('',#599,#252);
#227=LINE('',#603,#253);
#228=LINE('',#604,#254);
#229=LINE('',#606,#255);
#230=LINE('',#608,#256);
#231=VECTOR('',#439,1.);
#232=VECTOR('',#440,1.);
#233=VECTOR('',#441,1.);
#234=VECTOR('',#442,1.);
#235=VECTOR('',#447,1.);
#236=VECTOR('',#448,1.);
#237=VECTOR('',#449,1.);
#238=VECTOR('',#452,1.);
#239=VECTOR('',#455,1.);
#240=VECTOR('',#458,1.);
#241=VECTOR('',#459,1.);
#242=VECTOR('',#460,1.);
#243=VECTOR('',#463,1.);
#244=VECTOR('',#464,1.);
#245=VECTOR('',#465,1.);
#246=VECTOR('',#470,1.);
#247=VECTOR('',#473,1.);
#248=VECTOR('',#474,1.);
#249=VECTOR('',#475,1.);
#250=VECTOR('',#476,1.);
#251=VECTOR('',#481,1.);
#252=VECTOR('',#482,1.);
#253=VECTOR('',#489,1.);
#254=VECTOR('',#490,1.);
#255=VECTOR('',#493,1.);
#256=VECTOR('',#496,1.);
#257=EDGE_LOOP('',(#47,#48,#49,#50));
#258=EDGE_LOOP('',(#51));
#259=EDGE_LOOP('',(#52,#53,#54,#55));
#260=EDGE_LOOP('',(#56,#57,#58,#59));
#261=EDGE_LOOP('',(#60,#61,#62,#63));
#262=EDGE_LOOP('',(#64,#65,#66,#67));
#263=EDGE_LOOP('',(#68,#69,#70,#71));
#264=EDGE_LOOP('',(#72,#73,#74,#75));
#265=EDGE_LOOP('',(#76));
#266=EDGE_LOOP('',(#77,#78,#79,#80));
#267=EDGE_LOOP('',(#81,#82,#83,#84,#85,#86));
#268=EDGE_LOOP('',(#87,#88,#89,#90,#91,#92));
#269=EDGE_LOOP('',(#93,#94,#95,#96));
#270=EDGE_LOOP('',(#97,#98,#99,#100));
#271=EDGE_LOOP('',(#101,#102,#103,#104));
#272=EDGE_LOOP('',(#105,#106,#107,#108));
#273=EDGE_LOOP('',(#109));
#274=EDGE_LOOP('',(#110));
#275=EDGE_LOOP('',(#111));
#276=EDGE_LOOP('',(#112));
#277=EDGE_LOOP('',(#113));
#278=EDGE_LOOP('',(#114));
#279=EDGE_LOOP('',(#115));
#280=EDGE_LOOP('',(#116));
#281=EDGE_LOOP('',(#117));
#282=EDGE_LOOP('',(#118));
#283=EDGE_LOOP('',(#119));
#284=EDGE_LOOP('',(#120));
#285=EDGE_LOOP('',(#121));
#286=EDGE_LOOP('',(#122));
#287=EDGE_LOOP('',(#123));
#288=EDGE_LOOP('',(#124));
#289=EDGE_LOOP('',(#125));
#290=EDGE_LOOP('',(#126));
#291=EDGE_LOOP('',(#127));
#292=EDGE_LOOP('',(#128));
#293=EDGE_LOOP('',(#129));
#294=EDGE_LOOP('',(#130));
#295=FACE_BOUND('',#257,.T.);
#296=FACE_BOUND('',#258,.T.);
#297=FACE_BOUND('',#259,.T.);
#298=FACE_BOUND('',#260,.T.);
#299=FACE_BOUND('',#261,.T.);
#300=FACE_BOUND('',#262,.T.);
#301=FACE_BOUND('',#263,.T.);
#302=FACE_BOUND('',#264,.T.);
#303=FACE_BOUND('',#265,.T.);
#304=FACE_BOUND('',#266,.T.);
#305=FACE_BOUND('',#267,.T.);
#306=FACE_BOUND('',#268,.T.);
#307=FACE_BOUND('',#269,.T.);
#308=FACE_BOUND('',#270,.T.);
#309=FACE_BOUND('',#271,.T.);
#310=FACE_BOUND('',#272,.T.);
#311=FACE_BOUND('',#273,.T.);
#312=FACE_BOUND('',#274,.T.);
#313=FACE_BOUND('',#275,.T.);
#314=FACE_BOUND('',#276,.T.);
#315=FACE_BOUND('',#277,.T.);
#316=FACE_BOUND('',#278,.T.);
#317=FACE_BOUND('',#279,.T.);
#318=FACE_BOUND('',#280,.T.);
#319=FACE_BOUND('',#281,.T.);
#320=FACE_BOUND('',#282,.T.);
#321=FACE_BOUND('',#283,.T.);
#322=FACE_BOUND('',#284,.T.);
#323=FACE_BOUND('',#285,.T.);
#324=FACE_BOUND('',#286,.T.);
#325=FACE_BOUND('',#287,.T.);
#326=FACE_BOUND('',#288,.T.);
#327=FACE_BOUND('',#289,.T.);
#328=FACE_BOUND('',#290,.T.);
#329=FACE_BOUND('',#291,.T.);
#330=FACE_BOUND('',#292,.T.);
#331=FACE_BOUND('',#293,.T.);
#332=FACE_BOUND('',#294,.T.);
#333=PLANE('',#395);
#334=PLANE('',#396);
#335=PLANE('',#398);
#336=PLANE('',#401);
#337=PLANE('',#402);
#338=PLANE('',#405);
#339=PLANE('',#407);
#340=PLANE('',#408);
#341=PLANE('',#410);
#342=PLANE('',#412);
#343=PLANE('',#415);
#344=PLANE('',#418);
#345=PLANE('',#424);
#346=PLANE('',#429);
#347=ADVANCED_FACE('',(#295),#333,.T.);
#348=ADVANCED_FACE('',(#296,#297),#334,.F.);
#349=ADVANCED_FACE('',(#298,#299),#335,.F.);
#350=ADVANCED_FACE('',(#300),#336,.F.);
#351=ADVANCED_FACE('',(#301,#302),#337,.T.);
#352=ADVANCED_FACE('',(#303,#304),#338,.T.);
#353=ADVANCED_FACE('',(#305),#339,.T.);
#354=ADVANCED_FACE('',(#306),#340,.F.);
#355=ADVANCED_FACE('',(#307),#24,.F.);
#356=ADVANCED_FACE('',(#308),#341,.F.);
#357=ADVANCED_FACE('',(#309),#25,.F.);
#358=ADVANCED_FACE('',(#310),#342,.T.);
#359=ADVANCED_FACE('',(#311,#312),#26,.F.);
#360=ADVANCED_FACE('',(#313,#314),#343,.T.);
#361=ADVANCED_FACE('',(#315,#316),#344,.T.);
#362=ADVANCED_FACE('',(#317,#318),#27,.T.);
#363=ADVANCED_FACE('',(#319,#320),#345,.T.);
#364=ADVANCED_FACE('',(#321,#322),#28,.T.);
#365=ADVANCED_FACE('',(#323,#324),#346,.T.);
#366=ADVANCED_FACE('',(#325,#326),#29,.T.);
#367=ADVANCED_FACE('',(#327,#328),#30,.F.);
#368=ADVANCED_FACE('',(#329,#330),#18,.T.);
#369=ADVANCED_FACE('',(#331,#332),#19,.T.);
#370=CLOSED_SHELL('',(#347,#348,#349,#350,#351,#352,#353,#354,#355,#356,
#357,#358,#359));
#371=CLOSED_SHELL('',(#360,#361,#362,#363,#364,#365,#366,#367,#368,#369));
#372=STYLED_ITEM('',(#374),#388);
#373=STYLED_ITEM('',(#375),#389);
#374=PRESENTATION_STYLE_ASSIGNMENT((#376));
#375=PRESENTATION_STYLE_ASSIGNMENT((#377));
#376=SURFACE_STYLE_USAGE(.BOTH.,#378);
#377=SURFACE_STYLE_USAGE(.BOTH.,#379);
#378=SURFACE_SIDE_STYLE('',(#380));
#379=SURFACE_SIDE_STYLE('',(#381));
#380=SURFACE_STYLE_FILL_AREA(#382);
#381=SURFACE_STYLE_FILL_AREA(#383);
#382=FILL_AREA_STYLE('',(#384));
#383=FILL_AREA_STYLE('',(#385));
#384=FILL_AREA_STYLE_COLOUR('',#386);
#385=FILL_AREA_STYLE_COLOUR('',#387);
#386=COLOUR_RGB('',0.768627450980392,0.886274509803922,0.952941176470588);
#387=COLOUR_RGB('',0.498039215686275,0.498039215686275,0.498039215686275);
#388=MANIFOLD_SOLID_BREP('Corni\X\E8re HT S',#370);
#389=MANIFOLD_SOLID_BREP('Cote HT S',#371);
#390=SHAPE_DEFINITION_REPRESENTATION(#654,#392);
#391=SHAPE_DEFINITION_REPRESENTATION(#655,#393);
#392=SHAPE_REPRESENTATION('Corni\X\E8re HT S',(#394),#644);
#393=SHAPE_REPRESENTATION('Cote HT S',(#414),#645);
#394=AXIS2_PLACEMENT_3D('',#543,#435,#436);
#395=AXIS2_PLACEMENT_3D('',#544,#437,#438);
#396=AXIS2_PLACEMENT_3D('',#553,#443,#444);
#397=AXIS2_PLACEMENT_3D('',#554,#445,#446);
#398=AXIS2_PLACEMENT_3D('',#561,#450,#451);
#399=AXIS2_PLACEMENT_3D('',#565,#453,#454);
#400=AXIS2_PLACEMENT_3D('',#569,#456,#457);
#401=AXIS2_PLACEMENT_3D('',#575,#461,#462);
#402=AXIS2_PLACEMENT_3D('',#581,#466,#467);
#403=AXIS2_PLACEMENT_3D('',#582,#468,#469);
#404=AXIS2_PLACEMENT_3D('',#587,#471,#472);
#405=AXIS2_PLACEMENT_3D('',#595,#477,#478);
#406=AXIS2_PLACEMENT_3D('',#596,#479,#480);
#407=AXIS2_PLACEMENT_3D('',#600,#483,#484);
#408=AXIS2_PLACEMENT_3D('',#601,#485,#486);
#409=AXIS2_PLACEMENT_3D('',#602,#487,#488);
#410=AXIS2_PLACEMENT_3D('',#605,#491,#492);
#411=AXIS2_PLACEMENT_3D('',#607,#494,#495);
#412=AXIS2_PLACEMENT_3D('',#609,#497,#498);
#413=AXIS2_PLACEMENT_3D('',#610,#499,#500);
#414=AXIS2_PLACEMENT_3D('',#611,#501,#502);
#415=AXIS2_PLACEMENT_3D('',#612,#503,#504);
#416=AXIS2_PLACEMENT_3D('',#613,#505,#506);
#417=AXIS2_PLACEMENT_3D('',#615,#507,#508);
#418=AXIS2_PLACEMENT_3D('',#617,#509,#510);
#419=AXIS2_PLACEMENT_3D('',#618,#511,#512);
#420=AXIS2_PLACEMENT_3D('',#620,#513,#514);
#421=AXIS2_PLACEMENT_3D('',#622,#515,#516);
#422=AXIS2_PLACEMENT_3D('',#623,#517,#518);
#423=AXIS2_PLACEMENT_3D('',#625,#519,#520);
#424=AXIS2_PLACEMENT_3D('',#627,#521,#522);
#425=AXIS2_PLACEMENT_3D('',#628,#523,#524);
#426=AXIS2_PLACEMENT_3D('',#630,#525,#526);
#427=AXIS2_PLACEMENT_3D('',#631,#527,#528);
#428=AXIS2_PLACEMENT_3D('',#633,#529,#530);
#429=AXIS2_PLACEMENT_3D('',#635,#531,#532);
#430=AXIS2_PLACEMENT_3D('',#636,#533,#534);
#431=AXIS2_PLACEMENT_3D('',#638,#535,#536);
#432=AXIS2_PLACEMENT_3D('',#639,#537,#538);
#433=AXIS2_PLACEMENT_3D('',#640,#539,#540);
#434=AXIS2_PLACEMENT_3D('',#641,#541,#542);
#435=DIRECTION('',(0.,0.,1.));
#436=DIRECTION('',(1.,0.,0.));
#437=DIRECTION('',(0.,1.22464679914735E-16,1.));
#438=DIRECTION('',(0.,1.,-1.22464679914735E-16));
#439=DIRECTION('',(0.,1.,-1.22464679914735E-16));
#440=DIRECTION('',(-1.,0.,0.));
#441=DIRECTION('',(0.,1.,-1.22464679914735E-16));
#442=DIRECTION('',(-1.,0.,0.));
#443=DIRECTION('',(0.,1.,0.));
#444=DIRECTION('',(0.,0.,-1.));
#445=DIRECTION('',(0.,-1.,0.));
#446=DIRECTION('',(0.,0.,1.));
#447=DIRECTION('',(0.,0.,-1.));
#448=DIRECTION('',(-1.,0.,0.));
#449=DIRECTION('',(0.,0.,-1.));
#450=DIRECTION('',(0.,-1.85930604703364E-16,1.));
#451=DIRECTION('',(0.,1.,1.85930604703364E-16));
#452=DIRECTION('',(1.21430643318377E-16,-1.,-1.85930604703364E-16));
#453=DIRECTION('',(0.,-1.85930604703364E-16,1.));
#454=DIRECTION('',(0.,1.,1.85930604703364E-16));
#455=DIRECTION('',(1.21430643318376E-16,-1.,-1.85930604703364E-16));
#456=DIRECTION('',(0.,-1.85930604703364E-16,1.));
#457=DIRECTION('',(0.,1.,1.85930604703364E-16));
#458=DIRECTION('',(0.,1.,1.85930604703364E-16));
#459=DIRECTION('',(-1.,0.,0.));
#460=DIRECTION('',(0.,1.,1.85930604703364E-16));
#461=DIRECTION('',(0.,-1.,1.22464679914735E-16));
#462=DIRECTION('',(0.,1.22464679914735E-16,1.));
#463=DIRECTION('',(0.,1.22464679914735E-16,1.));
#464=DIRECTION('',(-1.,0.,0.));
#465=DIRECTION('',(0.,1.22464679914735E-16,1.));
#466=DIRECTION('',(0.,-5.32035201841819E-17,1.));
#467=DIRECTION('',(0.,1.,5.32035201841819E-17));
#468=DIRECTION('',(0.,-5.32035201841819E-17,1.));
#469=DIRECTION('',(0.,1.,5.32035201841819E-17));
#470=DIRECTION('',(1.21430643318377E-16,-1.,-5.32035201841819E-17));
#471=DIRECTION('',(0.,5.32035201841819E-17,-1.));
#472=DIRECTION('',(0.,1.,5.32035201841819E-17));
#473=DIRECTION('',(1.21430643318376E-16,-1.,-5.32035201841819E-17));
#474=DIRECTION('',(0.,1.,5.32035201841819E-17));
#475=DIRECTION('',(-1.,0.,0.));
#476=DIRECTION('',(0.,1.,5.32035201841819E-17));
#477=DIRECTION('',(0.,1.,2.33557015553861E-18));
#478=DIRECTION('',(0.,2.33557015553861E-18,-1.));
#479=DIRECTION('',(0.,1.,2.33557015553861E-18));
#480=DIRECTION('',(0.,2.33557015553861E-18,-1.));
#481=DIRECTION('',(0.,2.33557015553861E-18,-1.));
#482=DIRECTION('',(0.,2.33557015553861E-18,-1.));
#483=DIRECTION('',(1.,0.,0.));
#484=DIRECTION('',(0.,1.,-1.22464679914735E-16));
#485=DIRECTION('',(1.,0.,0.));
#486=DIRECTION('',(0.,1.,-1.22464679914735E-16));
#487=DIRECTION('',(0.,-5.32035201841819E-17,1.));
#488=DIRECTION('',(0.,1.,5.32035201841819E-17));
#489=DIRECTION('',(0.,-5.32035201841819E-17,1.));
#490=DIRECTION('',(0.,-5.32035201841819E-17,1.));
#491=DIRECTION('',(-1.,-1.21430643318376E-16,-6.46053768276743E-33));
#492=DIRECTION('',(1.21430643318376E-16,-1.,1.22464679914735E-16));
#493=DIRECTION('',(0.,-5.32035201841819E-17,1.));
#494=DIRECTION('',(0.,-5.32035201841819E-17,1.));
#495=DIRECTION('',(0.,1.,5.32035201841819E-17));
#496=DIRECTION('',(0.,-5.32035201841819E-17,1.));
#497=DIRECTION('',(-1.,-1.21430643318377E-16,-6.46053768276744E-33));
#498=DIRECTION('',(1.21430643318377E-16,-1.,1.22464679914735E-16));
#499=DIRECTION('',(0.,-1.,0.));
#500=DIRECTION('',(0.,0.,1.));
#501=DIRECTION('',(0.,0.,1.));
#502=DIRECTION('',(1.,0.,0.));
#503=DIRECTION('',(0.,1.,0.));
#504=DIRECTION('',(0.,0.,1.));
#505=DIRECTION('',(0.,1.,0.));
#506=DIRECTION('',(0.,0.,1.));
#507=DIRECTION('',(0.,1.,0.));
#508=DIRECTION('',(0.,0.,1.));
#509=DIRECTION('',(0.,-1.,0.));
#510=DIRECTION('',(0.,0.,-1.));
#511=DIRECTION('',(0.,-1.,0.));
#512=DIRECTION('',(0.,0.,-1.));
#513=DIRECTION('',(0.,-1.,0.));
#514=DIRECTION('',(0.,0.,-1.));
#515=DIRECTION('',(0.,1.,0.));
#516=DIRECTION('',(0.,0.,1.));
#517=DIRECTION('',(0.,-1.,0.));
#518=DIRECTION('',(0.,0.,-1.));
#519=DIRECTION('',(0.,1.,0.));
#520=DIRECTION('',(0.,0.,1.));
#521=DIRECTION('',(0.,-1.,0.));
#522=DIRECTION('',(0.,0.,-1.));
#523=DIRECTION('',(0.,-1.,0.));
#524=DIRECTION('',(0.,0.,-1.));
#525=DIRECTION('',(0.,1.,0.));
#526=DIRECTION('',(0.,0.,1.));
#527=DIRECTION('',(0.,-1.,0.));
#528=DIRECTION('',(0.,0.,-1.));
#529=DIRECTION('',(0.,1.,0.));
#530=DIRECTION('',(0.,0.,1.));
#531=DIRECTION('',(0.,-1.,0.));
#532=DIRECTION('',(0.,0.,-1.));
#533=DIRECTION('',(0.,1.,0.));
#534=DIRECTION('',(0.,0.,1.));
#535=DIRECTION('',(0.,1.,0.));
#536=DIRECTION('',(0.,0.,1.));
#537=DIRECTION('',(0.,1.,0.));
#538=DIRECTION('',(0.,0.,1.));
#539=DIRECTION('',(0.,1.,0.));
#540=DIRECTION('',(0.,0.,1.));
#541=DIRECTION('',(0.,1.,0.));
#542=DIRECTION('',(0.,0.,1.));
#543=CARTESIAN_POINT('',(0.,0.,0.));
#544=CARTESIAN_POINT('',(-0.498059811204883,0.42505898644295,0.03));
#545=CARTESIAN_POINT('',(-0.578059811204883,0.42505898644295,0.03));
#546=CARTESIAN_POINT('',(-0.578059811204883,0.41955898644295,0.03));
#547=CARTESIAN_POINT('',(-0.578059811204883,0.43055898644295,0.03));
#548=CARTESIAN_POINT('',(-0.498059811204883,0.41955898644295,0.03));
#549=CARTESIAN_POINT('',(-0.498059811204883,0.41955898644295,0.03));
#550=CARTESIAN_POINT('',(-0.498059811204883,0.42505898644295,0.03));
#551=CARTESIAN_POINT('',(-0.498059811204883,0.43055898644295,0.03));
#552=CARTESIAN_POINT('',(-0.498059811204883,0.43055898644295,0.03));
#553=CARTESIAN_POINT('',(-0.498059811204883,0.41955898644295,-0.045));
#554=CARTESIAN_POINT('',(-0.538059811204883,0.41955898644295,0.));
#555=CARTESIAN_POINT('',(-0.538059811204883,0.41955898644295,0.007));
#556=CARTESIAN_POINT('',(-0.578059811204883,0.41955898644295,-0.045));
#557=CARTESIAN_POINT('',(-0.578059811204883,0.41955898644295,-0.12));
#558=CARTESIAN_POINT('',(-0.498059811204883,0.41955898644295,-0.12));
#559=CARTESIAN_POINT('',(-0.498059811204883,0.41955898644295,-0.12));
#560=CARTESIAN_POINT('',(-0.498059811204883,0.41955898644295,-0.045));
#561=CARTESIAN_POINT('',(-0.498059811204883,0.46455898644295,-0.12));
#562=CARTESIAN_POINT('',(-0.533059811204883,0.46455898644295,-0.12));
#563=CARTESIAN_POINT('',(-0.533059811204883,0.49955898644295,-0.12));
#564=CARTESIAN_POINT('',(-0.533059811204883,0.44955898644295,-0.12));
#565=CARTESIAN_POINT('',(-0.538059811204883,0.49955898644295,-0.12));
#566=CARTESIAN_POINT('',(-0.543059811204883,0.49955898644295,-0.12));
#567=CARTESIAN_POINT('',(-0.543059811204883,0.46455898644295,-0.12));
#568=CARTESIAN_POINT('',(-0.543059811204883,0.44955898644295,-0.12));
#569=CARTESIAN_POINT('',(-0.538059811204883,0.44955898644295,-0.12));
#570=CARTESIAN_POINT('',(-0.578059811204883,0.46455898644295,-0.12));
#571=CARTESIAN_POINT('',(-0.578059811204883,0.50955898644295,-0.12));
#572=CARTESIAN_POINT('',(-0.498059811204883,0.50955898644295,-0.12));
#573=CARTESIAN_POINT('',(-0.498059811204883,0.50955898644295,-0.12));
#574=CARTESIAN_POINT('',(-0.498059811204883,0.46455898644295,-0.12));
#575=CARTESIAN_POINT('',(-0.498059811204883,0.50955898644295,-0.1145));
#576=CARTESIAN_POINT('',(-0.578059811204883,0.50955898644295,-0.1145));
#577=CARTESIAN_POINT('',(-0.578059811204883,0.50955898644295,-0.109));
#578=CARTESIAN_POINT('',(-0.498059811204883,0.50955898644295,-0.109));
#579=CARTESIAN_POINT('',(-0.498059811204883,0.50955898644295,-0.109));
#580=CARTESIAN_POINT('',(-0.498059811204883,0.50955898644295,-0.1145));
#581=CARTESIAN_POINT('',(-0.498059811204883,0.47005898644295,-0.109));
#582=CARTESIAN_POINT('',(-0.538059811204883,0.49955898644295,-0.109));
#583=CARTESIAN_POINT('',(-0.533059811204883,0.49955898644295,-0.109));
#584=CARTESIAN_POINT('',(-0.543059811204883,0.49955898644295,-0.109));
#585=CARTESIAN_POINT('',(-0.533059811204883,0.47455898644295,-0.109));
#586=CARTESIAN_POINT('',(-0.533059811204883,0.44955898644295,-0.109));
#587=CARTESIAN_POINT('',(-0.538059811204883,0.44955898644295,-0.109));
#588=CARTESIAN_POINT('',(-0.543059811204883,0.44955898644295,-0.109));
#589=CARTESIAN_POINT('',(-0.543059811204883,0.47455898644295,-0.109));
#590=CARTESIAN_POINT('',(-0.578059811204883,0.47005898644295,-0.109));
#591=CARTESIAN_POINT('',(-0.578059811204883,0.43055898644295,-0.109));
#592=CARTESIAN_POINT('',(-0.498059811204883,0.43055898644295,-0.109));
#593=CARTESIAN_POINT('',(-0.498059811204883,0.43055898644295,-0.109));
#594=CARTESIAN_POINT('',(-0.498059811204883,0.47005898644295,-0.109));
#595=CARTESIAN_POINT('',(-0.498059811204883,0.43055898644295,-0.0395));
#596=CARTESIAN_POINT('',(-0.538059811204883,0.43055898644295,0.));
#597=CARTESIAN_POINT('',(-0.538059811204883,0.43055898644295,-0.007));
#598=CARTESIAN_POINT('',(-0.578059811204883,0.43055898644295,-0.0395));
#599=CARTESIAN_POINT('',(-0.498059811204883,0.43055898644295,-0.0395));
#600=CARTESIAN_POINT('',(-0.498059811204883,0.46455898644295,-0.045));
#601=CARTESIAN_POINT('',(-0.578059811204883,0.46455898644295,-0.045));
#602=CARTESIAN_POINT('',(-0.538059811204883,0.49955898644295,-0.134));
#603=CARTESIAN_POINT('',(-0.533059811204883,0.49955898644295,-0.134));
#604=CARTESIAN_POINT('',(-0.543059811204883,0.49955898644295,-0.134));
#605=CARTESIAN_POINT('',(-0.543059811204883,0.47455898644295,-0.134));
#606=CARTESIAN_POINT('',(-0.543059811204883,0.44955898644295,-0.134));
#607=CARTESIAN_POINT('',(-0.538059811204883,0.44955898644295,-0.134));
#608=CARTESIAN_POINT('',(-0.533059811204883,0.44955898644295,-0.134));
#609=CARTESIAN_POINT('',(-0.533059811204883,0.47455898644295,-0.134));
#610=CARTESIAN_POINT('',(-0.538059811204883,0.44455898644295,-1.92592994438723E-34));
#611=CARTESIAN_POINT('',(0.,0.,0.));
#612=CARTESIAN_POINT('',(-0.525559811204883,0.41955898644295,0.));
#613=CARTESIAN_POINT('',(-0.538059811204883,0.41955898644295,0.));
#614=CARTESIAN_POINT('',(-0.538059811204883,0.41955898644295,0.00700000000000017));
#615=CARTESIAN_POINT('',(-0.538059811204883,0.41955898644295,0.));
#616=CARTESIAN_POINT('',(-0.538059811204883,0.41955898644295,0.025));
#617=CARTESIAN_POINT('',(-0.529634811204883,0.39955898644295,0.));
#618=CARTESIAN_POINT('',(-0.538059811204883,0.39955898644295,0.));
#619=CARTESIAN_POINT('',(-0.538059811204883,0.39955898644295,-0.01585));
#620=CARTESIAN_POINT('',(-0.538059811204883,0.39955898644295,0.));
#621=CARTESIAN_POINT('',(-0.538059811204883,0.39955898644295,-0.00700000000000017));
#622=CARTESIAN_POINT('',(-0.538059811204883,0.14955898644295,0.));
#623=CARTESIAN_POINT('',(-0.538059811204883,0.40055898644295,0.));
#624=CARTESIAN_POINT('',(-0.538059811204883,0.40055898644295,-0.01685));
#625=CARTESIAN_POINT('',(-0.538059811204883,0.40455898644295,0.));
#626=CARTESIAN_POINT('',(-0.538059811204883,0.40455898644295,0.01685));
#627=CARTESIAN_POINT('',(-0.518709811204883,0.40455898644295,0.));
#628=CARTESIAN_POINT('',(-0.538059811204883,0.40455898644295,0.));
#629=CARTESIAN_POINT('',(-0.538059811204883,0.40455898644295,-0.02085));
#630=CARTESIAN_POINT('',(-0.538059811204883,0.14955898644295,0.));
#631=CARTESIAN_POINT('',(-0.538059811204883,0.40555898644295,0.));
#632=CARTESIAN_POINT('',(-0.538059811204883,0.40555898644295,-0.02185));
#633=CARTESIAN_POINT('',(-0.538059811204883,0.40955898644295,0.));
#634=CARTESIAN_POINT('',(-0.538059811204883,0.40955898644295,0.02185));
#635=CARTESIAN_POINT('',(-0.514634811204883,0.40955898644295,0.));
#636=CARTESIAN_POINT('',(-0.538059811204883,0.40955898644295,0.));
#637=CARTESIAN_POINT('',(-0.538059811204883,0.40955898644295,0.025));
#638=CARTESIAN_POINT('',(-0.538059811204883,0.14955898644295,0.));
#639=CARTESIAN_POINT('',(-0.538059811204883,0.23955898644295,0.));
#640=CARTESIAN_POINT('',(-0.538059811204883,0.40555898644295,0.));
#641=CARTESIAN_POINT('',(-0.538059811204883,0.40055898644295,0.));
#642=MECHANICAL_DESIGN_GEOMETRIC_PRESENTATION_REPRESENTATION('',(#372),
#644);
#643=MECHANICAL_DESIGN_GEOMETRIC_PRESENTATION_REPRESENTATION('',(#373),
#645);
#644=(
GEOMETRIC_REPRESENTATION_CONTEXT(3)
GLOBAL_UNCERTAINTY_ASSIGNED_CONTEXT((#646))
GLOBAL_UNIT_ASSIGNED_CONTEXT((#652,#650,#648))
REPRESENTATION_CONTEXT('Corni\X\E8re HT S','TOP_LEVEL_ASSEMBLY_PART')
);
#645=(
GEOMETRIC_REPRESENTATION_CONTEXT(3)
GLOBAL_UNCERTAINTY_ASSIGNED_CONTEXT((#647))
GLOBAL_UNIT_ASSIGNED_CONTEXT((#653,#651,#649))
REPRESENTATION_CONTEXT('Cote HT S','TOP_LEVEL_ASSEMBLY_PART')
);
#646=UNCERTAINTY_MEASURE_WITH_UNIT(LENGTH_MEASURE(5.E-6),#652,
'DISTANCE_ACCURACY_VALUE','Maximum Tolerance applied to model');
#647=UNCERTAINTY_MEASURE_WITH_UNIT(LENGTH_MEASURE(5.E-6),#653,
'DISTANCE_ACCURACY_VALUE','Maximum Tolerance applied to model');
#648=(
NAMED_UNIT(*)
SI_UNIT($,.STERADIAN.)
SOLID_ANGLE_UNIT()
);
#649=(
NAMED_UNIT(*)
SI_UNIT($,.STERADIAN.)
SOLID_ANGLE_UNIT()
);
#650=(
NAMED_UNIT(*)
PLANE_ANGLE_UNIT()
SI_UNIT($,.RADIAN.)
);
#651=(
NAMED_UNIT(*)
PLANE_ANGLE_UNIT()
SI_UNIT($,.RADIAN.)
);
#652=(
LENGTH_UNIT()
NAMED_UNIT(*)
SI_UNIT($,.METRE.)
);
#653=(
LENGTH_UNIT()
NAMED_UNIT(*)
SI_UNIT($,.METRE.)
);
#654=PRODUCT_DEFINITION_SHAPE('','',#656);
#655=PRODUCT_DEFINITION_SHAPE('','',#657);
#656=PRODUCT_DEFINITION('','',#660,#658);
#657=PRODUCT_DEFINITION('','',#661,#659);
#658=PRODUCT_DEFINITION_CONTEXT('',#672,'design');
#659=PRODUCT_DEFINITION_CONTEXT('',#673,'design');
#660=PRODUCT_DEFINITION_FORMATION_WITH_SPECIFIED_SOURCE('','',#664,
 .NOT_KNOWN.);
#661=PRODUCT_DEFINITION_FORMATION_WITH_SPECIFIED_SOURCE('','',#665,
 .NOT_KNOWN.);
#662=PRODUCT_RELATED_PRODUCT_CATEGORY('','',(#664));
#663=PRODUCT_RELATED_PRODUCT_CATEGORY('','',(#665));
#664=PRODUCT('Corni\X\E8re HT S','Corni\X\E8re HT S','Corni\X\E8re HT 
S',(#668));
#665=PRODUCT('Cote HT S','Cote HT S','Cote HT S',(#669));
#666=PRODUCT_CATEGORY('','');
#667=PRODUCT_CATEGORY('','');
#668=PRODUCT_CONTEXT('',#672,'mechanical');
#669=PRODUCT_CONTEXT('',#673,'mechanical');
#670=APPLICATION_PROTOCOL_DEFINITION('international standard',
'automotive_design',2010,#672);
#671=APPLICATION_PROTOCOL_DEFINITION('international standard',
'automotive_design',2010,#673);
#672=APPLICATION_CONTEXT(
'core data for automotive mechanical design processes');
#673=APPLICATION_CONTEXT(
'core data for automotive mechanical design processes');
ENDSEC;
END-ISO-10303-21;
