ISO-10303-21;
HEADER;
/* Generated by software containing ST-Developer
 * from STEP Tools, Inc. (www.steptools.com) 
 */
/* OPTION: using custom renumber hook */

FILE_DESCRIPTION(
/* description */ ('STEP AP214'),
/* implementation_level */ '2;1');

FILE_NAME(
/* name */ '603549a3ecaad51544d11b5d',
/* time_stamp */ '2021-02-23T18:29:56+00:00',
/* author */ (''),
/* organization */ (''),
/* preprocessor_version */ 'ST-DEVELOPER v18.1',
/* originating_system */ '  ',
/* authorisation */ '  ');

FILE_SCHEMA (('AUTOMOTIVE_DESIGN {1 0 10303 214 3 1 1}'));
ENDSEC;

DATA;
#10=PROPERTY_DEFINITION_REPRESENTATION(#14,#12);
#11=PROPERTY_DEFINITION_REPRESENTATION(#15,#13);
#12=REPRESENTATION('',(#16),#457);
#13=REPRESENTATION('',(#17),#457);
#14=PROPERTY_DEFINITION('pmi validation property','',#467);
#15=PROPERTY_DEFINITION('pmi validation property','',#467);
#16=VALUE_REPRESENTATION_ITEM('number of annotations',COUNT_MEASURE(0.));
#17=VALUE_REPRESENTATION_ITEM('number of views',COUNT_MEASURE(0.));
#18=SHAPE_REPRESENTATION_RELATIONSHIP('','',#264,#20);
#19=SHAPE_REPRESENTATION_RELATIONSHIP('','',#265,#21);
#20=ADVANCED_BREP_SHAPE_REPRESENTATION('',(#260),#456);
#21=ADVANCED_BREP_SHAPE_REPRESENTATION('',(#261),#457);
#22=CONICAL_SURFACE('',#285,0.0142,0.785398163397448);
#23=CONICAL_SURFACE('',#286,0.01265,0.785398163397448);
#24=CONICAL_SURFACE('',#306,0.02185,0.785398163397448);
#25=CONICAL_SURFACE('',#307,0.01685,0.785398163397448);
#26=CYLINDRICAL_SURFACE('',#270,0.02);
#27=CYLINDRICAL_SURFACE('',#277,0.01365);
#28=CYLINDRICAL_SURFACE('',#282,0.0152);
#29=CYLINDRICAL_SURFACE('',#284,0.007);
#30=CYLINDRICAL_SURFACE('',#294,0.01685);
#31=CYLINDRICAL_SURFACE('',#299,0.02185);
#32=CYLINDRICAL_SURFACE('',#304,0.025);
#33=CYLINDRICAL_SURFACE('',#305,0.00700000000000017);
#34=ORIENTED_EDGE('',*,*,#74,.T.);
#35=ORIENTED_EDGE('',*,*,#75,.F.);
#36=ORIENTED_EDGE('',*,*,#76,.T.);
#37=ORIENTED_EDGE('',*,*,#74,.F.);
#38=ORIENTED_EDGE('',*,*,#77,.F.);
#39=ORIENTED_EDGE('',*,*,#76,.F.);
#40=ORIENTED_EDGE('',*,*,#78,.T.);
#41=ORIENTED_EDGE('',*,*,#79,.F.);
#42=ORIENTED_EDGE('',*,*,#80,.T.);
#43=ORIENTED_EDGE('',*,*,#81,.T.);
#44=ORIENTED_EDGE('',*,*,#82,.T.);
#45=ORIENTED_EDGE('',*,*,#81,.F.);
#46=ORIENTED_EDGE('',*,*,#83,.T.);
#47=ORIENTED_EDGE('',*,*,#75,.T.);
#48=ORIENTED_EDGE('',*,*,#77,.T.);
#49=ORIENTED_EDGE('',*,*,#79,.T.);
#50=ORIENTED_EDGE('',*,*,#83,.F.);
#51=ORIENTED_EDGE('',*,*,#82,.F.);
#52=ORIENTED_EDGE('',*,*,#80,.F.);
#53=ORIENTED_EDGE('',*,*,#78,.F.);
#54=ORIENTED_EDGE('',*,*,#84,.F.);
#55=ORIENTED_EDGE('',*,*,#85,.T.);
#56=ORIENTED_EDGE('',*,*,#86,.T.);
#57=ORIENTED_EDGE('',*,*,#87,.F.);
#58=ORIENTED_EDGE('',*,*,#88,.T.);
#59=ORIENTED_EDGE('',*,*,#89,.F.);
#60=ORIENTED_EDGE('',*,*,#90,.T.);
#61=ORIENTED_EDGE('',*,*,#89,.T.);
#62=ORIENTED_EDGE('',*,*,#91,.T.);
#63=ORIENTED_EDGE('',*,*,#92,.F.);
#64=ORIENTED_EDGE('',*,*,#92,.T.);
#65=ORIENTED_EDGE('',*,*,#93,.F.);
#66=ORIENTED_EDGE('',*,*,#93,.T.);
#67=ORIENTED_EDGE('',*,*,#85,.F.);
#68=ORIENTED_EDGE('',*,*,#84,.T.);
#69=ORIENTED_EDGE('',*,*,#87,.T.);
#70=ORIENTED_EDGE('',*,*,#90,.F.);
#71=ORIENTED_EDGE('',*,*,#91,.F.);
#72=ORIENTED_EDGE('',*,*,#86,.F.);
#73=ORIENTED_EDGE('',*,*,#88,.F.);
#74=EDGE_CURVE('',#94,#94,#114,.T.);
#75=EDGE_CURVE('',#95,#95,#115,.T.);
#76=EDGE_CURVE('',#96,#96,#116,.T.);
#77=EDGE_CURVE('',#97,#97,#117,.T.);
#78=EDGE_CURVE('',#98,#98,#118,.T.);
#79=EDGE_CURVE('',#99,#99,#119,.T.);
#80=EDGE_CURVE('',#100,#100,#120,.F.);
#81=EDGE_CURVE('',#101,#101,#121,.T.);
#82=EDGE_CURVE('',#102,#102,#122,.T.);
#83=EDGE_CURVE('',#103,#103,#123,.F.);
#84=EDGE_CURVE('',#104,#104,#124,.T.);
#85=EDGE_CURVE('',#105,#105,#125,.T.);
#86=EDGE_CURVE('',#106,#106,#126,.T.);
#87=EDGE_CURVE('',#107,#107,#127,.T.);
#88=EDGE_CURVE('',#108,#108,#128,.F.);
#89=EDGE_CURVE('',#109,#109,#129,.T.);
#90=EDGE_CURVE('',#110,#110,#130,.T.);
#91=EDGE_CURVE('',#111,#111,#131,.F.);
#92=EDGE_CURVE('',#112,#112,#132,.T.);
#93=EDGE_CURVE('',#113,#113,#133,.T.);
#94=VERTEX_POINT('',#395);
#95=VERTEX_POINT('',#397);
#96=VERTEX_POINT('',#400);
#97=VERTEX_POINT('',#403);
#98=VERTEX_POINT('',#406);
#99=VERTEX_POINT('',#408);
#100=VERTEX_POINT('',#411);
#101=VERTEX_POINT('',#413);
#102=VERTEX_POINT('',#416);
#103=VERTEX_POINT('',#419);
#104=VERTEX_POINT('',#426);
#105=VERTEX_POINT('',#428);
#106=VERTEX_POINT('',#431);
#107=VERTEX_POINT('',#433);
#108=VERTEX_POINT('',#436);
#109=VERTEX_POINT('',#438);
#110=VERTEX_POINT('',#441);
#111=VERTEX_POINT('',#444);
#112=VERTEX_POINT('',#446);
#113=VERTEX_POINT('',#449);
#114=CIRCLE('',#268,0.02);
#115=CIRCLE('',#269,0.0152);
#116=CIRCLE('',#271,0.02);
#117=CIRCLE('',#273,0.007);
#118=CIRCLE('',#275,0.01265);
#119=CIRCLE('',#276,0.007);
#120=CIRCLE('',#278,0.01365);
#121=CIRCLE('',#279,0.01365);
#122=CIRCLE('',#281,0.0142);
#123=CIRCLE('',#283,0.0152);
#124=CIRCLE('',#289,0.00700000000000017);
#125=CIRCLE('',#290,0.025);
#126=CIRCLE('',#292,0.01585);
#127=CIRCLE('',#293,0.00700000000000017);
#128=CIRCLE('',#295,0.01685);
#129=CIRCLE('',#296,0.01685);
#130=CIRCLE('',#298,0.02085);
#131=CIRCLE('',#300,0.02185);
#132=CIRCLE('',#301,0.02185);
#133=CIRCLE('',#303,0.025);
#134=EDGE_LOOP('',(#34));
#135=EDGE_LOOP('',(#35));
#136=EDGE_LOOP('',(#36));
#137=EDGE_LOOP('',(#37));
#138=EDGE_LOOP('',(#38));
#139=EDGE_LOOP('',(#39));
#140=EDGE_LOOP('',(#40));
#141=EDGE_LOOP('',(#41));
#142=EDGE_LOOP('',(#42));
#143=EDGE_LOOP('',(#43));
#144=EDGE_LOOP('',(#44));
#145=EDGE_LOOP('',(#45));
#146=EDGE_LOOP('',(#46));
#147=EDGE_LOOP('',(#47));
#148=EDGE_LOOP('',(#48));
#149=EDGE_LOOP('',(#49));
#150=EDGE_LOOP('',(#50));
#151=EDGE_LOOP('',(#51));
#152=EDGE_LOOP('',(#52));
#153=EDGE_LOOP('',(#53));
#154=EDGE_LOOP('',(#54));
#155=EDGE_LOOP('',(#55));
#156=EDGE_LOOP('',(#56));
#157=EDGE_LOOP('',(#57));
#158=EDGE_LOOP('',(#58));
#159=EDGE_LOOP('',(#59));
#160=EDGE_LOOP('',(#60));
#161=EDGE_LOOP('',(#61));
#162=EDGE_LOOP('',(#62));
#163=EDGE_LOOP('',(#63));
#164=EDGE_LOOP('',(#64));
#165=EDGE_LOOP('',(#65));
#166=EDGE_LOOP('',(#66));
#167=EDGE_LOOP('',(#67));
#168=EDGE_LOOP('',(#68));
#169=EDGE_LOOP('',(#69));
#170=EDGE_LOOP('',(#70));
#171=EDGE_LOOP('',(#71));
#172=EDGE_LOOP('',(#72));
#173=EDGE_LOOP('',(#73));
#174=FACE_BOUND('',#134,.T.);
#175=FACE_BOUND('',#135,.T.);
#176=FACE_BOUND('',#136,.T.);
#177=FACE_BOUND('',#137,.T.);
#178=FACE_BOUND('',#138,.T.);
#179=FACE_BOUND('',#139,.T.);
#180=FACE_BOUND('',#140,.T.);
#181=FACE_BOUND('',#141,.T.);
#182=FACE_BOUND('',#142,.T.);
#183=FACE_BOUND('',#143,.T.);
#184=FACE_BOUND('',#144,.T.);
#185=FACE_BOUND('',#145,.T.);
#186=FACE_BOUND('',#146,.T.);
#187=FACE_BOUND('',#147,.T.);
#188=FACE_BOUND('',#148,.T.);
#189=FACE_BOUND('',#149,.T.);
#190=FACE_BOUND('',#150,.T.);
#191=FACE_BOUND('',#151,.T.);
#192=FACE_BOUND('',#152,.T.);
#193=FACE_BOUND('',#153,.T.);
#194=FACE_BOUND('',#154,.T.);
#195=FACE_BOUND('',#155,.T.);
#196=FACE_BOUND('',#156,.T.);
#197=FACE_BOUND('',#157,.T.);
#198=FACE_BOUND('',#158,.T.);
#199=FACE_BOUND('',#159,.T.);
#200=FACE_BOUND('',#160,.T.);
#201=FACE_BOUND('',#161,.T.);
#202=FACE_BOUND('',#162,.T.);
#203=FACE_BOUND('',#163,.T.);
#204=FACE_BOUND('',#164,.T.);
#205=FACE_BOUND('',#165,.T.);
#206=FACE_BOUND('',#166,.T.);
#207=FACE_BOUND('',#167,.T.);
#208=FACE_BOUND('',#168,.T.);
#209=FACE_BOUND('',#169,.T.);
#210=FACE_BOUND('',#170,.T.);
#211=FACE_BOUND('',#171,.T.);
#212=FACE_BOUND('',#172,.T.);
#213=FACE_BOUND('',#173,.T.);
#214=PLANE('',#267);
#215=PLANE('',#272);
#216=PLANE('',#274);
#217=PLANE('',#280);
#218=PLANE('',#288);
#219=PLANE('',#291);
#220=PLANE('',#297);
#221=PLANE('',#302);
#222=ADVANCED_FACE('',(#174,#175),#214,.T.);
#223=ADVANCED_FACE('',(#176,#177),#26,.T.);
#224=ADVANCED_FACE('',(#178,#179),#215,.T.);
#225=ADVANCED_FACE('',(#180,#181),#216,.T.);
#226=ADVANCED_FACE('',(#182,#183),#27,.T.);
#227=ADVANCED_FACE('',(#184,#185),#217,.T.);
#228=ADVANCED_FACE('',(#186,#187),#28,.T.);
#229=ADVANCED_FACE('',(#188,#189),#29,.F.);
#230=ADVANCED_FACE('',(#190,#191),#22,.T.);
#231=ADVANCED_FACE('',(#192,#193),#23,.T.);
#232=ADVANCED_FACE('',(#194,#195),#218,.T.);
#233=ADVANCED_FACE('',(#196,#197),#219,.T.);
#234=ADVANCED_FACE('',(#198,#199),#30,.T.);
#235=ADVANCED_FACE('',(#200,#201),#220,.T.);
#236=ADVANCED_FACE('',(#202,#203),#31,.T.);
#237=ADVANCED_FACE('',(#204,#205),#221,.T.);
#238=ADVANCED_FACE('',(#206,#207),#32,.T.);
#239=ADVANCED_FACE('',(#208,#209),#33,.F.);
#240=ADVANCED_FACE('',(#210,#211),#24,.T.);
#241=ADVANCED_FACE('',(#212,#213),#25,.T.);
#242=CLOSED_SHELL('',(#222,#223,#224,#225,#226,#227,#228,#229,#230,#231));
#243=CLOSED_SHELL('',(#232,#233,#234,#235,#236,#237,#238,#239,#240,#241));
#244=STYLED_ITEM('',(#246),#260);
#245=STYLED_ITEM('',(#247),#261);
#246=PRESENTATION_STYLE_ASSIGNMENT((#248));
#247=PRESENTATION_STYLE_ASSIGNMENT((#249));
#248=SURFACE_STYLE_USAGE(.BOTH.,#250);
#249=SURFACE_STYLE_USAGE(.BOTH.,#251);
#250=SURFACE_SIDE_STYLE('',(#252));
#251=SURFACE_SIDE_STYLE('',(#253));
#252=SURFACE_STYLE_FILL_AREA(#254);
#253=SURFACE_STYLE_FILL_AREA(#255);
#254=FILL_AREA_STYLE('',(#256));
#255=FILL_AREA_STYLE('',(#257));
#256=FILL_AREA_STYLE_COLOUR('',#258);
#257=FILL_AREA_STYLE_COLOUR('',#259);
#258=COLOUR_RGB('',0.972549019607843,0.529411764705882,0.00392156862745098);
#259=COLOUR_RGB('',0.498039215686275,0.498039215686275,0.498039215686275);
#260=MANIFOLD_SOLID_BREP('ST_cone',#242);
#261=MANIFOLD_SOLID_BREP('Cote HT S',#243);
#262=SHAPE_DEFINITION_REPRESENTATION(#466,#264);
#263=SHAPE_DEFINITION_REPRESENTATION(#467,#265);
#264=SHAPE_REPRESENTATION('ST_cone',(#266),#456);
#265=SHAPE_REPRESENTATION('Cote HT S',(#287),#457);
#266=AXIS2_PLACEMENT_3D('',#392,#308,#309);
#267=AXIS2_PLACEMENT_3D('',#393,#310,#311);
#268=AXIS2_PLACEMENT_3D('',#394,#312,#313);
#269=AXIS2_PLACEMENT_3D('',#396,#314,#315);
#270=AXIS2_PLACEMENT_3D('',#398,#316,#317);
#271=AXIS2_PLACEMENT_3D('',#399,#318,#319);
#272=AXIS2_PLACEMENT_3D('',#401,#320,#321);
#273=AXIS2_PLACEMENT_3D('',#402,#322,#323);
#274=AXIS2_PLACEMENT_3D('',#404,#324,#325);
#275=AXIS2_PLACEMENT_3D('',#405,#326,#327);
#276=AXIS2_PLACEMENT_3D('',#407,#328,#329);
#277=AXIS2_PLACEMENT_3D('',#409,#330,#331);
#278=AXIS2_PLACEMENT_3D('',#410,#332,#333);
#279=AXIS2_PLACEMENT_3D('',#412,#334,#335);
#280=AXIS2_PLACEMENT_3D('',#414,#336,#337);
#281=AXIS2_PLACEMENT_3D('',#415,#338,#339);
#282=AXIS2_PLACEMENT_3D('',#417,#340,#341);
#283=AXIS2_PLACEMENT_3D('',#418,#342,#343);
#284=AXIS2_PLACEMENT_3D('',#420,#344,#345);
#285=AXIS2_PLACEMENT_3D('',#421,#346,#347);
#286=AXIS2_PLACEMENT_3D('',#422,#348,#349);
#287=AXIS2_PLACEMENT_3D('',#423,#350,#351);
#288=AXIS2_PLACEMENT_3D('',#424,#352,#353);
#289=AXIS2_PLACEMENT_3D('',#425,#354,#355);
#290=AXIS2_PLACEMENT_3D('',#427,#356,#357);
#291=AXIS2_PLACEMENT_3D('',#429,#358,#359);
#292=AXIS2_PLACEMENT_3D('',#430,#360,#361);
#293=AXIS2_PLACEMENT_3D('',#432,#362,#363);
#294=AXIS2_PLACEMENT_3D('',#434,#364,#365);
#295=AXIS2_PLACEMENT_3D('',#435,#366,#367);
#296=AXIS2_PLACEMENT_3D('',#437,#368,#369);
#297=AXIS2_PLACEMENT_3D('',#439,#370,#371);
#298=AXIS2_PLACEMENT_3D('',#440,#372,#373);
#299=AXIS2_PLACEMENT_3D('',#442,#374,#375);
#300=AXIS2_PLACEMENT_3D('',#443,#376,#377);
#301=AXIS2_PLACEMENT_3D('',#445,#378,#379);
#302=AXIS2_PLACEMENT_3D('',#447,#380,#381);
#303=AXIS2_PLACEMENT_3D('',#448,#382,#383);
#304=AXIS2_PLACEMENT_3D('',#450,#384,#385);
#305=AXIS2_PLACEMENT_3D('',#451,#386,#387);
#306=AXIS2_PLACEMENT_3D('',#452,#388,#389);
#307=AXIS2_PLACEMENT_3D('',#453,#390,#391);
#308=DIRECTION('',(0.,0.,1.));
#309=DIRECTION('',(1.,0.,0.));
#310=DIRECTION('',(6.1409211049579E-16,-1.,0.));
#311=DIRECTION('',(1.,6.1409211049579E-16,0.));
#312=DIRECTION('',(6.1409211049579E-16,-1.,0.));
#313=DIRECTION('',(1.,6.1409211049579E-16,0.));
#314=DIRECTION('',(6.1409211049579E-16,-1.,0.));
#315=DIRECTION('',(1.,6.1409211049579E-16,0.));
#316=DIRECTION('',(6.1409211049579E-16,-1.,0.));
#317=DIRECTION('',(1.,6.1409211049579E-16,0.));
#318=DIRECTION('',(6.1409211049579E-16,-1.,0.));
#319=DIRECTION('',(1.,6.1409211049579E-16,0.));
#320=DIRECTION('',(-6.1409211049579E-16,1.,0.));
#321=DIRECTION('',(-1.,-6.1409211049579E-16,0.));
#322=DIRECTION('',(-6.1409211049579E-16,1.,0.));
#323=DIRECTION('',(-1.,-6.1409211049579E-16,0.));
#324=DIRECTION('',(6.1409211049579E-16,-1.,0.));
#325=DIRECTION('',(1.,6.1409211049579E-16,0.));
#326=DIRECTION('',(6.1409211049579E-16,-1.,0.));
#327=DIRECTION('',(1.,6.1409211049579E-16,0.));
#328=DIRECTION('',(6.1409211049579E-16,-1.,0.));
#329=DIRECTION('',(1.,6.1409211049579E-16,0.));
#330=DIRECTION('',(6.1409211049579E-16,-1.,0.));
#331=DIRECTION('',(1.,6.1409211049579E-16,0.));
#332=DIRECTION('',(6.14092110495763E-16,-1.,0.));
#333=DIRECTION('',(1.,6.14092110495763E-16,0.));
#334=DIRECTION('',(6.1409211049579E-16,-1.,0.));
#335=DIRECTION('',(1.,6.1409211049579E-16,0.));
#336=DIRECTION('',(6.1409211049579E-16,-1.,0.));
#337=DIRECTION('',(1.,6.1409211049579E-16,0.));
#338=DIRECTION('',(6.1409211049579E-16,-1.,0.));
#339=DIRECTION('',(1.,6.1409211049579E-16,0.));
#340=DIRECTION('',(6.1409211049579E-16,-1.,0.));
#341=DIRECTION('',(1.,6.1409211049579E-16,0.));
#342=DIRECTION('',(6.14092110495812E-16,-1.,0.));
#343=DIRECTION('',(1.,6.14092110495812E-16,0.));
#344=DIRECTION('',(6.1409211049579E-16,-1.,0.));
#345=DIRECTION('',(1.,6.1409211049579E-16,0.));
#346=DIRECTION('',(-6.14092110495812E-16,1.,0.));
#347=DIRECTION('',(-1.,-6.14092110495812E-16,0.));
#348=DIRECTION('',(-6.14092110495763E-16,1.,0.));
#349=DIRECTION('',(-1.,-6.14092110495763E-16,0.));
#350=DIRECTION('',(0.,0.,1.));
#351=DIRECTION('',(1.,0.,0.));
#352=DIRECTION('',(0.,1.,0.));
#353=DIRECTION('',(0.,0.,1.));
#354=DIRECTION('',(0.,1.,0.));
#355=DIRECTION('',(0.,0.,1.));
#356=DIRECTION('',(0.,1.,0.));
#357=DIRECTION('',(0.,0.,1.));
#358=DIRECTION('',(0.,-1.,0.));
#359=DIRECTION('',(0.,0.,-1.));
#360=DIRECTION('',(0.,-1.,0.));
#361=DIRECTION('',(0.,0.,-1.));
#362=DIRECTION('',(0.,-1.,0.));
#363=DIRECTION('',(0.,0.,-1.));
#364=DIRECTION('',(0.,1.,0.));
#365=DIRECTION('',(0.,0.,1.));
#366=DIRECTION('',(0.,-1.,0.));
#367=DIRECTION('',(0.,0.,-1.));
#368=DIRECTION('',(0.,1.,0.));
#369=DIRECTION('',(0.,0.,1.));
#370=DIRECTION('',(0.,-1.,0.));
#371=DIRECTION('',(0.,0.,-1.));
#372=DIRECTION('',(0.,-1.,0.));
#373=DIRECTION('',(0.,0.,-1.));
#374=DIRECTION('',(0.,1.,0.));
#375=DIRECTION('',(0.,0.,1.));
#376=DIRECTION('',(0.,-1.,0.));
#377=DIRECTION('',(0.,0.,-1.));
#378=DIRECTION('',(0.,1.,0.));
#379=DIRECTION('',(0.,0.,1.));
#380=DIRECTION('',(0.,-1.,0.));
#381=DIRECTION('',(0.,0.,-1.));
#382=DIRECTION('',(0.,1.,0.));
#383=DIRECTION('',(0.,0.,1.));
#384=DIRECTION('',(0.,1.,0.));
#385=DIRECTION('',(0.,0.,1.));
#386=DIRECTION('',(0.,1.,0.));
#387=DIRECTION('',(0.,0.,1.));
#388=DIRECTION('',(0.,1.,0.));
#389=DIRECTION('',(0.,0.,1.));
#390=DIRECTION('',(0.,1.,0.));
#391=DIRECTION('',(0.,0.,1.));
#392=CARTESIAN_POINT('',(0.,0.,0.));
#393=CARTESIAN_POINT('',(0.0175999999999997,0.545,0.));
#394=CARTESIAN_POINT('',(-3.26943094843386E-16,0.545,0.));
#395=CARTESIAN_POINT('',(0.0199999999999997,0.545,0.));
#396=CARTESIAN_POINT('',(-3.26943094843386E-16,0.545,0.));
#397=CARTESIAN_POINT('',(0.0151999999999997,0.545,0.));
#398=CARTESIAN_POINT('',(-1.58067764457044E-16,0.27,0.));
#399=CARTESIAN_POINT('',(-3.33084015948345E-16,0.555,0.));
#400=CARTESIAN_POINT('',(0.0199999999999997,0.555,0.));
#401=CARTESIAN_POINT('',(0.00999999999999966,0.555,0.));
#402=CARTESIAN_POINT('',(-3.31862015371192E-16,0.555,0.));
#403=CARTESIAN_POINT('',(-0.00700000000000033,0.555,0.));
#404=CARTESIAN_POINT('',(0.00682499999999969,0.535,0.));
#405=CARTESIAN_POINT('',(-3.20802173738429E-16,0.535,0.));
#406=CARTESIAN_POINT('',(0.0126499999999997,0.535,0.));
#407=CARTESIAN_POINT('',(-3.19580173161276E-16,0.535,0.));
#408=CARTESIAN_POINT('',(0.00699999999999968,0.535,0.));
#409=CARTESIAN_POINT('',(-1.58067764457044E-16,0.27,0.));
#410=CARTESIAN_POINT('',(-3.21416265848924E-16,0.536,0.));
#411=CARTESIAN_POINT('',(0.0136499999999997,0.536,0.));
#412=CARTESIAN_POINT('',(-3.23872634290908E-16,0.54,0.));
#413=CARTESIAN_POINT('',(0.0136499999999997,0.54,0.));
#414=CARTESIAN_POINT('',(0.0144249999999997,0.54,0.));
#415=CARTESIAN_POINT('',(-3.23872634290908E-16,0.54,0.));
#416=CARTESIAN_POINT('',(0.0141999999999997,0.54,0.));
#417=CARTESIAN_POINT('',(-1.58067764457044E-16,0.27,0.));
#418=CARTESIAN_POINT('',(-3.24486726401403E-16,0.541,0.));
#419=CARTESIAN_POINT('',(0.0151999999999997,0.541,0.));
#420=CARTESIAN_POINT('',(-3.30000439567965E-16,0.551968572350287,0.));
#421=CARTESIAN_POINT('',(-3.23872634290908E-16,0.54,0.));
#422=CARTESIAN_POINT('',(-3.20802173738429E-16,0.535,0.));
#423=CARTESIAN_POINT('',(0.,0.,0.));
#424=CARTESIAN_POINT('',(-0.525559811204883,0.41955898644295,0.));
#425=CARTESIAN_POINT('',(-0.538059811204883,0.41955898644295,0.));
#426=CARTESIAN_POINT('',(-0.538059811204883,0.41955898644295,0.00700000000000017));
#427=CARTESIAN_POINT('',(-0.538059811204883,0.41955898644295,0.));
#428=CARTESIAN_POINT('',(-0.538059811204883,0.41955898644295,0.025));
#429=CARTESIAN_POINT('',(-0.529634811204883,0.39955898644295,0.));
#430=CARTESIAN_POINT('',(-0.538059811204883,0.39955898644295,0.));
#431=CARTESIAN_POINT('',(-0.538059811204883,0.39955898644295,-0.01585));
#432=CARTESIAN_POINT('',(-0.538059811204883,0.39955898644295,0.));
#433=CARTESIAN_POINT('',(-0.538059811204883,0.39955898644295,-0.00700000000000017));
#434=CARTESIAN_POINT('',(-0.538059811204883,0.14955898644295,0.));
#435=CARTESIAN_POINT('',(-0.538059811204883,0.40055898644295,0.));
#436=CARTESIAN_POINT('',(-0.538059811204883,0.40055898644295,-0.01685));
#437=CARTESIAN_POINT('',(-0.538059811204883,0.40455898644295,0.));
#438=CARTESIAN_POINT('',(-0.538059811204883,0.40455898644295,0.01685));
#439=CARTESIAN_POINT('',(-0.518709811204883,0.40455898644295,0.));
#440=CARTESIAN_POINT('',(-0.538059811204883,0.40455898644295,0.));
#441=CARTESIAN_POINT('',(-0.538059811204883,0.40455898644295,-0.02085));
#442=CARTESIAN_POINT('',(-0.538059811204883,0.14955898644295,0.));
#443=CARTESIAN_POINT('',(-0.538059811204883,0.40555898644295,0.));
#444=CARTESIAN_POINT('',(-0.538059811204883,0.40555898644295,-0.02185));
#445=CARTESIAN_POINT('',(-0.538059811204883,0.40955898644295,0.));
#446=CARTESIAN_POINT('',(-0.538059811204883,0.40955898644295,0.02185));
#447=CARTESIAN_POINT('',(-0.514634811204883,0.40955898644295,0.));
#448=CARTESIAN_POINT('',(-0.538059811204883,0.40955898644295,0.));
#449=CARTESIAN_POINT('',(-0.538059811204883,0.40955898644295,0.025));
#450=CARTESIAN_POINT('',(-0.538059811204883,0.14955898644295,0.));
#451=CARTESIAN_POINT('',(-0.538059811204883,0.23955898644295,0.));
#452=CARTESIAN_POINT('',(-0.538059811204883,0.40555898644295,0.));
#453=CARTESIAN_POINT('',(-0.538059811204883,0.40055898644295,0.));
#454=MECHANICAL_DESIGN_GEOMETRIC_PRESENTATION_REPRESENTATION('',(#244),
#456);
#455=MECHANICAL_DESIGN_GEOMETRIC_PRESENTATION_REPRESENTATION('',(#245),
#457);
#456=(
GEOMETRIC_REPRESENTATION_CONTEXT(3)
GLOBAL_UNCERTAINTY_ASSIGNED_CONTEXT((#458))
GLOBAL_UNIT_ASSIGNED_CONTEXT((#464,#462,#460))
REPRESENTATION_CONTEXT('ST_cone','TOP_LEVEL_ASSEMBLY_PART')
);
#457=(
GEOMETRIC_REPRESENTATION_CONTEXT(3)
GLOBAL_UNCERTAINTY_ASSIGNED_CONTEXT((#459))
GLOBAL_UNIT_ASSIGNED_CONTEXT((#465,#463,#461))
REPRESENTATION_CONTEXT('Cote HT S','TOP_LEVEL_ASSEMBLY_PART')
);
#458=UNCERTAINTY_MEASURE_WITH_UNIT(LENGTH_MEASURE(5.E-6),#464,
'DISTANCE_ACCURACY_VALUE','Maximum Tolerance applied to model');
#459=UNCERTAINTY_MEASURE_WITH_UNIT(LENGTH_MEASURE(5.E-6),#465,
'DISTANCE_ACCURACY_VALUE','Maximum Tolerance applied to model');
#460=(
NAMED_UNIT(*)
SI_UNIT($,.STERADIAN.)
SOLID_ANGLE_UNIT()
);
#461=(
NAMED_UNIT(*)
SI_UNIT($,.STERADIAN.)
SOLID_ANGLE_UNIT()
);
#462=(
NAMED_UNIT(*)
PLANE_ANGLE_UNIT()
SI_UNIT($,.RADIAN.)
);
#463=(
NAMED_UNIT(*)
PLANE_ANGLE_UNIT()
SI_UNIT($,.RADIAN.)
);
#464=(
LENGTH_UNIT()
NAMED_UNIT(*)
SI_UNIT($,.METRE.)
);
#465=(
LENGTH_UNIT()
NAMED_UNIT(*)
SI_UNIT($,.METRE.)
);
#466=PRODUCT_DEFINITION_SHAPE('','',#468);
#467=PRODUCT_DEFINITION_SHAPE('','',#469);
#468=PRODUCT_DEFINITION('','',#472,#470);
#469=PRODUCT_DEFINITION('','',#473,#471);
#470=PRODUCT_DEFINITION_CONTEXT('',#484,'design');
#471=PRODUCT_DEFINITION_CONTEXT('',#485,'design');
#472=PRODUCT_DEFINITION_FORMATION_WITH_SPECIFIED_SOURCE('','',#476,
 .NOT_KNOWN.);
#473=PRODUCT_DEFINITION_FORMATION_WITH_SPECIFIED_SOURCE('','',#477,
 .NOT_KNOWN.);
#474=PRODUCT_RELATED_PRODUCT_CATEGORY('','',(#476));
#475=PRODUCT_RELATED_PRODUCT_CATEGORY('','',(#477));
#476=PRODUCT('ST_cone','ST_cone','ST_cone',(#480));
#477=PRODUCT('Cote HT S','Cote HT S','Cote HT S',(#481));
#478=PRODUCT_CATEGORY('','');
#479=PRODUCT_CATEGORY('','');
#480=PRODUCT_CONTEXT('',#484,'mechanical');
#481=PRODUCT_CONTEXT('',#485,'mechanical');
#482=APPLICATION_PROTOCOL_DEFINITION('international standard',
'automotive_design',2010,#484);
#483=APPLICATION_PROTOCOL_DEFINITION('international standard',
'automotive_design',2010,#485);
#484=APPLICATION_CONTEXT(
'core data for automotive mechanical design processes');
#485=APPLICATION_CONTEXT(
'core data for automotive mechanical design processes');
ENDSEC;
END-ISO-10303-21;
