  0
SECTION
  2
HEADER
  9
$ACADVER
  1
AC1014
  9
$ACADMAINTVER
 70
     9
  9
$DWGCODEPAGE
  3
ANSI_1252
  9
$INSBASE
 10
0.0
 20
0.0
 30
0.0
  9
$EXTMIN
 10
1.000000000000000E+20
 20
1.000000000000000E+20
 30
1.000000000000000E+20
  9
$EXTMAX
 10
-1.000000000000000E+20
 20
-1.000000000000000E+20
 30
-1.000000000000000E+20
  9
$LIMMIN
 10
0.0
 20
0.0
  9
$LIMMAX
 10
12.0
 20
9.0
  9
$ORTHOMODE
 70
     0
  9
$REGENMODE
 70
     1
  9
$FILLMODE
 70
     1
  9
$QTEXTMODE
 70
     0
  9
$MIRRTEXT
 70
     1
  9
$DRAGMODE
 70
     2
  9
$LTSCALE
 40
1.0
  9
$OSMODE
 70
    37
  9
$ATTMODE
 70
     1
  9
$TEXTSIZE
 40
0.2
  9
$TRACEWID
 40
0.05
  9
$TEXTSTYLE
  7
STANDARD
  9
$CLAYER
  8
0
  9
$CELTYPE
  6
BYLAYER
  9
$CECOLOR
 62
   256
  9
$CELTSCALE
 40
1.0
  9
$DELOBJ
 70
     1
  9
$DISPSILH
 70
     0
  9
$DIMSCALE
 40
1.0
  9
$DIMASZ
 40
0.18
  9
$DIMEXO
 40
0.0625
  9
$DIMDLI
 40
0.38
  9
$DIMRND
 40
0.0
  9
$DIMDLE
 40
0.0
  9
$DIMEXE
 40
0.18
  9
$DIMTP
 40
0.0
  9
$DIMTM
 40
0.0
  9
$DIMTXT
 40
0.18
  9
$DIMCEN
 40
0.09
  9
$DIMTSZ
 40
0.0
  9
$DIMTOL
 70
     0
  9
$DIMLIM
 70
     0
  9
$DIMTIH
 70
     1
  9
$DIMTOH
 70
     1
  9
$DIMSE1
 70
     0
  9
$DIMSE2
 70
     0
  9
$DIMTAD
 70
     0
  9
$DIMZIN
 70
     0
  9
$DIMBLK
  1

  9
$DIMASO
 70
     1
  9
$DIMSHO
 70
     1
  9
$DIMPOST
  1

  9
$DIMAPOST
  1

  9
$DIMALT
 70
     0
  9
$DIMALTD
 70
     2
  9
$DIMALTF
 40
25.4
  9
$DIMLFAC
 40
1.0
  9
$DIMTOFL
 70
     0
  9
$DIMTVP
 40
0.0
  9
$DIMTIX
 70
     0
  9
$DIMSOXD
 70
     0
  9
$DIMSAH
 70
     0
  9
$DIMBLK1
  1

  9
$DIMBLK2
  1

  9
$DIMSTYLE
  2
STANDARD
  9
$DIMCLRD
 70
     0
  9
$DIMCLRE
 70
     0
  9
$DIMCLRT
 70
     0
  9
$DIMTFAC
 40
1.0
  9
$DIMGAP
 40
0.09
  9
$DIMJUST
 70
     0
  9
$DIMSD1
 70
     0
  9
$DIMSD2
 70
     0
  9
$DIMTOLJ
 70
     1
  9
$DIMTZIN
 70
     0
  9
$DIMALTZ
 70
     0
  9
$DIMALTTZ
 70
     0
  9
$DIMFIT
 70
     3
  9
$DIMUPT
 70
     0
  9
$DIMUNIT
 70
     2
  9
$DIMDEC
 70
     4
  9
$DIMTDEC
 70
     4
  9
$DIMALTU
 70
     2
  9
$DIMALTTD
 70
     2
  9
$DIMTXSTY
  7
STANDARD
  9
$DIMAUNIT
 70
     0
  9
$LUNITS
 70
     2
  9
$LUPREC
 70
     4
  9
$SKETCHINC
 40
0.1
  9
$FILLETRAD
 40
0.5
  9
$AUNITS
 70
     0
  9
$AUPREC
 70
     0
  9
$MENU
  1
.
  9
$ELEVATION
 40
0.0
  9
$PELEVATION
 40
0.0
  9
$THICKNESS
 40
0.0
  9
$LIMCHECK
 70
     0
  9
$CHAMFERA
 40
0.0
  9
$CHAMFERB
 40
0.0
  9
$CHAMFERC
 40
0.0
  9
$CHAMFERD
 40
0.0
  9
$SKPOLY
 70
     0
  9
$TDCREATE
 40
2459267.482870035
  9
$TDUPDATE
 40
2459267.482870359
  9
$TDINDWG
 40
0.0000000116
  9
$TDUSRTIMER
 40
0.0000000116
  9
$USRTIMER
 70
     1
  9
$ANGBASE
 50
0.0
  9
$ANGDIR
 70
     0
  9
$PDMODE
 70
     0
  9
$PDSIZE
 40
0.0
  9
$PLINEWID
 40
0.0
  9
$COORDS
 70
     1
  9
$SPLFRAME
 70
     0
  9
$SPLINETYPE
 70
     6
  9
$SPLINESEGS
 70
     8
  9
$ATTDIA
 70
     0
  9
$ATTREQ
 70
     1
  9
$HANDLING
 70
     1
  9
$HANDSEED
  5
1E8
  9
$SURFTAB1
 70
     6
  9
$SURFTAB2
 70
     6
  9
$SURFTYPE
 70
     6
  9
$SURFU
 70
     6
  9
$SURFV
 70
     6
  9
$UCSNAME
  2

  9
$UCSORG
 10
0.0
 20
0.0
 30
0.0
  9
$UCSXDIR
 10
1.0
 20
0.0
 30
0.0
  9
$UCSYDIR
 10
0.0
 20
1.0
 30
0.0
  9
$PUCSNAME
  2

  9
$PUCSORG
 10
0.0
 20
0.0
 30
0.0
  9
$PUCSXDIR
 10
1.0
 20
0.0
 30
0.0
  9
$PUCSYDIR
 10
0.0
 20
1.0
 30
0.0
  9
$USERI1
 70
     0
  9
$USERI2
 70
     0
  9
$USERI3
 70
     0
  9
$USERI4
 70
     0
  9
$USERI5
 70
     0
  9
$USERR1
 40
0.0
  9
$USERR2
 40
0.0
  9
$USERR3
 40
0.0
  9
$USERR4
 40
0.0
  9
$USERR5
 40
0.0
  9
$WORLDVIEW
 70
     1
  9
$SHADEDGE
 70
     3
  9
$SHADEDIF
 70
    70
  9
$TILEMODE
 70
     1
  9
$MAXACTVP
 70
    64
  9
$PINSBASE
 10
0.0
 20
0.0
 30
0.0
  9
$PLIMCHECK
 70
     0
  9
$PEXTMIN
 10
1.000000000000000E+20
 20
1.000000000000000E+20
 30
1.000000000000000E+20
  9
$PEXTMAX
 10
-1.000000000000000E+20
 20
-1.000000000000000E+20
 30
-1.000000000000000E+20
  9
$PLIMMIN
 10
0.0
 20
0.0
  9
$PLIMMAX
 10
12.0
 20
9.0
  9
$UNITMODE
 70
     0
  9
$VISRETAIN
 70
     1
  9
$PLINEGEN
 70
     0
  9
$PSLTSCALE
 70
     1
  9
$TREEDEPTH
 70
  3020
  9
$PICKSTYLE
 70
     1
  9
$CMLSTYLE
  2
STANDARD
  9
$CMLJUST
 70
     0
  9
$CMLSCALE
 40
1.0
  9
$PROXYGRAPHICS
 70
     1
  9
$MEASUREMENT
 70
     1
  0
ENDSEC
  0
SECTION
  2
CLASSES
  0
CLASS
  1
ACDBDICTIONARYWDFLT
  2
AcDbDictionaryWithDefault
  3
ObjectDBX Classes
 90
        0
280
     0
281
     0
  0
CLASS
  1
VISUALSTYLE
  2
AcDbVisualStyle
  3
ObjectDBX Classes
 90
     4095
280
     0
281
     0
  0
CLASS
  1
MATERIAL
  2
AcDbMaterial
  3
ObjectDBX Classes
 90
     1153
280
     0
281
     0
  0
CLASS
  1
SCALE
  2
AcDbScale
  3
ObjectDBX Classes
 90
     1153
280
     0
281
     0
  0
CLASS
  1
TABLESTYLE
  2
AcDbTableStyle
  3
ObjectDBX Classes
 90
     4095
280
     0
281
     0
  0
CLASS
  1
MLEADERSTYLE
  2
AcDbMLeaderStyle
  3
ACDB_MLEADERSTYLE_CLASS
 90
     4095
280
     0
281
     0
  0
CLASS
  1
SUN
  2
AcDbSun
  3
SCENEOE
 90
     1153
280
     0
281
     0
  0
CLASS
  1
DICTIONARYVAR
  2
AcDbDictionaryVar
  3
ObjectDBX Classes
 90
        0
280
     0
281
     0
  0
CLASS
  1
XRECORD
  2
AcDbXrecord
  3
ObjectDBX Classes
 90
        0
280
     0
281
     0
  0
CLASS
  1
LWPOLYLINE
  2
AcDbPolyline
  3
ObjectDBX Classes
 90
        0
280
     0
281
     1
  0
CLASS
  1
HATCH
  2
AcDbHatch
  3
ObjectDBX Classes
 90
        0
280
     0
281
     1
  0
CLASS
  1
ACDBPLACEHOLDER
  2
AcDbPlaceHolder
  3
ObjectDBX Classes
 90
        0
280
     0
281
     0
  0
CLASS
  1
LAYOUT
  2
AcDbLayout
  3
ObjectDBX Classes
 90
        0
280
     0
281
     0
  0
ENDSEC
  0
SECTION
  2
TABLES
  0
TABLE
  2
VPORT
  5
8
102
{ACAD_XDICTIONARY
360
1DD
102
}
330
0
100
AcDbSymbolTable
 70
     1
  0
VPORT
  5
29
330
8
100
AcDbSymbolTableRecord
100
AcDbViewportTableRecord
  2
*ACTIVE
 70
     0
 10
0.0
 20
0.0
 11
1.0
 21
1.0
 12
0.0
 22
0.0
 13
0.0
 23
0.0
 14
0.5
 24
0.5
 15
0.5
 25
0.5
 16
0.0
 26
0.0
 36
1.0
 17
0.0
 27
0.0
 37
-1000.0
 40
237.3233598039937
 41
1.371428571428571
 42
50.0
 43
408.6365715006249
 44
529.5846985007637
 50
0.0
 51
0.0
 71
     0
 72
   100
 73
     1
 74
     3
 75
     0
 76
     0
 77
     0
 78
     0
  0
ENDTAB
  0
TABLE
  2
LTYPE
  5
5
330
0
100
AcDbSymbolTable
 70
     1
  0
LTYPE
  5
14
330
5
100
AcDbSymbolTableRecord
100
AcDbLinetypeTableRecord
  2
BYBLOCK
 70
     0
  3

 72
    65
 73
     0
 40
0.0
  0
LTYPE
  5
15
330
5
100
AcDbSymbolTableRecord
100
AcDbLinetypeTableRecord
  2
BYLAYER
 70
     0
  3

 72
    65
 73
     0
 40
0.0
  0
LTYPE
  5
16
330
5
100
AcDbSymbolTableRecord
100
AcDbLinetypeTableRecord
  2
CONTINUOUS
 70
     0
  3
Solid line
 72
    65
 73
     0
 40
0.0
  0
ENDTAB
  0
TABLE
  2
LAYER
  5
2
330
0
100
AcDbSymbolTable
 70
     3
  0
LAYER
  5
10
330
2
100
AcDbSymbolTableRecord
100
AcDbLayerTableRecord
  2
0
 70
     0
 62
     7
  6
CONTINUOUS
  0
LAYER
  5
6E
330
2
100
AcDbSymbolTableRecord
100
AcDbLayerTableRecord
  2
PROFILEEDGES
 70
     0
 62
     7
  6
CONTINUOUS
  0
LAYER
  5
6F
330
2
100
AcDbSymbolTableRecord
100
AcDbLayerTableRecord
  2
SECTIONCUTEDGES
 70
     0
 62
     7
  6
CONTINUOUS
  0
ENDTAB
  0
TABLE
  2
STYLE
  5
3
330
0
100
AcDbSymbolTable
 70
     3
  0
STYLE
  5
11
330
3
100
AcDbSymbolTableRecord
100
AcDbTextStyleTableRecord
  2
STANDARD
 70
     0
 40
0.0
 41
1.0
 50
0.0
 71
     0
 42
0.2
  3
txt
  4

  0
STYLE
  5
1B3
330
3
100
AcDbSymbolTableRecord
100
AcDbTextStyleTableRecord
  2
ARIAL
 70
     0
 40
0.0
 41
1.0
 50
0.0
 71
     0
 42
0.2
  3
Arial
  4

1001
ACAD
1000
Arial
1071
       34
  0
STYLE
  5
1B4
330
3
100
AcDbSymbolTableRecord
100
AcDbTextStyleTableRecord
  2
TAHOMA
 70
     0
 40
0.0
 41
1.0
 50
0.0
 71
     0
 42
0.2
  3
Tahoma
  4

1001
ACAD
1000
Tahoma
1071
       34
  0
ENDTAB
  0
TABLE
  2
VIEW
  5
6
330
0
100
AcDbSymbolTable
 70
     0
  0
ENDTAB
  0
TABLE
  2
UCS
  5
7
330
0
100
AcDbSymbolTable
 70
     0
  0
ENDTAB
  0
TABLE
  2
APPID
  5
9
330
0
100
AcDbSymbolTable
 70
     2
  0
APPID
  5
12
330
9
100
AcDbSymbolTableRecord
100
AcDbRegAppTableRecord
  2
ACAD
 70
     0
  0
APPID
  5
1E7
330
9
100
AcDbSymbolTableRecord
100
AcDbRegAppTableRecord
  2
ACAD_MLEADERVER
 70
     0
  0
ENDTAB
  0
TABLE
  2
DIMSTYLE
  5
A
330
0
100
AcDbSymbolTable
 70
     1
  0
DIMSTYLE
105
27
330
A
100
AcDbSymbolTableRecord
100
AcDbDimStyleTableRecord
  2
STANDARD
 70
     0
  3

  4

  5

  6

  7

 40
1.0
 41
0.18
 42
0.0625
 43
0.38
 44
0.18
 45
0.0
 46
0.0
 47
0.0
 48
0.0
140
0.18
141
0.09
142
0.0
143
25.4
144
1.0
145
0.0
146
1.0
147
0.09
 71
     0
 72
     0
 73
     1
 74
     1
 75
     0
 76
     0
 77
     0
 78
     0
170
     0
171
     2
172
     0
173
     0
174
     0
175
     0
176
     0
177
     0
178
     0
270
     2
271
     4
272
     4
273
     2
274
     2
340
11
275
     0
280
     0
281
     0
282
     0
283
     1
284
     0
285
     0
286
     0
287
     3
288
     0
  0
ENDTAB
  0
TABLE
  2
BLOCK_RECORD
  5
1
330
0
100
AcDbSymbolTable
 70
     0
  0
BLOCK_RECORD
  5
1F
330
1
100
AcDbSymbolTableRecord
100
AcDbBlockTableRecord
  2
*MODEL_SPACE
  0
BLOCK_RECORD
  5
1B
330
1
100
AcDbSymbolTableRecord
100
AcDbBlockTableRecord
  2
*PAPER_SPACE
  0
ENDTAB
  0
ENDSEC
  0
SECTION
  2
BLOCKS
  0
BLOCK
  5
20
330
1F
100
AcDbEntity
  8
0
100
AcDbBlockBegin
  2
*MODEL_SPACE
 70
     0
 10
0.0
 20
0.0
 30
0.0
  3
*MODEL_SPACE
  1

  0
ENDBLK
  5
21
330
1F
100
AcDbEntity
  8
0
100
AcDbBlockEnd
  0
BLOCK
  5
1C
330
1B
100
AcDbEntity
 67
     1
  8
0
100
AcDbBlockBegin
  2
*PAPER_SPACE
 70
     0
 10
0.0
 20
0.0
 30
0.0
  3
*PAPER_SPACE
  1

  0
ENDBLK
  5
1D
330
1B
100
AcDbEntity
 67
     1
  8
0
100
AcDbBlockEnd
  0
ENDSEC
  0
SECTION
  2
ENTITIES
  0
LINE
  5
70
330
1F
100
AcDbEntity
  8
0
100
AcDbLine
 10
110.9999999999978
 20
5.999999999999831
 30
0.0
 11
112.5529142706129
 21
5.795554957734636
 31
0.0
  0
LINE
  5
71
330
1F
100
AcDbEntity
  8
0
100
AcDbLine
 10
112.5529142706129
 20
5.795554957734636
 30
0.0
 11
113.9999999999979
 21
5.196152422707232
 31
0.0
  0
LINE
  5
72
330
1F
100
AcDbEntity
  8
0
100
AcDbLine
 10
113.9999999999979
 20
5.196152422707232
 30
0.0
 11
115.2426406871175
 21
4.242640687120198
 31
0.0
  0
LINE
  5
73
330
1F
100
AcDbEntity
  8
0
100
AcDbLine
 10
115.2426406871175
 20
4.242640687120198
 30
0.0
 11
116.1961524227051
 21
3.000000000001145
 31
0.0
  0
LINE
  5
74
330
1F
100
AcDbEntity
  8
0
100
AcDbLine
 10
116.1961524227051
 20
3.000000000001145
 30
0.0
 11
116.7955549577333
 21
1.552914270616423
 31
0.0
  0
LINE
  5
75
330
1F
100
AcDbEntity
  8
0
100
AcDbLine
 10
116.7955549577333
 20
1.552914270616423
 30
0.0
 11
116.9999999999992
 21
0.0000000000013536
 31
0.0
  0
LINE
  5
76
330
1F
100
AcDbEntity
  8
0
100
AcDbLine
 10
116.9999999999992
 20
0.0000000000013536
 30
0.0
 11
116.795554957734
 21
-1.552914270613839
 31
0.0
  0
LINE
  5
77
330
1F
100
AcDbEntity
  8
0
100
AcDbLine
 10
116.795554957734
 20
-1.552914270613839
 30
0.0
 11
116.1961524227066
 21
-2.999999999998855
 31
0.0
  0
LINE
  5
78
330
1F
100
AcDbEntity
  8
0
100
AcDbLine
 10
116.1961524227066
 20
-2.999999999998855
 30
0.0
 11
115.2426406871196
 21
-4.242640687118359
 31
0.0
  0
LINE
  5
79
330
1F
100
AcDbEntity
  8
0
100
AcDbLine
 10
115.2426406871196
 20
-4.242640687118359
 30
0.0
 11
114.0000000000006
 21
-5.196152422706026
 31
0.0
  0
LINE
  5
7A
330
1F
100
AcDbEntity
  8
0
100
AcDbLine
 10
114.0000000000006
 20
-5.196152422706026
 30
0.0
 11
112.5529142706158
 21
-5.795554957734151
 31
0.0
  0
LINE
  5
7B
330
1F
100
AcDbEntity
  8
0
100
AcDbLine
 10
112.5529142706158
 20
-5.795554957734151
 30
0.0
 11
111.0000000000007
 21
-6.000000000000136
 31
0.0
  0
LINE
  5
7C
330
1F
100
AcDbEntity
  8
0
100
AcDbLine
 10
5.999999999999853
 20
-110.9999999999978
 30
0.0
 11
5.795554957734636
 21
-112.5529142706129
 31
0.0
  0
LINE
  5
7D
330
1F
100
AcDbEntity
  8
0
100
AcDbLine
 10
5.795554957734636
 20
-112.5529142706129
 30
0.0
 11
5.196152422707232
 21
-113.9999999999979
 31
0.0
  0
LINE
  5
7E
330
1F
100
AcDbEntity
  8
0
100
AcDbLine
 10
5.196152422707232
 20
-113.9999999999979
 30
0.0
 11
4.242640687120198
 21
-115.2426406871175
 31
0.0
  0
LINE
  5
7F
330
1F
100
AcDbEntity
  8
0
100
AcDbLine
 10
4.242640687120198
 20
-115.2426406871175
 30
0.0
 11
3.000000000001145
 21
-116.1961524227051
 31
0.0
  0
LINE
  5
80
330
1F
100
AcDbEntity
  8
0
100
AcDbLine
 10
3.000000000001145
 20
-116.1961524227051
 30
0.0
 11
1.552914270616423
 21
-116.7955549577333
 31
0.0
  0
LINE
  5
81
330
1F
100
AcDbEntity
  8
0
100
AcDbLine
 10
1.552914270616423
 20
-116.7955549577333
 30
0.0
 11
0.0000000000013536
 21
-116.9999999999992
 31
0.0
  0
LINE
  5
82
330
1F
100
AcDbEntity
  8
0
100
AcDbLine
 10
0.0000000000013536
 20
-116.9999999999992
 30
0.0
 11
-1.552914270613828
 21
-116.795554957734
 31
0.0
  0
LINE
  5
83
330
1F
100
AcDbEntity
  8
0
100
AcDbLine
 10
-1.552914270613828
 20
-116.795554957734
 30
0.0
 11
-2.999999999998844
 21
-116.1961524227066
 31
0.0
  0
LINE
  5
84
330
1F
100
AcDbEntity
  8
0
100
AcDbLine
 10
-2.999999999998844
 20
-116.1961524227066
 30
0.0
 11
-4.242640687118349
 21
-115.2426406871196
 31
0.0
  0
LINE
  5
85
330
1F
100
AcDbEntity
  8
0
100
AcDbLine
 10
-4.242640687118349
 20
-115.2426406871196
 30
0.0
 11
-5.196152422706015
 21
-114.0000000000006
 31
0.0
  0
LINE
  5
86
330
1F
100
AcDbEntity
  8
0
100
AcDbLine
 10
-5.196152422706015
 20
-114.0000000000006
 30
0.0
 11
-5.795554957734139
 21
-112.5529142706158
 31
0.0
  0
LINE
  5
87
330
1F
100
AcDbEntity
  8
0
100
AcDbLine
 10
-5.795554957734139
 20
-112.5529142706158
 30
0.0
 11
-6.000000000000124
 21
-111.0000000000007
 31
0.0
  0
LINE
  5
88
330
1F
100
AcDbEntity
  8
0
100
AcDbLine
 10
-110.9999999999978
 20
-5.999999999999808
 30
0.0
 11
-112.5529142706129
 21
-5.795554957734602
 31
0.0
  0
LINE
  5
89
330
1F
100
AcDbEntity
  8
0
100
AcDbLine
 10
-112.5529142706129
 20
-5.795554957734602
 30
0.0
 11
-113.9999999999979
 21
-5.196152422707188
 31
0.0
  0
LINE
  5
8A
330
1F
100
AcDbEntity
  8
0
100
AcDbLine
 10
-113.9999999999979
 20
-5.196152422707188
 30
0.0
 11
-115.2426406871175
 21
-4.242640687120153
 31
0.0
  0
LINE
  5
8B
330
1F
100
AcDbEntity
  8
0
100
AcDbLine
 10
-115.2426406871175
 20
-4.242640687120153
 30
0.0
 11
-116.1961524227051
 21
-3.000000000001111
 31
0.0
  0
LINE
  5
8C
330
1F
100
AcDbEntity
  8
0
100
AcDbLine
 10
-116.1961524227051
 20
-3.000000000001111
 30
0.0
 11
-116.7955549577333
 21
-1.552914270616389
 31
0.0
  0
LINE
  5
8D
330
1F
100
AcDbEntity
  8
0
100
AcDbLine
 10
-116.7955549577333
 20
-1.552914270616389
 30
0.0
 11
-116.9999999999992
 21
-0.0000000000013085
 31
0.0
  0
LINE
  5
8E
330
1F
100
AcDbEntity
  8
0
100
AcDbLine
 10
-116.9999999999992
 20
-0.0000000000013085
 30
0.0
 11
-116.795554957734
 21
1.552914270613873
 31
0.0
  0
LINE
  5
8F
330
1F
100
AcDbEntity
  8
0
100
AcDbLine
 10
-116.795554957734
 20
1.552914270613873
 30
0.0
 11
-116.1961524227066
 21
2.999999999998889
 31
0.0
  0
LINE
  5
90
330
1F
100
AcDbEntity
  8
0
100
AcDbLine
 10
-116.1961524227066
 20
2.999999999998889
 30
0.0
 11
-115.2426406871196
 21
4.242640687118393
 31
0.0
  0
LINE
  5
91
330
1F
100
AcDbEntity
  8
0
100
AcDbLine
 10
-115.2426406871196
 20
4.242640687118393
 30
0.0
 11
-114.0000000000006
 21
5.19615242270606
 31
0.0
  0
LINE
  5
92
330
1F
100
AcDbEntity
  8
0
100
AcDbLine
 10
-114.0000000000006
 20
5.19615242270606
 30
0.0
 11
-112.5529142706158
 21
5.795554957734184
 31
0.0
  0
LINE
  5
93
330
1F
100
AcDbEntity
  8
0
100
AcDbLine
 10
-112.5529142706158
 20
5.795554957734184
 30
0.0
 11
-111.0000000000007
 21
6.00000000000017
 31
0.0
  0
LINE
  5
94
330
1F
100
AcDbEntity
  8
0
100
AcDbLine
 10
-5.999999999999764
 20
110.9999999999978
 30
0.0
 11
-5.795554957734557
 21
112.5529142706129
 31
0.0
  0
LINE
  5
95
330
1F
100
AcDbEntity
  8
0
100
AcDbLine
 10
-5.795554957734557
 20
112.5529142706129
 30
0.0
 11
-5.196152422707143
 21
113.9999999999979
 31
0.0
  0
LINE
  5
96
330
1F
100
AcDbEntity
  8
0
100
AcDbLine
 10
-5.196152422707143
 20
113.9999999999979
 30
0.0
 11
-4.242640687120108
 21
115.2426406871175
 31
0.0
  0
LINE
  5
97
330
1F
100
AcDbEntity
  8
0
100
AcDbLine
 10
-4.242640687120108
 20
115.2426406871175
 30
0.0
 11
-3.000000000001066
 21
116.1961524227051
 31
0.0
  0
LINE
  5
98
330
1F
100
AcDbEntity
  8
0
100
AcDbLine
 10
-3.000000000001066
 20
116.1961524227051
 30
0.0
 11
-1.552914270616343
 21
116.7955549577333
 31
0.0
  0
LINE
  5
99
330
1F
100
AcDbEntity
  8
0
100
AcDbLine
 10
-1.552914270616343
 20
116.7955549577333
 30
0.0
 11
-0.0000000000012633
 21
116.9999999999992
 31
0.0
  0
LINE
  5
9A
330
1F
100
AcDbEntity
  8
0
100
AcDbLine
 10
-0.0000000000012633
 20
116.9999999999992
 30
0.0
 11
1.552914270613918
 21
116.795554957734
 31
0.0
  0
LINE
  5
9B
330
1F
100
AcDbEntity
  8
0
100
AcDbLine
 10
1.552914270613918
 20
116.795554957734
 30
0.0
 11
2.999999999998934
 21
116.1961524227066
 31
0.0
  0
LINE
  5
9C
330
1F
100
AcDbEntity
  8
0
100
AcDbLine
 10
2.999999999998934
 20
116.1961524227066
 30
0.0
 11
4.242640687118438
 21
115.2426406871196
 31
0.0
  0
LINE
  5
9D
330
1F
100
AcDbEntity
  8
0
100
AcDbLine
 10
4.242640687118438
 20
115.2426406871196
 30
0.0
 11
5.196152422706104
 21
114.0000000000006
 31
0.0
  0
LINE
  5
9E
330
1F
100
AcDbEntity
  8
0
100
AcDbLine
 10
5.196152422706104
 20
114.0000000000006
 30
0.0
 11
5.795554957734229
 21
112.5529142706158
 31
0.0
  0
LINE
  5
9F
330
1F
100
AcDbEntity
  8
0
100
AcDbLine
 10
5.795554957734229
 20
112.5529142706158
 30
0.0
 11
6.000000000000215
 21
111.0000000000007
 31
0.0
  0
LINE
  5
A0
330
1F
100
AcDbEntity
  8
0
100
AcDbLine
 10
1.663118920685825
 20
-109.8891285152375
 30
0.0
 11
1.318934820762802
 21
-109.496533692236
 31
0.0
  0
LINE
  5
A1
330
1F
100
AcDbEntity
  8
0
100
AcDbLine
 10
1.318934820762802
 20
-109.496533692236
 30
0.0
 11
0.8848674924476112
 21
-109.2063976135129
 31
0.0
  0
LINE
  5
A2
330
1F
100
AcDbEntity
  8
0
100
AcDbLine
 10
0.8848674924476112
 20
-109.2063976135129
 30
0.0
 11
0.3904979068347882
 21
-109.0384925733608
 31
0.0
  0
LINE
  5
A3
330
1F
100
AcDbEntity
  8
0
100
AcDbLine
 10
0.3904979068347882
 20
-109.0384925733608
 30
0.0
 11
-0.1304834658005269
 21
-109.0042610227898
 31
0.0
  0
LINE
  5
A4
330
1F
100
AcDbEntity
  8
0
100
AcDbLine
 10
-0.1304834658005269
 20
-109.0042610227898
 30
0.0
 11
-0.6425726058756741
 21
-109.106035785401
 31
0.0
  0
LINE
  5
A5
330
1F
100
AcDbEntity
  8
0
100
AcDbLine
 10
-0.6425726058756741
 20
-109.106035785401
 30
0.0
 11
-1.110871484761857
 21
-109.3368810793133
 31
0.0
  0
LINE
  5
A6
330
1F
100
AcDbEntity
  8
0
100
AcDbLine
 10
-1.110871484761857
 20
-109.3368810793133
 30
0.0
 11
-1.50346630776343
 21
-109.6810651792363
 31
0.0
  0
LINE
  5
A7
330
1F
100
AcDbEntity
  8
0
100
AcDbLine
 10
-1.793602386486487
 20
-110.1151325075515
 30
0.0
 11
-1.9615074266386
 21
-110.6095020931643
 31
0.0
  0
LINE
  5
A8
330
1F
100
AcDbEntity
  8
0
100
AcDbLine
 10
-1.9615074266386
 20
-110.6095020931643
 30
0.0
 11
-1.995738977209592
 21
-111.1304834657996
 31
0.0
  0
LINE
  5
A9
330
1F
100
AcDbEntity
  8
0
100
AcDbLine
 10
-1.995738977209592
 20
-111.1304834657996
 30
0.0
 11
-1.893964214598365
 21
-111.6425726058748
 31
0.0
  0
LINE
  5
AA
330
1F
100
AcDbEntity
  8
0
100
AcDbLine
 10
-1.893964214598365
 20
-111.6425726058748
 30
0.0
 11
-1.663118920686095
 21
-112.110871484761
 31
0.0
  0
LINE
  5
AB
330
1F
100
AcDbEntity
  8
0
100
AcDbLine
 10
-1.663118920686095
 20
-112.110871484761
 30
0.0
 11
-1.318934820763073
 21
-112.5034663077625
 31
0.0
  0
LINE
  5
AC
330
1F
100
AcDbEntity
  8
0
100
AcDbLine
 10
-1.318934820763073
 20
-112.5034663077625
 30
0.0
 11
-0.8848674924478819
 21
-112.7936023864856
 31
0.0
  0
LINE
  5
AD
330
1F
100
AcDbEntity
  8
0
100
AcDbLine
 10
-0.8848674924478819
 20
-112.7936023864856
 30
0.0
 11
-0.390497906835059
 21
-112.9615074266377
 31
0.0
  0
LINE
  5
AE
330
1F
100
AcDbEntity
  8
0
100
AcDbLine
 10
-0.390497906835059
 20
-112.9615074266377
 30
0.0
 11
0.1304834658002562
 21
-112.9957389772087
 31
0.0
  0
LINE
  5
AF
330
1F
100
AcDbEntity
  8
0
100
AcDbLine
 10
0.1304834658002562
 20
-112.9957389772087
 30
0.0
 11
0.6425726058753921
 21
-112.8939642145975
 31
0.0
  0
LINE
  5
B0
330
1F
100
AcDbEntity
  8
0
100
AcDbLine
 10
0.6425726058753921
 20
-112.8939642145975
 30
0.0
 11
1.110871484761552
 21
-112.6631189206852
 31
0.0
  0
LINE
  5
B1
330
1F
100
AcDbEntity
  8
0
100
AcDbLine
 10
1.110871484761552
 20
-112.6631189206852
 30
0.0
 11
1.503466307763148
 21
-112.3189348207622
 31
0.0
  0
LINE
  5
B2
330
1F
100
AcDbEntity
  8
0
100
AcDbLine
 10
1.503466307763148
 20
-112.3189348207622
 30
0.0
 11
1.793602386486216
 21
-111.884867492447
 31
0.0
  0
LINE
  5
B3
330
1F
100
AcDbEntity
  8
0
100
AcDbLine
 10
1.793602386486216
 20
-111.884867492447
 30
0.0
 11
1.961507426638329
 21
-111.3904979068342
 31
0.0
  0
LINE
  5
B4
330
1F
100
AcDbEntity
  8
0
100
AcDbLine
 10
1.961507426638329
 20
-111.3904979068342
 30
0.0
 11
1.995738977209321
 21
-110.8695165341989
 31
0.0
  0
LINE
  5
B5
330
1F
100
AcDbEntity
  8
0
100
AcDbLine
 10
1.995738977209321
 20
-110.8695165341989
 30
0.0
 11
1.893964214598071
 21
-110.3574273941237
 31
0.0
  0
LINE
  5
B6
330
1F
100
AcDbEntity
  8
0
100
AcDbLine
 10
-1.663118920685746
 20
109.8891285152375
 30
0.0
 11
-1.318934820762712
 21
109.496533692236
 31
0.0
  0
LINE
  5
B7
330
1F
100
AcDbEntity
  8
0
100
AcDbLine
 10
-1.318934820762712
 20
109.496533692236
 30
0.0
 11
-0.8848674924475209
 21
109.2063976135129
 31
0.0
  0
LINE
  5
B8
330
1F
100
AcDbEntity
  8
0
100
AcDbLine
 10
-0.8848674924475209
 20
109.2063976135129
 30
0.0
 11
-0.390497906834698
 21
109.0384925733608
 31
0.0
  0
LINE
  5
B9
330
1F
100
AcDbEntity
  8
0
100
AcDbLine
 10
-0.390497906834698
 20
109.0384925733608
 30
0.0
 11
0.1304834658006172
 21
109.0042610227898
 31
0.0
  0
LINE
  5
BA
330
1F
100
AcDbEntity
  8
0
100
AcDbLine
 10
0.1304834658006172
 20
109.0042610227898
 30
0.0
 11
0.642572605875753
 21
109.106035785401
 31
0.0
  0
LINE
  5
BB
330
1F
100
AcDbEntity
  8
0
100
AcDbLine
 10
0.642572605875753
 20
109.106035785401
 30
0.0
 11
1.110871484761936
 21
109.3368810793133
 31
0.0
  0
LINE
  5
BC
330
1F
100
AcDbEntity
  8
0
100
AcDbLine
 10
1.110871484761936
 20
109.3368810793133
 30
0.0
 11
1.503466307763509
 21
109.6810651792363
 31
0.0
  0
LINE
  5
BD
330
1F
100
AcDbEntity
  8
0
100
AcDbLine
 10
1.793602386486577
 20
110.1151325075515
 30
0.0
 11
1.96150742663869
 21
110.6095020931643
 31
0.0
  0
LINE
  5
BE
330
1F
100
AcDbEntity
  8
0
100
AcDbLine
 10
1.96150742663869
 20
110.6095020931643
 30
0.0
 11
1.995738977209683
 21
111.1304834657996
 31
0.0
  0
LINE
  5
BF
330
1F
100
AcDbEntity
  8
0
100
AcDbLine
 10
1.995738977209683
 20
111.1304834657996
 30
0.0
 11
1.893964214598455
 21
111.6425726058748
 31
0.0
  0
LINE
  5
C0
330
1F
100
AcDbEntity
  8
0
100
AcDbLine
 10
1.893964214598455
 20
111.6425726058748
 30
0.0
 11
1.663118920686186
 21
112.110871484761
 31
0.0
  0
LINE
  5
C1
330
1F
100
AcDbEntity
  8
0
100
AcDbLine
 10
1.663118920686186
 20
112.110871484761
 30
0.0
 11
1.318934820763163
 21
112.5034663077625
 31
0.0
  0
LINE
  5
C2
330
1F
100
AcDbEntity
  8
0
100
AcDbLine
 10
1.318934820763163
 20
112.5034663077625
 30
0.0
 11
0.8848674924479721
 21
112.7936023864856
 31
0.0
  0
LINE
  5
C3
330
1F
100
AcDbEntity
  8
0
100
AcDbLine
 10
0.8848674924479721
 20
112.7936023864856
 30
0.0
 11
0.3904979068351492
 21
112.9615074266377
 31
0.0
  0
LINE
  5
C4
330
1F
100
AcDbEntity
  8
0
100
AcDbLine
 10
0.3904979068351492
 20
112.9615074266377
 30
0.0
 11
-0.130483465800166
 21
112.9957389772087
 31
0.0
  0
LINE
  5
C5
330
1F
100
AcDbEntity
  8
0
100
AcDbLine
 10
-0.130483465800166
 20
112.9957389772087
 30
0.0
 11
-0.6425726058753132
 21
112.8939642145975
 31
0.0
  0
LINE
  5
C6
330
1F
100
AcDbEntity
  8
0
100
AcDbLine
 10
-0.6425726058753132
 20
112.8939642145975
 30
0.0
 11
-1.110871484761474
 21
112.6631189206852
 31
0.0
  0
LINE
  5
C7
330
1F
100
AcDbEntity
  8
0
100
AcDbLine
 10
-1.110871484761474
 20
112.6631189206852
 30
0.0
 11
-1.503466307763069
 21
112.3189348207622
 31
0.0
  0
LINE
  5
C8
330
1F
100
AcDbEntity
  8
0
100
AcDbLine
 10
-1.503466307763069
 20
112.3189348207622
 30
0.0
 11
-1.793602386486137
 21
111.884867492447
 31
0.0
  0
LINE
  5
C9
330
1F
100
AcDbEntity
  8
0
100
AcDbLine
 10
-1.793602386486137
 20
111.884867492447
 30
0.0
 11
-1.961507426638239
 21
111.3904979068342
 31
0.0
  0
LINE
  5
CA
330
1F
100
AcDbEntity
  8
0
100
AcDbLine
 10
-1.961507426638239
 20
111.3904979068342
 30
0.0
 11
-1.995738977209231
 21
110.8695165341989
 31
0.0
  0
LINE
  5
CB
330
1F
100
AcDbEntity
  8
0
100
AcDbLine
 10
-1.995738977209231
 20
110.8695165341989
 30
0.0
 11
-1.893964214597992
 21
110.3574273941237
 31
0.0
  0
LINE
  5
CC
330
1F
100
AcDbEntity
  8
0
100
AcDbLine
 10
-109.8891285152375
 20
-1.663118920685791
 30
0.0
 11
-109.496533692236
 21
-1.318934820762757
 31
0.0
  0
LINE
  5
CD
330
1F
100
AcDbEntity
  8
0
100
AcDbLine
 10
-109.496533692236
 20
-1.318934820762757
 30
0.0
 11
-109.2063976135129
 21
-0.8848674924475661
 31
0.0
  0
LINE
  5
CE
330
1F
100
AcDbEntity
  8
0
100
AcDbLine
 10
-109.2063976135129
 20
-0.8848674924475661
 30
0.0
 11
-109.0384925733608
 21
-0.3904979068347432
 31
0.0
  0
LINE
  5
CF
330
1F
100
AcDbEntity
  8
0
100
AcDbLine
 10
-109.0384925733608
 20
-0.3904979068347432
 30
0.0
 11
-109.0042610227898
 21
0.130483465800572
 31
0.0
  0
LINE
  5
D0
330
1F
100
AcDbEntity
  8
0
100
AcDbLine
 10
-109.0042610227898
 20
0.130483465800572
 30
0.0
 11
-109.106035785401
 21
0.642572605875708
 31
0.0
  0
LINE
  5
D1
330
1F
100
AcDbEntity
  8
0
100
AcDbLine
 10
-109.106035785401
 20
0.642572605875708
 30
0.0
 11
-109.3368810793133
 21
1.110871484761891
 31
0.0
  0
LINE
  5
D2
330
1F
100
AcDbEntity
  8
0
100
AcDbLine
 10
-109.3368810793133
 20
1.110871484761891
 30
0.0
 11
-109.6810651792363
 21
1.503466307763464
 31
0.0
  0
LINE
  5
D3
330
1F
100
AcDbEntity
  8
0
100
AcDbLine
 10
-110.1151325075515
 20
1.793602386486532
 30
0.0
 11
-110.6095020931643
 21
1.961507426638645
 31
0.0
  0
LINE
  5
D4
330
1F
100
AcDbEntity
  8
0
100
AcDbLine
 10
-110.6095020931643
 20
1.961507426638645
 30
0.0
 11
-111.1304834657996
 21
1.995738977209637
 31
0.0
  0
LINE
  5
D5
330
1F
100
AcDbEntity
  8
0
100
AcDbLine
 10
-111.1304834657996
 20
1.995738977209637
 30
0.0
 11
-111.6425726058748
 21
1.89396421459841
 31
0.0
  0
LINE
  5
D6
330
1F
100
AcDbEntity
  8
0
100
AcDbLine
 10
-111.6425726058748
 20
1.89396421459841
 30
0.0
 11
-112.110871484761
 21
1.663118920686141
 31
0.0
  0
LINE
  5
D7
330
1F
100
AcDbEntity
  8
0
100
AcDbLine
 10
-112.110871484761
 20
1.663118920686141
 30
0.0
 11
-112.5034663077625
 21
1.318934820763118
 31
0.0
  0
LINE
  5
D8
330
1F
100
AcDbEntity
  8
0
100
AcDbLine
 10
-112.5034663077625
 20
1.318934820763118
 30
0.0
 11
-112.7936023864856
 21
0.8848674924479271
 31
0.0
  0
LINE
  5
D9
330
1F
100
AcDbEntity
  8
0
100
AcDbLine
 10
-112.7936023864856
 20
0.8848674924479271
 30
0.0
 11
-112.9615074266377
 21
0.3904979068351041
 31
0.0
  0
LINE
  5
DA
330
1F
100
AcDbEntity
  8
0
100
AcDbLine
 10
-112.9615074266377
 20
0.3904979068351041
 30
0.0
 11
-112.9957389772087
 21
-0.1304834658002111
 31
0.0
  0
LINE
  5
DB
330
1F
100
AcDbEntity
  8
0
100
AcDbLine
 10
-112.9957389772087
 20
-0.1304834658002111
 30
0.0
 11
-112.8939642145975
 21
-0.6425726058753582
 31
0.0
  0
LINE
  5
DC
330
1F
100
AcDbEntity
  8
0
100
AcDbLine
 10
-112.8939642145975
 20
-0.6425726058753582
 30
0.0
 11
-112.6631189206852
 21
-1.110871484761519
 31
0.0
  0
LINE
  5
DD
330
1F
100
AcDbEntity
  8
0
100
AcDbLine
 10
-112.6631189206852
 20
-1.110871484761519
 30
0.0
 11
-112.3189348207622
 21
-1.503466307763114
 31
0.0
  0
LINE
  5
DE
330
1F
100
AcDbEntity
  8
0
100
AcDbLine
 10
-112.3189348207622
 20
-1.503466307763114
 30
0.0
 11
-111.884867492447
 21
-1.793602386486182
 31
0.0
  0
LINE
  5
DF
330
1F
100
AcDbEntity
  8
0
100
AcDbLine
 10
-111.884867492447
 20
-1.793602386486182
 30
0.0
 11
-111.3904979068342
 21
-1.961507426638284
 31
0.0
  0
LINE
  5
E0
330
1F
100
AcDbEntity
  8
0
100
AcDbLine
 10
-111.3904979068342
 20
-1.961507426638284
 30
0.0
 11
-110.8695165341989
 21
-1.995738977209276
 31
0.0
  0
LINE
  5
E1
330
1F
100
AcDbEntity
  8
0
100
AcDbLine
 10
-110.8695165341989
 20
-1.995738977209276
 30
0.0
 11
-110.3574273941237
 21
-1.893964214598038
 31
0.0
  0
LINE
  5
E2
330
1F
100
AcDbEntity
  8
0
100
AcDbLine
 10
109.8891285152375
 20
1.663118920685825
 30
0.0
 11
109.496533692236
 21
1.318934820762779
 31
0.0
  0
LINE
  5
E3
330
1F
100
AcDbEntity
  8
0
100
AcDbLine
 10
109.496533692236
 20
1.318934820762779
 30
0.0
 11
109.2063976135129
 21
0.8848674924475887
 31
0.0
  0
LINE
  5
E4
330
1F
100
AcDbEntity
  8
0
100
AcDbLine
 10
109.2063976135129
 20
0.8848674924475887
 30
0.0
 11
109.0384925733608
 21
0.3904979068347657
 31
0.0
  0
LINE
  5
E5
330
1F
100
AcDbEntity
  8
0
100
AcDbLine
 10
109.0384925733608
 20
0.3904979068347657
 30
0.0
 11
109.0042610227898
 21
-0.1304834658005495
 31
0.0
  0
LINE
  5
E6
330
1F
100
AcDbEntity
  8
0
100
AcDbLine
 10
109.0042610227898
 20
-0.1304834658005495
 30
0.0
 11
109.106035785401
 21
-0.6425726058756741
 31
0.0
  0
LINE
  5
E7
330
1F
100
AcDbEntity
  8
0
100
AcDbLine
 10
109.106035785401
 20
-0.6425726058756741
 30
0.0
 11
109.3368810793133
 21
-1.110871484761857
 31
0.0
  0
LINE
  5
E8
330
1F
100
AcDbEntity
  8
0
100
AcDbLine
 10
109.3368810793133
 20
-1.110871484761857
 30
0.0
 11
109.6810651792363
 21
-1.50346630776343
 31
0.0
  0
LINE
  5
E9
330
1F
100
AcDbEntity
  8
0
100
AcDbLine
 10
110.1151325075515
 20
-1.793602386486498
 30
0.0
 11
110.6095020931643
 21
-1.961507426638611
 31
0.0
  0
LINE
  5
EA
330
1F
100
AcDbEntity
  8
0
100
AcDbLine
 10
110.6095020931643
 20
-1.961507426638611
 30
0.0
 11
111.1304834657996
 21
-1.995738977209603
 31
0.0
  0
LINE
  5
EB
330
1F
100
AcDbEntity
  8
0
100
AcDbLine
 10
111.1304834657996
 20
-1.995738977209603
 30
0.0
 11
111.6425726058748
 21
-1.893964214598376
 31
0.0
  0
LINE
  5
EC
330
1F
100
AcDbEntity
  8
0
100
AcDbLine
 10
111.6425726058748
 20
-1.893964214598376
 30
0.0
 11
112.110871484761
 21
-1.663118920686107
 31
0.0
  0
LINE
  5
ED
330
1F
100
AcDbEntity
  8
0
100
AcDbLine
 10
112.110871484761
 20
-1.663118920686107
 30
0.0
 11
112.5034663077625
 21
-1.318934820763084
 31
0.0
  0
LINE
  5
EE
330
1F
100
AcDbEntity
  8
0
100
AcDbLine
 10
112.5034663077625
 20
-1.318934820763084
 30
0.0
 11
112.7936023864856
 21
-0.8848674924478932
 31
0.0
  0
LINE
  5
EF
330
1F
100
AcDbEntity
  8
0
100
AcDbLine
 10
112.7936023864856
 20
-0.8848674924478932
 30
0.0
 11
112.9615074266377
 21
-0.3904979068350816
 31
0.0
  0
LINE
  5
F0
330
1F
100
AcDbEntity
  8
0
100
AcDbLine
 10
112.9615074266377
 20
-0.3904979068350816
 30
0.0
 11
112.9957389772087
 21
0.1304834658002562
 31
0.0
  0
LINE
  5
F1
330
1F
100
AcDbEntity
  8
0
100
AcDbLine
 10
112.9957389772087
 20
0.1304834658002562
 30
0.0
 11
112.8939642145975
 21
0.6425726058753921
 31
0.0
  0
LINE
  5
F2
330
1F
100
AcDbEntity
  8
0
100
AcDbLine
 10
112.8939642145975
 20
0.6425726058753921
 30
0.0
 11
112.6631189206852
 21
1.110871484761552
 31
0.0
  0
LINE
  5
F3
330
1F
100
AcDbEntity
  8
0
100
AcDbLine
 10
112.6631189206852
 20
1.110871484761552
 30
0.0
 11
112.3189348207622
 21
1.503466307763148
 31
0.0
  0
LINE
  5
F4
330
1F
100
AcDbEntity
  8
0
100
AcDbLine
 10
112.3189348207622
 20
1.503466307763148
 30
0.0
 11
111.884867492447
 21
1.793602386486216
 31
0.0
  0
LINE
  5
F5
330
1F
100
AcDbEntity
  8
0
100
AcDbLine
 10
111.884867492447
 20
1.793602386486216
 30
0.0
 11
111.3904979068342
 21
1.961507426638307
 31
0.0
  0
LINE
  5
F6
330
1F
100
AcDbEntity
  8
0
100
AcDbLine
 10
111.3904979068342
 20
1.961507426638307
 30
0.0
 11
110.8695165341989
 21
1.995738977209299
 31
0.0
  0
LINE
  5
F7
330
1F
100
AcDbEntity
  8
0
100
AcDbLine
 10
110.8695165341989
 20
1.995738977209299
 30
0.0
 11
110.3574273941237
 21
1.893964214598071
 31
0.0
  0
LINE
  5
F8
330
1F
100
AcDbEntity
  8
0
100
AcDbLine
 10
11.49813095944123
 20
-109.3974084905102
 30
0.0
 11
7.673212111853124
 21
-109.7320455285808
 31
0.0
  0
LINE
  5
F9
330
1F
100
AcDbEntity
  8
0
100
AcDbLine
 10
-7.673212111854443
 20
-109.7320455285807
 30
0.0
 11
-11.49813095944254
 21
-109.3974084905101
 31
0.0
  0
LINE
  5
FA
330
1F
100
AcDbEntity
  8
0
100
AcDbLine
 10
-11.49813095944254
 20
-109.3974084905101
 30
0.0
 11
-15.30904110560786
 21
-108.9294875615727
 31
0.0
  0
LINE
  5
FB
330
1F
100
AcDbEntity
  8
0
100
AcDbLine
 10
-15.30904110560786
 20
-108.9294875615727
 30
0.0
 11
-19.10129954336299
 21
-108.3288528313429
 31
0.0
  0
LINE
  5
FC
330
1F
100
AcDbEntity
  8
0
100
AcDbLine
 10
-19.10129954336299
 20
-108.3288528313429
 30
0.0
 11
-22.87028598995418
 21
-107.5962360807186
 31
0.0
  0
LINE
  5
FD
330
1F
100
AcDbEntity
  8
0
100
AcDbLine
 10
-22.87028598995418
 20
-107.5962360807186
 30
0.0
 11
-26.6114085159641
 21
-106.7325298903596
 31
0.0
  0
LINE
  5
FE
330
1F
100
AcDbEntity
  8
0
100
AcDbLine
 10
-26.6114085159641
 20
-106.7325298903596
 30
0.0
 11
-30.32010913987055
 21
-105.738786553215
 31
0.0
  0
LINE
  5
FF
330
1F
100
AcDbEntity
  8
0
100
AcDbLine
 10
-30.32010913987055
 20
-105.738786553215
 30
0.0
 11
-33.99186938124485
 21
-104.6162167924668
 31
0.0
  0
LINE
  5
100
330
1F
100
AcDbEntity
  8
0
100
AcDbLine
 10
-33.99186938124485
 20
-104.6162167924668
 30
0.0
 11
-37.62221576582419
 21
-103.3661882864498
 31
0.0
  0
LINE
  5
101
330
1F
100
AcDbEntity
  8
0
100
AcDbLine
 10
-37.62221576582419
 20
-103.3661882864498
 30
0.0
 11
-41.20672527575095
 21
-101.9902240023465
 31
0.0
  0
LINE
  5
102
330
1F
100
AcDbEntity
  8
0
100
AcDbLine
 10
-41.20672527575095
 20
-101.9902240023465
 30
0.0
 11
-44.74103073833863
 21
-100.490000340686
 31
0.0
  0
LINE
  5
103
330
1F
100
AcDbEntity
  8
0
100
AcDbLine
 10
-44.74103073833863
 20
-100.490000340686
 30
0.0
 11
-48.22082614679912
 21
-98.86734509290821
 31
0.0
  0
LINE
  5
104
330
1F
100
AcDbEntity
  8
0
100
AcDbLine
 10
-48.22082614679912
 20
-98.86734509290821
 30
0.0
 11
-51.6418719064486
 21
-97.12423521448179
 31
0.0
  0
LINE
  5
105
330
1F
100
AcDbEntity
  8
0
100
AcDbLine
 10
-51.6418719064486
 20
-97.12423521448179
 30
0.0
 11
-55.0000000000006
 21
-95.26279441628807
 31
0.0
  0
LINE
  5
106
330
1F
100
AcDbEntity
  8
0
100
AcDbLine
 10
-55.0000000000006
 20
-95.26279441628807
 30
0.0
 11
-58.29111906565313
 21
-93.28529057720664
 31
0.0
  0
LINE
  5
107
330
1F
100
AcDbEntity
  8
0
100
AcDbLine
 10
-58.29111906565313
 20
-93.28529057720664
 30
0.0
 11
-61.51121938178272
 21
-91.19413298105437
 31
0.0
  0
LINE
  5
108
330
1F
100
AcDbEntity
  8
0
100
AcDbLine
 10
-61.51121938178272
 20
-91.19413298105437
 30
0.0
 11
-64.65637775217262
 21
-88.99186938124397
 31
0.0
  0
LINE
  5
109
330
1F
100
AcDbEntity
  8
0
100
AcDbLine
 10
-64.65637775217262
 20
-88.99186938124397
 30
0.0
 11
-67.72276228582295
 21
-86.68118289673916
 31
0.0
  0
LINE
  5
10A
330
1F
100
AcDbEntity
  8
0
100
AcDbLine
 10
-67.72276228582295
 20
-86.68118289673916
 30
0.0
 11
-70.70663706551987
 21
-84.2648887430873
 31
0.0
  0
LINE
  5
10B
330
1F
100
AcDbEntity
  8
0
100
AcDbLine
 10
-70.70663706551987
 20
-84.2648887430873
 30
0.0
 11
-73.60436669947494
 21
-81.74593080251309
 31
0.0
  0
LINE
  5
10C
330
1F
100
AcDbEntity
  8
0
100
AcDbLine
 10
-73.60436669947494
 20
-81.74593080251309
 30
0.0
 11
-76.41242075049021
 21
-79.12737803725133
 31
0.0
  0
LINE
  5
10D
330
1F
100
AcDbEntity
  8
0
100
AcDbLine
 10
-76.41242075049021
 20
-79.12737803725133
 30
0.0
 11
-79.12737803725214
 21
-76.41242075048939
 31
0.0
  0
LINE
  5
10E
330
1F
100
AcDbEntity
  8
0
100
AcDbLine
 10
-79.12737803725214
 20
-76.41242075048939
 30
0.0
 11
-81.74593080251385
 21
-73.60436669947408
 31
0.0
  0
LINE
  5
10F
330
1F
100
AcDbEntity
  8
0
100
AcDbLine
 10
-81.74593080251385
 20
-73.60436669947408
 30
0.0
 11
-84.26488874308808
 21
-70.70663706551899
 31
0.0
  0
LINE
  5
110
330
1F
100
AcDbEntity
  8
0
100
AcDbLine
 10
-84.26488874308808
 20
-70.70663706551899
 30
0.0
 11
-86.68118289673988
 21
-67.72276228582206
 31
0.0
  0
LINE
  5
111
330
1F
100
AcDbEntity
  8
0
100
AcDbLine
 10
-86.68118289673988
 20
-67.72276228582206
 30
0.0
 11
-88.99186938124465
 21
-64.65637775217171
 31
0.0
  0
LINE
  5
112
330
1F
100
AcDbEntity
  8
0
100
AcDbLine
 10
-88.99186938124465
 20
-64.65637775217171
 30
0.0
 11
-91.19413298105502
 21
-61.51121938178179
 31
0.0
  0
LINE
  5
113
330
1F
100
AcDbEntity
  8
0
100
AcDbLine
 10
-91.19413298105502
 20
-61.51121938178179
 30
0.0
 11
-93.28529057720728
 21
-58.29111906565218
 31
0.0
  0
LINE
  5
114
330
1F
100
AcDbEntity
  8
0
100
AcDbLine
 10
-93.28529057720728
 20
-58.29111906565218
 30
0.0
 11
-95.26279441628864
 21
-54.99999999999961
 31
0.0
  0
LINE
  5
115
330
1F
100
AcDbEntity
  8
0
100
AcDbLine
 10
-95.26279441628864
 20
-54.99999999999961
 30
0.0
 11
-97.12423521448237
 21
-51.64187190644758
 31
0.0
  0
LINE
  5
116
330
1F
100
AcDbEntity
  8
0
100
AcDbLine
 10
-97.12423521448237
 20
-51.64187190644758
 30
0.0
 11
-98.86734509290872
 21
-48.22082614679812
 31
0.0
  0
LINE
  5
117
330
1F
100
AcDbEntity
  8
0
100
AcDbLine
 10
-98.86734509290872
 20
-48.22082614679812
 30
0.0
 11
-100.4900003406864
 21
-44.74103073833761
 31
0.0
  0
LINE
  5
118
330
1F
100
AcDbEntity
  8
0
100
AcDbLine
 10
-100.4900003406864
 20
-44.74103073833761
 30
0.0
 11
-101.990224002347
 21
-41.2067252757499
 31
0.0
  0
LINE
  5
119
330
1F
100
AcDbEntity
  8
0
100
AcDbLine
 10
-101.990224002347
 20
-41.2067252757499
 30
0.0
 11
-103.3661882864503
 21
-37.62221576582313
 31
0.0
  0
LINE
  5
11A
330
1F
100
AcDbEntity
  8
0
100
AcDbLine
 10
-103.3661882864503
 20
-37.62221576582313
 30
0.0
 11
-104.6162167924672
 21
-33.9918693812438
 31
0.0
  0
LINE
  5
11B
330
1F
100
AcDbEntity
  8
0
100
AcDbLine
 10
-104.6162167924672
 20
-33.9918693812438
 30
0.0
 11
-105.7387865532153
 21
-30.32010913986948
 31
0.0
  0
LINE
  5
11C
330
1F
100
AcDbEntity
  8
0
100
AcDbLine
 10
-105.7387865532153
 20
-30.32010913986948
 30
0.0
 11
-106.7325298903599
 21
-26.611408515963
 31
0.0
  0
LINE
  5
11D
330
1F
100
AcDbEntity
  8
0
100
AcDbLine
 10
-106.7325298903599
 20
-26.611408515963
 30
0.0
 11
-107.5962360807189
 21
-22.87028598995307
 31
0.0
  0
LINE
  5
11E
330
1F
100
AcDbEntity
  8
0
100
AcDbLine
 10
-107.5962360807189
 20
-22.87028598995307
 30
0.0
 11
-108.3288528313431
 21
-19.10129954336188
 31
0.0
  0
LINE
  5
11F
330
1F
100
AcDbEntity
  8
0
100
AcDbLine
 10
-108.3288528313431
 20
-19.10129954336188
 30
0.0
 11
-108.929487561573
 21
-15.30904110560675
 31
0.0
  0
LINE
  5
120
330
1F
100
AcDbEntity
  8
0
100
AcDbLine
 10
-108.929487561573
 20
-15.30904110560675
 30
0.0
 11
-109.3974084905103
 21
-11.49813095944143
 31
0.0
  0
LINE
  5
121
330
1F
100
AcDbEntity
  8
0
100
AcDbLine
 10
-109.3974084905103
 20
-11.49813095944143
 30
0.0
 11
-109.7320455285809
 21
-7.673212111853327
 31
0.0
  0
LINE
  5
122
330
1F
100
AcDbEntity
  8
0
100
AcDbLine
 10
-109.7320455285808
 20
7.673212111854229
 30
0.0
 11
-109.3974084905102
 21
11.49813095944234
 31
0.0
  0
LINE
  5
123
330
1F
100
AcDbEntity
  8
0
100
AcDbLine
 10
-109.3974084905102
 20
11.49813095944234
 30
0.0
 11
-108.9294875615728
 21
15.30904110560765
 31
0.0
  0
LINE
  5
124
330
1F
100
AcDbEntity
  8
0
100
AcDbLine
 10
-108.9294875615728
 20
15.30904110560765
 30
0.0
 11
-108.3288528313429
 21
19.10129954336278
 31
0.0
  0
LINE
  5
125
330
1F
100
AcDbEntity
  8
0
100
AcDbLine
 10
-108.3288528313429
 20
19.10129954336278
 30
0.0
 11
-107.5962360807187
 21
22.87028598995397
 31
0.0
  0
LINE
  5
126
330
1F
100
AcDbEntity
  8
0
100
AcDbLine
 10
-107.5962360807187
 20
22.87028598995397
 30
0.0
 11
-106.7325298903596
 21
26.61140851596391
 31
0.0
  0
LINE
  5
127
330
1F
100
AcDbEntity
  8
0
100
AcDbLine
 10
-106.7325298903596
 20
26.61140851596391
 30
0.0
 11
-105.7387865532151
 21
30.32010913987035
 31
0.0
  0
LINE
  5
128
330
1F
100
AcDbEntity
  8
0
100
AcDbLine
 10
-105.7387865532151
 20
30.32010913987035
 30
0.0
 11
-104.6162167924669
 21
33.99186938124467
 31
0.0
  0
LINE
  5
129
330
1F
100
AcDbEntity
  8
0
100
AcDbLine
 10
-104.6162167924669
 20
33.99186938124467
 30
0.0
 11
-103.3661882864499
 21
37.62221576582402
 31
0.0
  0
LINE
  5
12A
330
1F
100
AcDbEntity
  8
0
100
AcDbLine
 10
-103.3661882864499
 20
37.62221576582402
 30
0.0
 11
-101.9902240023466
 21
41.20672527575077
 31
0.0
  0
LINE
  5
12B
330
1F
100
AcDbEntity
  8
0
100
AcDbLine
 10
-101.9902240023466
 20
41.20672527575077
 30
0.0
 11
-100.490000340686
 21
44.74103073833842
 31
0.0
  0
LINE
  5
12C
330
1F
100
AcDbEntity
  8
0
100
AcDbLine
 10
-100.490000340686
 20
44.74103073833842
 30
0.0
 11
-98.86734509290828
 21
48.22082614679891
 31
0.0
  0
LINE
  5
12D
330
1F
100
AcDbEntity
  8
0
100
AcDbLine
 10
-98.86734509290828
 20
48.22082614679891
 30
0.0
 11
-97.12423521448186
 21
51.64187190644838
 31
0.0
  0
LINE
  5
12E
330
1F
100
AcDbEntity
  8
0
100
AcDbLine
 10
-97.12423521448186
 20
51.64187190644838
 30
0.0
 11
-95.26279441628813
 21
55.0000000000004
 31
0.0
  0
LINE
  5
12F
330
1F
100
AcDbEntity
  8
0
100
AcDbLine
 10
-95.26279441628813
 20
55.0000000000004
 30
0.0
 11
-93.28529057720672
 21
58.29111906565291
 31
0.0
  0
LINE
  5
130
330
1F
100
AcDbEntity
  8
0
100
AcDbLine
 10
-93.28529057720672
 20
58.29111906565291
 30
0.0
 11
-91.19413298105442
 21
61.51121938178254
 31
0.0
  0
LINE
  5
131
330
1F
100
AcDbEntity
  8
0
100
AcDbLine
 10
-91.19413298105442
 20
61.51121938178254
 30
0.0
 11
-88.99186938124404
 21
64.65637775217242
 31
0.0
  0
LINE
  5
132
330
1F
100
AcDbEntity
  8
0
100
AcDbLine
 10
-88.99186938124404
 20
64.65637775217242
 30
0.0
 11
-86.68118289673922
 21
67.72276228582277
 31
0.0
  0
LINE
  5
133
330
1F
100
AcDbEntity
  8
0
100
AcDbLine
 10
-86.68118289673922
 20
67.72276228582277
 30
0.0
 11
-84.26488874308737
 21
70.70663706551969
 31
0.0
  0
LINE
  5
134
330
1F
100
AcDbEntity
  8
0
100
AcDbLine
 10
-84.26488874308737
 20
70.70663706551969
 30
0.0
 11
-81.74593080251317
 21
73.60436669947471
 31
0.0
  0
LINE
  5
135
330
1F
100
AcDbEntity
  8
0
100
AcDbLine
 10
-81.74593080251317
 20
73.60436669947471
 30
0.0
 11
-79.12737803725142
 21
76.41242075049001
 31
0.0
  0
LINE
  5
136
330
1F
100
AcDbEntity
  8
0
100
AcDbLine
 10
-79.12737803725142
 20
76.41242075049001
 30
0.0
 11
-76.41242075048947
 21
79.12737803725193
 31
0.0
  0
LINE
  5
137
330
1F
100
AcDbEntity
  8
0
100
AcDbLine
 10
-76.41242075048947
 20
79.12737803725193
 30
0.0
 11
-73.60436669947417
 21
81.74593080251363
 31
0.0
  0
LINE
  5
138
330
1F
100
AcDbEntity
  8
0
100
AcDbLine
 10
-73.60436669947417
 20
81.74593080251363
 30
0.0
 11
-70.70663706551908
 21
84.26488874308784
 31
0.0
  0
LINE
  5
139
330
1F
100
AcDbEntity
  8
0
100
AcDbLine
 10
-70.70663706551908
 20
84.26488874308784
 30
0.0
 11
-67.72276228582213
 21
86.68118289673967
 31
0.0
  0
LINE
  5
13A
330
1F
100
AcDbEntity
  8
0
100
AcDbLine
 10
-67.72276228582213
 20
86.68118289673967
 30
0.0
 11
-64.65637775217175
 21
88.99186938124446
 31
0.0
  0
LINE
  5
13B
330
1F
100
AcDbEntity
  8
0
100
AcDbLine
 10
-64.65637775217175
 20
88.99186938124446
 30
0.0
 11
-61.51121938178184
 21
91.19413298105484
 31
0.0
  0
LINE
  5
13C
330
1F
100
AcDbEntity
  8
0
100
AcDbLine
 10
-61.51121938178184
 20
91.19413298105484
 30
0.0
 11
-58.29111906565223
 21
93.28529057720708
 31
0.0
  0
LINE
  5
13D
330
1F
100
AcDbEntity
  8
0
100
AcDbLine
 10
-58.29111906565223
 20
93.28529057720708
 30
0.0
 11
-54.99999999999971
 21
95.26279441628843
 31
0.0
  0
LINE
  5
13E
330
1F
100
AcDbEntity
  8
0
100
AcDbLine
 10
-54.99999999999971
 20
95.26279441628843
 30
0.0
 11
-51.64187190644768
 21
97.12423521448214
 31
0.0
  0
LINE
  5
13F
330
1F
100
AcDbEntity
  8
0
100
AcDbLine
 10
-51.64187190644768
 20
97.12423521448214
 30
0.0
 11
-48.22082614679819
 21
98.86734509290852
 31
0.0
  0
LINE
  5
140
330
1F
100
AcDbEntity
  8
0
100
AcDbLine
 10
-48.22082614679819
 20
98.86734509290852
 30
0.0
 11
-44.74103073833768
 21
100.4900003406863
 31
0.0
  0
LINE
  5
141
330
1F
100
AcDbEntity
  8
0
100
AcDbLine
 10
-44.74103073833768
 20
100.4900003406863
 30
0.0
 11
-41.20672527574997
 21
101.9902240023468
 31
0.0
  0
LINE
  5
142
330
1F
100
AcDbEntity
  8
0
100
AcDbLine
 10
-41.20672527574997
 20
101.9902240023468
 30
0.0
 11
-37.62221576582321
 21
103.36618828645
 31
0.0
  0
LINE
  5
143
330
1F
100
AcDbEntity
  8
0
100
AcDbLine
 10
-37.62221576582321
 20
103.36618828645
 30
0.0
 11
-33.99186938124385
 21
104.616216792467
 31
0.0
  0
LINE
  5
144
330
1F
100
AcDbEntity
  8
0
100
AcDbLine
 10
-33.99186938124385
 20
104.616216792467
 30
0.0
 11
-30.32010913986954
 21
105.7387865532151
 31
0.0
  0
LINE
  5
145
330
1F
100
AcDbEntity
  8
0
100
AcDbLine
 10
-30.32010913986954
 20
105.7387865532151
 30
0.0
 11
-26.61140851596306
 21
106.7325298903597
 31
0.0
  0
LINE
  5
146
330
1F
100
AcDbEntity
  8
0
100
AcDbLine
 10
-26.61140851596306
 20
106.7325298903597
 30
0.0
 11
-22.87028598995317
 21
107.5962360807186
 31
0.0
  0
LINE
  5
147
330
1F
100
AcDbEntity
  8
0
100
AcDbLine
 10
-22.87028598995317
 20
107.5962360807186
 30
0.0
 11
-19.10129954336197
 21
108.3288528313429
 31
0.0
  0
LINE
  5
148
330
1F
100
AcDbEntity
  8
0
100
AcDbLine
 10
-19.10129954336197
 20
108.3288528313429
 30
0.0
 11
-15.30904110560683
 21
108.9294875615728
 31
0.0
  0
LINE
  5
149
330
1F
100
AcDbEntity
  8
0
100
AcDbLine
 10
-15.30904110560683
 20
108.9294875615728
 30
0.0
 11
-11.49813095944151
 21
109.3974084905101
 31
0.0
  0
LINE
  5
14A
330
1F
100
AcDbEntity
  8
0
100
AcDbLine
 10
-11.49813095944151
 20
109.3974084905101
 30
0.0
 11
-7.673212111853394
 21
109.7320455285806
 31
0.0
  0
LINE
  5
14B
330
1F
100
AcDbEntity
  8
0
100
AcDbLine
 10
7.673212111854184
 20
109.7320455285805
 30
0.0
 11
11.49813095944229
 21
109.3974084905099
 31
0.0
  0
LINE
  5
14C
330
1F
100
AcDbEntity
  8
0
100
AcDbLine
 10
11.49813095944229
 20
109.3974084905099
 30
0.0
 11
15.30904110560756
 21
108.9294875615726
 31
0.0
  0
LINE
  5
14D
330
1F
100
AcDbEntity
  8
0
100
AcDbLine
 10
15.30904110560756
 20
108.9294875615726
 30
0.0
 11
19.10129954336271
 21
108.3288528313427
 31
0.0
  0
LINE
  5
14E
330
1F
100
AcDbEntity
  8
0
100
AcDbLine
 10
19.10129954336271
 20
108.3288528313427
 30
0.0
 11
22.87028598995391
 21
107.5962360807185
 31
0.0
  0
LINE
  5
14F
330
1F
100
AcDbEntity
  8
0
100
AcDbLine
 10
22.87028598995391
 20
107.5962360807185
 30
0.0
 11
26.61140851596382
 21
106.7325298903594
 31
0.0
  0
LINE
  5
150
330
1F
100
AcDbEntity
  8
0
100
AcDbLine
 10
26.61140851596382
 20
106.7325298903594
 30
0.0
 11
30.32010913987028
 21
105.7387865532149
 31
0.0
  0
LINE
  5
151
330
1F
100
AcDbEntity
  8
0
100
AcDbLine
 10
30.32010913987028
 20
105.7387865532149
 30
0.0
 11
33.99186938124458
 21
104.6162167924667
 31
0.0
  0
LINE
  5
152
330
1F
100
AcDbEntity
  8
0
100
AcDbLine
 10
33.99186938124458
 20
104.6162167924667
 30
0.0
 11
37.62221576582392
 21
103.3661882864497
 31
0.0
  0
LINE
  5
153
330
1F
100
AcDbEntity
  8
0
100
AcDbLine
 10
37.62221576582392
 20
103.3661882864497
 30
0.0
 11
41.20672527575068
 21
101.9902240023464
 31
0.0
  0
LINE
  5
154
330
1F
100
AcDbEntity
  8
0
100
AcDbLine
 10
41.20672527575068
 20
101.9902240023464
 30
0.0
 11
44.7410307383384
 21
100.4900003406858
 31
0.0
  0
LINE
  5
155
330
1F
100
AcDbEntity
  8
0
100
AcDbLine
 10
44.7410307383384
 20
100.4900003406858
 30
0.0
 11
48.22082614679884
 21
98.8673450929081
 31
0.0
  0
LINE
  5
156
330
1F
100
AcDbEntity
  8
0
100
AcDbLine
 10
48.22082614679884
 20
98.8673450929081
 30
0.0
 11
51.64187190644831
 21
97.12423521448164
 31
0.0
  0
LINE
  5
157
330
1F
100
AcDbEntity
  8
0
100
AcDbLine
 10
51.64187190644831
 20
97.12423521448164
 30
0.0
 11
55.00000000000031
 21
95.26279441628792
 31
0.0
  0
LINE
  5
158
330
1F
100
AcDbEntity
  8
0
100
AcDbLine
 10
55.00000000000031
 20
95.26279441628792
 30
0.0
 11
58.29111906565284
 21
93.28529057720652
 31
0.0
  0
LINE
  5
159
330
1F
100
AcDbEntity
  8
0
100
AcDbLine
 10
58.29111906565284
 20
93.28529057720652
 30
0.0
 11
61.51121938178245
 21
91.19413298105422
 31
0.0
  0
LINE
  5
15A
330
1F
100
AcDbEntity
  8
0
100
AcDbLine
 10
61.51121938178245
 20
91.19413298105422
 30
0.0
 11
64.65637775217235
 21
88.99186938124384
 31
0.0
  0
LINE
  5
15B
330
1F
100
AcDbEntity
  8
0
100
AcDbLine
 10
64.65637775217235
 20
88.99186938124384
 30
0.0
 11
67.72276228582268
 21
86.68118289673902
 31
0.0
  0
LINE
  5
15C
330
1F
100
AcDbEntity
  8
0
100
AcDbLine
 10
67.72276228582268
 20
86.68118289673902
 30
0.0
 11
70.70663706551962
 21
84.26488874308716
 31
0.0
  0
LINE
  5
15D
330
1F
100
AcDbEntity
  8
0
100
AcDbLine
 10
70.70663706551962
 20
84.26488874308716
 30
0.0
 11
73.60436669947467
 21
81.74593080251293
 31
0.0
  0
LINE
  5
15E
330
1F
100
AcDbEntity
  8
0
100
AcDbLine
 10
73.60436669947467
 20
81.74593080251293
 30
0.0
 11
76.41242075048991
 21
79.1273780372512
 31
0.0
  0
LINE
  5
15F
330
1F
100
AcDbEntity
  8
0
100
AcDbLine
 10
76.41242075048991
 20
79.1273780372512
 30
0.0
 11
79.12737803725189
 21
76.41242075048925
 31
0.0
  0
LINE
  5
160
330
1F
100
AcDbEntity
  8
0
100
AcDbLine
 10
79.12737803725189
 20
76.41242075048925
 30
0.0
 11
81.74593080251357
 21
73.60436669947394
 31
0.0
  0
LINE
  5
161
330
1F
100
AcDbEntity
  8
0
100
AcDbLine
 10
81.74593080251357
 20
73.60436669947394
 30
0.0
 11
84.26488874308781
 21
70.70663706551885
 31
0.0
  0
LINE
  5
162
330
1F
100
AcDbEntity
  8
0
100
AcDbLine
 10
84.26488874308781
 20
70.70663706551885
 30
0.0
 11
86.6811828967396
 21
67.72276228582194
 31
0.0
  0
LINE
  5
163
330
1F
100
AcDbEntity
  8
0
100
AcDbLine
 10
86.6811828967396
 20
67.72276228582194
 30
0.0
 11
88.99186938124436
 21
64.6563777521716
 31
0.0
  0
LINE
  5
164
330
1F
100
AcDbEntity
  8
0
100
AcDbLine
 10
88.99186938124436
 20
64.6563777521716
 30
0.0
 11
91.19413298105475
 21
61.51121938178164
 31
0.0
  0
LINE
  5
165
330
1F
100
AcDbEntity
  8
0
100
AcDbLine
 10
91.19413298105475
 20
61.51121938178164
 30
0.0
 11
93.285290577207
 21
58.29111906565205
 31
0.0
  0
LINE
  5
166
330
1F
100
AcDbEntity
  8
0
100
AcDbLine
 10
93.285290577207
 20
58.29111906565205
 30
0.0
 11
95.26279441628841
 21
54.99999999999945
 31
0.0
  0
LINE
  5
167
330
1F
100
AcDbEntity
  8
0
100
AcDbLine
 10
95.26279441628841
 20
54.99999999999945
 30
0.0
 11
97.12423521448206
 21
51.64187190644748
 31
0.0
  0
LINE
  5
168
330
1F
100
AcDbEntity
  8
0
100
AcDbLine
 10
97.12423521448206
 20
51.64187190644748
 30
0.0
 11
98.86734509290848
 21
48.22082614679796
 31
0.0
  0
LINE
  5
169
330
1F
100
AcDbEntity
  8
0
100
AcDbLine
 10
98.86734509290848
 20
48.22082614679796
 30
0.0
 11
100.4900003406862
 21
44.74103073833749
 31
0.0
  0
LINE
  5
16A
330
1F
100
AcDbEntity
  8
0
100
AcDbLine
 10
100.4900003406862
 20
44.74103073833749
 30
0.0
 11
101.9902240023467
 21
41.20672527574975
 31
0.0
  0
LINE
  5
16B
330
1F
100
AcDbEntity
  8
0
100
AcDbLine
 10
101.9902240023467
 20
41.20672527574975
 30
0.0
 11
103.36618828645
 21
37.622215765823
 31
0.0
  0
LINE
  5
16C
330
1F
100
AcDbEntity
  8
0
100
AcDbLine
 10
103.36618828645
 20
37.622215765823
 30
0.0
 11
104.6162167924669
 21
33.9918693812437
 31
0.0
  0
LINE
  5
16D
330
1F
100
AcDbEntity
  8
0
100
AcDbLine
 10
104.6162167924669
 20
33.9918693812437
 30
0.0
 11
105.7387865532151
 21
30.32010913986933
 31
0.0
  0
LINE
  5
16E
330
1F
100
AcDbEntity
  8
0
100
AcDbLine
 10
105.7387865532151
 20
30.32010913986933
 30
0.0
 11
106.7325298903596
 21
26.61140851596291
 31
0.0
  0
LINE
  5
16F
330
1F
100
AcDbEntity
  8
0
100
AcDbLine
 10
106.7325298903596
 20
26.61140851596291
 30
0.0
 11
107.5962360807186
 21
22.87028598995293
 31
0.0
  0
LINE
  5
170
330
1F
100
AcDbEntity
  8
0
100
AcDbLine
 10
107.5962360807186
 20
22.87028598995293
 30
0.0
 11
108.3288528313428
 21
19.10129954336178
 31
0.0
  0
LINE
  5
171
330
1F
100
AcDbEntity
  8
0
100
AcDbLine
 10
108.3288528313428
 20
19.10129954336178
 30
0.0
 11
108.9294875615727
 21
15.30904110560659
 31
0.0
  0
LINE
  5
172
330
1F
100
AcDbEntity
  8
0
100
AcDbLine
 10
108.9294875615727
 20
15.30904110560659
 30
0.0
 11
109.39740849051
 21
11.49813095944132
 31
0.0
  0
LINE
  5
173
330
1F
100
AcDbEntity
  8
0
100
AcDbLine
 10
109.39740849051
 20
11.49813095944132
 30
0.0
 11
109.7320455285806
 21
7.673212111853147
 31
0.0
  0
LINE
  5
174
330
1F
100
AcDbEntity
  8
0
100
AcDbLine
 10
109.7320455285805
 20
-7.673212111854331
 30
0.0
 11
109.3974084905099
 21
-11.49813095944248
 31
0.0
  0
LINE
  5
175
330
1F
100
AcDbEntity
  8
0
100
AcDbLine
 10
109.3974084905099
 20
-11.49813095944248
 30
0.0
 11
108.9294875615725
 21
-15.30904110560776
 31
0.0
  0
LINE
  5
176
330
1F
100
AcDbEntity
  8
0
100
AcDbLine
 10
108.9294875615725
 20
-15.30904110560776
 30
0.0
 11
108.3288528313426
 21
-19.10129954336294
 31
0.0
  0
LINE
  5
177
330
1F
100
AcDbEntity
  8
0
100
AcDbLine
 10
108.3288528313426
 20
-19.10129954336294
 30
0.0
 11
107.5962360807184
 21
-22.87028598995408
 31
0.0
  0
LINE
  5
178
330
1F
100
AcDbEntity
  8
0
100
AcDbLine
 10
107.5962360807184
 20
-22.87028598995408
 30
0.0
 11
106.7325298903593
 21
-26.61140851596407
 31
0.0
  0
LINE
  5
179
330
1F
100
AcDbEntity
  8
0
100
AcDbLine
 10
106.7325298903593
 20
-26.61140851596407
 30
0.0
 11
105.7387865532148
 21
-30.32010913987048
 31
0.0
  0
LINE
  5
17A
330
1F
100
AcDbEntity
  8
0
100
AcDbLine
 10
105.7387865532148
 20
-30.32010913987048
 30
0.0
 11
104.6162167924666
 21
-33.99186938124473
 31
0.0
  0
LINE
  5
17B
330
1F
100
AcDbEntity
  8
0
100
AcDbLine
 10
104.6162167924666
 20
-33.99186938124473
 30
0.0
 11
103.3661882864496
 21
-37.62221576582412
 31
0.0
  0
LINE
  5
17C
330
1F
100
AcDbEntity
  8
0
100
AcDbLine
 10
103.3661882864496
 20
-37.62221576582412
 30
0.0
 11
101.9902240023463
 21
-41.20672527575083
 31
0.0
  0
LINE
  5
17D
330
1F
100
AcDbEntity
  8
0
100
AcDbLine
 10
101.9902240023463
 20
-41.20672527575083
 30
0.0
 11
100.4900003406858
 21
-44.74103073833859
 31
0.0
  0
LINE
  5
17E
330
1F
100
AcDbEntity
  8
0
100
AcDbLine
 10
100.4900003406858
 20
-44.74103073833859
 30
0.0
 11
98.86734509290801
 21
-48.22082614679903
 31
0.0
  0
LINE
  5
17F
330
1F
100
AcDbEntity
  8
0
100
AcDbLine
 10
98.86734509290801
 20
-48.22082614679903
 30
0.0
 11
97.12423521448157
 21
-51.64187190644855
 31
0.0
  0
LINE
  5
180
330
1F
100
AcDbEntity
  8
0
100
AcDbLine
 10
97.12423521448157
 20
-51.64187190644855
 30
0.0
 11
95.26279441628787
 21
-55.0000000000005
 31
0.0
  0
LINE
  5
181
330
1F
100
AcDbEntity
  8
0
100
AcDbLine
 10
95.26279441628787
 20
-55.0000000000005
 30
0.0
 11
93.28529057720642
 21
-58.29111906565308
 31
0.0
  0
LINE
  5
182
330
1F
100
AcDbEntity
  8
0
100
AcDbLine
 10
93.28529057720642
 20
-58.29111906565308
 30
0.0
 11
91.19413298105418
 21
-61.51121938178265
 31
0.0
  0
LINE
  5
183
330
1F
100
AcDbEntity
  8
0
100
AcDbLine
 10
91.19413298105418
 20
-61.51121938178265
 30
0.0
 11
88.99186938124382
 21
-64.65637775217249
 31
0.0
  0
LINE
  5
184
330
1F
100
AcDbEntity
  8
0
100
AcDbLine
 10
88.99186938124382
 20
-64.65637775217249
 30
0.0
 11
86.68118289673895
 21
-67.72276228582288
 31
0.0
  0
LINE
  5
185
330
1F
100
AcDbEntity
  8
0
100
AcDbLine
 10
86.68118289673895
 20
-67.72276228582288
 30
0.0
 11
84.26488874308714
 21
-70.70663706551977
 31
0.0
  0
LINE
  5
186
330
1F
100
AcDbEntity
  8
0
100
AcDbLine
 10
84.26488874308714
 20
-70.70663706551977
 30
0.0
 11
81.74593080251289
 21
-73.60436669947488
 31
0.0
  0
LINE
  5
187
330
1F
100
AcDbEntity
  8
0
100
AcDbLine
 10
81.74593080251289
 20
-73.60436669947488
 30
0.0
 11
79.12737803725115
 21
-76.41242075049013
 31
0.0
  0
LINE
  5
188
330
1F
100
AcDbEntity
  8
0
100
AcDbLine
 10
79.12737803725115
 20
-76.41242075049013
 30
0.0
 11
76.41242075048918
 21
-79.12737803725207
 31
0.0
  0
LINE
  5
189
330
1F
100
AcDbEntity
  8
0
100
AcDbLine
 10
76.41242075048918
 20
-79.12737803725207
 30
0.0
 11
73.6043666994739
 21
-81.74593080251377
 31
0.0
  0
LINE
  5
18A
330
1F
100
AcDbEntity
  8
0
100
AcDbLine
 10
73.6043666994739
 20
-81.74593080251377
 30
0.0
 11
70.70663706551875
 21
-84.26488874308802
 31
0.0
  0
LINE
  5
18B
330
1F
100
AcDbEntity
  8
0
100
AcDbLine
 10
70.70663706551875
 20
-84.26488874308802
 30
0.0
 11
67.72276228582187
 21
-86.6811828967398
 31
0.0
  0
LINE
  5
18C
330
1F
100
AcDbEntity
  8
0
100
AcDbLine
 10
67.72276228582187
 20
-86.6811828967398
 30
0.0
 11
64.65637775217154
 21
-88.99186938124456
 31
0.0
  0
LINE
  5
18D
330
1F
100
AcDbEntity
  8
0
100
AcDbLine
 10
64.65637775217154
 20
-88.99186938124456
 30
0.0
 11
61.51121938178159
 21
-91.19413298105496
 31
0.0
  0
LINE
  5
18E
330
1F
100
AcDbEntity
  8
0
100
AcDbLine
 10
61.51121938178159
 20
-91.19413298105496
 30
0.0
 11
58.291119065652
 21
-93.28529057720718
 31
0.0
  0
LINE
  5
18F
330
1F
100
AcDbEntity
  8
0
100
AcDbLine
 10
58.291119065652
 20
-93.28529057720718
 30
0.0
 11
54.9999999999994
 21
-95.26279441628859
 31
0.0
  0
LINE
  5
190
330
1F
100
AcDbEntity
  8
0
100
AcDbLine
 10
54.9999999999994
 20
-95.26279441628859
 30
0.0
 11
51.64187190644743
 21
-97.12423521448227
 31
0.0
  0
LINE
  5
191
330
1F
100
AcDbEntity
  8
0
100
AcDbLine
 10
51.64187190644743
 20
-97.12423521448227
 30
0.0
 11
48.22082614679789
 21
-98.86734509290868
 31
0.0
  0
LINE
  5
192
330
1F
100
AcDbEntity
  8
0
100
AcDbLine
 10
48.22082614679789
 20
-98.86734509290868
 30
0.0
 11
44.74103073833742
 21
-100.4900003406864
 31
0.0
  0
LINE
  5
193
330
1F
100
AcDbEntity
  8
0
100
AcDbLine
 10
44.74103073833742
 20
-100.4900003406864
 30
0.0
 11
41.20672527574966
 21
-101.9902240023469
 31
0.0
  0
LINE
  5
194
330
1F
100
AcDbEntity
  8
0
100
AcDbLine
 10
41.20672527574966
 20
-101.9902240023469
 30
0.0
 11
37.62221576582294
 21
-103.3661882864502
 31
0.0
  0
LINE
  5
195
330
1F
100
AcDbEntity
  8
0
100
AcDbLine
 10
37.62221576582294
 20
-103.3661882864502
 30
0.0
 11
33.99186938124365
 21
-104.6162167924671
 31
0.0
  0
LINE
  5
196
330
1F
100
AcDbEntity
  8
0
100
AcDbLine
 10
33.99186938124365
 20
-104.6162167924671
 30
0.0
 11
30.32010913986927
 21
-105.7387865532153
 31
0.0
  0
LINE
  5
197
330
1F
100
AcDbEntity
  8
0
100
AcDbLine
 10
30.32010913986927
 20
-105.7387865532153
 30
0.0
 11
26.61140851596285
 21
-106.7325298903598
 31
0.0
  0
LINE
  5
198
330
1F
100
AcDbEntity
  8
0
100
AcDbLine
 10
26.61140851596285
 20
-106.7325298903598
 30
0.0
 11
22.87028598995287
 21
-107.5962360807188
 31
0.0
  0
LINE
  5
199
330
1F
100
AcDbEntity
  8
0
100
AcDbLine
 10
22.87028598995287
 20
-107.5962360807188
 30
0.0
 11
19.10129954336172
 21
-108.328852831343
 31
0.0
  0
LINE
  5
19A
330
1F
100
AcDbEntity
  8
0
100
AcDbLine
 10
19.10129954336172
 20
-108.328852831343
 30
0.0
 11
15.30904110560652
 21
-108.9294875615729
 31
0.0
  0
LINE
  5
19B
330
1F
100
AcDbEntity
  8
0
100
AcDbLine
 10
15.30904110560652
 20
-108.9294875615729
 30
0.0
 11
11.49813095944123
 21
-109.3974084905102
 31
0.0
  0
LINE
  5
19C
330
1F
100
AcDbEntity
  8
0
100
AcDbLine
 10
-7.673212111854443
 20
-109.7320455285807
 30
0.0
 11
-6.000000000000124
 21
-111.0000000000007
 31
0.0
  0
LINE
  5
19D
330
1F
100
AcDbEntity
  8
0
100
AcDbLine
 10
7.673212111853124
 20
-109.7320455285808
 30
0.0
 11
5.999999999999853
 21
-110.9999999999978
 31
0.0
  0
LINE
  5
19E
330
1F
100
AcDbEntity
  8
0
100
AcDbLine
 10
109.7320455285805
 20
-7.673212111854331
 30
0.0
 11
111.0000000000007
 21
-6.000000000000136
 31
0.0
  0
LINE
  5
19F
330
1F
100
AcDbEntity
  8
0
100
AcDbLine
 10
109.7320455285806
 20
7.673212111853147
 30
0.0
 11
110.9999999999978
 21
5.999999999999831
 31
0.0
  0
LINE
  5
1A0
330
1F
100
AcDbEntity
  8
0
100
AcDbLine
 10
7.673212111854184
 20
109.7320455285805
 30
0.0
 11
6.000000000000215
 21
111.0000000000007
 31
0.0
  0
LINE
  5
1A1
330
1F
100
AcDbEntity
  8
0
100
AcDbLine
 10
-7.673212111853394
 20
109.7320455285806
 30
0.0
 11
-5.999999999999764
 21
110.9999999999978
 31
0.0
  0
LINE
  5
1A2
330
1F
100
AcDbEntity
  8
0
100
AcDbLine
 10
-109.7320455285809
 20
-7.673212111853327
 30
0.0
 11
-110.9999999999978
 21
-5.999999999999808
 31
0.0
  0
LINE
  5
1A3
330
1F
100
AcDbEntity
  8
0
100
AcDbLine
 10
-109.7320455285808
 20
7.673212111854229
 30
0.0
 11
-111.0000000000007
 21
6.00000000000017
 31
0.0
  0
LINE
  5
1A4
330
1F
100
AcDbEntity
  8
0
100
AcDbLine
 10
1.893964214598071
 20
-110.3574273941237
 30
0.0
 11
1.663118920685825
 21
-109.8891285152375
 31
0.0
  0
LINE
  5
1A5
330
1F
100
AcDbEntity
  8
0
100
AcDbLine
 10
-1.50346630776343
 20
-109.6810651792363
 30
0.0
 11
-1.793602386486487
 21
-110.1151325075515
 31
0.0
  0
LINE
  5
1A6
330
1F
100
AcDbEntity
  8
0
100
AcDbLine
 10
-1.893964214597992
 20
110.3574273941237
 30
0.0
 11
-1.663118920685746
 21
109.8891285152375
 31
0.0
  0
LINE
  5
1A7
330
1F
100
AcDbEntity
  8
0
100
AcDbLine
 10
1.503466307763509
 20
109.6810651792363
 30
0.0
 11
1.793602386486577
 21
110.1151325075515
 31
0.0
  0
LINE
  5
1A8
330
1F
100
AcDbEntity
  8
0
100
AcDbLine
 10
-110.3574273941237
 20
-1.893964214598038
 30
0.0
 11
-109.8891285152375
 21
-1.663118920685791
 31
0.0
  0
LINE
  5
1A9
330
1F
100
AcDbEntity
  8
0
100
AcDbLine
 10
-109.6810651792363
 20
1.503466307763464
 30
0.0
 11
-110.1151325075515
 21
1.793602386486532
 31
0.0
  0
LINE
  5
1AA
330
1F
100
AcDbEntity
  8
0
100
AcDbLine
 10
110.3574273941237
 20
1.893964214598071
 30
0.0
 11
109.8891285152375
 21
1.663118920685825
 31
0.0
  0
LINE
  5
1AB
330
1F
100
AcDbEntity
  8
0
100
AcDbLine
 10
109.6810651792363
 20
-1.50346630776343
 30
0.0
 11
110.1151325075515
 21
-1.793602386486498
 31
0.0
  0
LINE
  5
1AC
330
1F
100
AcDbEntity
  8
0
 62
   250
100
AcDbLine
 10
-27.44555861678839
 20
13.5613348459425
 30
0.0
 11
-98.61793868603186
 21
48.72886382133377
 31
0.0
  0
LINE
  5
1AD
330
1F
100
AcDbEntity
  8
0
 62
   250
100
AcDbLine
 10
-27.44555861678839
 20
13.5613348459425
 30
0.0
 11
-23.57089151794768
 21
13.5613348459425
 31
0.0
  0
LINE
  5
1AE
330
1F
100
AcDbEntity
  8
0
 62
   250
100
AcDbLine
 10
-109.0679227258823
 20
-0.5167953239348574
 30
0.0
 11
-112.9320772741162
 21
0.5167953239352184
 31
0.0
  0
LINE
  5
1AF
330
1F
100
AcDbEntity
  8
0
 62
   250
100
AcDbLine
 10
-86.85712079901266
 20
-6.457778498067836
 30
0.0
 11
-109.0679227258823
 21
-0.5167953239348566
 31
0.0
  0
LINE
  5
1B0
330
1F
100
AcDbEntity
  8
0
 62
   250
100
AcDbLine
 10
-86.85712079901266
 20
-6.457778498067836
 30
0.0
 11
-82.98245370017194
 21
-6.457778498067836
 31
0.0
  0
LINE
  5
1B1
330
1F
100
AcDbEntity
  8
0
 62
   250
100
AcDbLine
 10
-117.3701242023833
 20
10.65533452181191
 30
0.0
 11
-114.0787697294004
 21
5.149871547264516
 31
0.0
  0
LINE
  5
1B2
330
1F
100
AcDbEntity
  8
0
 62
   250
100
AcDbLine
 10
-117.3701242023833
 20
10.65533452181191
 30
0.0
 11
-121.244791301224
 21
10.65533452181191
 31
0.0
  0
ENDSEC
  0
SECTION
  2
OBJECTS
  0
DICTIONARY
  5
C
330
0
100
AcDbDictionary
  3
ACAD_GROUP
350
D
  3
ACAD_LAYOUT
350
1A
  3
ACAD_MATERIAL
350
43
  3
ACAD_MLEADERSTYLE
350
6B
  3
ACAD_MLINESTYLE
350
17
  3
ACAD_PLOTSETTINGS
350
19
  3
ACAD_SCALELIST
350
47
  3
ACAD_VISUALSTYLE
350
2A
  3
ACDBHEADERROUNDTRIPXREC
350
1B5
  3
ACDBVARIABLEDICTIONARY
350
1D6
  0
DICTIONARY
  5
1DD
330
8
100
AcDbDictionary
280
     1
  3
ACAD_XREC_ROUNDTRIP
360
1DE
  0
DICTIONARY
  5
D
102
{ACAD_REACTORS
330
C
102
}
330
C
100
AcDbDictionary
  0
DICTIONARY
  5
1A
102
{ACAD_REACTORS
330
C
102
}
330
C
100
AcDbDictionary
  0
DICTIONARY
  5
43
102
{ACAD_REACTORS
330
C
102
}
330
C
100
AcDbDictionary
  3
BYBLOCK
350
45
  3
BYLAYER
350
44
  3
GLOBAL
350
46
  0
DICTIONARY
  5
6B
102
{ACAD_REACTORS
330
C
102
}
330
C
100
AcDbDictionary
  3
STANDARD
350
6C
  0
DICTIONARY
  5
17
102
{ACAD_REACTORS
330
C
102
}
330
C
100
AcDbDictionary
  3
STANDARD
350
18
  0
DICTIONARY
  5
19
102
{ACAD_REACTORS
330
C
102
}
330
C
100
AcDbDictionary
  0
DICTIONARY
  5
47
102
{ACAD_REACTORS
330
C
102
}
330
C
100
AcDbDictionary
  3
A0
350
48
  3
A1
350
49
  3
A2
350
4A
  3
A3
350
4B
  3
A4
350
4C
  3
A5
350
4D
  3
A6
350
4E
  3
A7
350
4F
  3
A8
350
50
  3
A9
350
51
  3
B0
350
52
  3
B1
350
53
  3
B2
350
54
  3
B3
350
55
  3
B4
350
56
  3
B5
350
57
  3
B6
350
58
  3
B7
350
59
  3
B8
350
5A
  3
B9
350
5B
  3
C0
350
5C
  3
C1
350
5D
  3
C2
350
5E
  3
C3
350
5F
  3
C4
350
60
  3
C5
350
61
  3
C6
350
62
  3
C7
350
63
  3
C8
350
64
  3
C9
350
65
  3
D0
350
66
  3
D1
350
67
  3
D2
350
68
  0
DICTIONARY
  5
2A
102
{ACAD_REACTORS
330
C
102
}
330
C
100
AcDbDictionary
  3
2DWIREFRAME
350
2F
  3
BASIC
350
32
  3
BRIGHTEN
350
36
  3
COLORCHANGE
350
3A
  3
CONCEPTUAL
350
34
  3
DIM
350
35
  3
EDGECOLOROFF
350
3D
  3
FACEPATTERN
350
39
  3
FLAT
350
2B
  3
FLATWITHEDGES
350
2C
  3
GOURAUD
350
2D
  3
GOURAUDWITHEDGES
350
2E
  3
HIDDEN
350
31
  3
JITTEROFF
350
3B
  3
LINEPATTERN
350
38
  3
OVERHANGOFF
350
3C
  3
REALISTIC
350
33
  3
SHADED
350
42
  3
SHADED_WITH_EDGES
350
41
  3
SHADES_OF_GRAY
350
3E
  3
SKETCHY
350
3F
  3
THICKEN
350
37
  3
WIREFRAME
350
30
  3
X-RAY
350
40
  0
DICTIONARY
  5
1B5
102
{ACAD_REACTORS
330
C
102
}
330
C
100
AcDbDictionary
  3
CEPSNID
350
1BF
  3
CEPSNTYPE
350
1BE
  3
DIMSTYLEDATA
350
1D5
  3
FINGERPRINTGUID
350
1C0
  3
HYPERLINKBASE
350
1B8
  3
INSUNITS
350
1BD
  3
LAYOUTDICT
350
1BA
  3
LWETCUNION
350
1BC
  3
PLOTSETDICT
350
1BB
  3
PSVPSCALE
350
1C2
  3
PUCSBASE
350
1C5
  3
PUCSORGBACK
350
1CB
  3
PUCSORGBOTTOM
350
1C7
  3
PUCSORGFRONT
350
1CA
  3
PUCSORGLEFT
350
1C8
  3
PUCSORGRIGHT
350
1C9
  3
PUCSORGTOP
350
1C6
  3
PUCSORTHOREF
350
1C3
  3
PUCSORTHOVIEW
350
1C4
  3
STYLESHEET
350
1B9
  3
TSTACKALIGN
350
1B6
  3
TSTACKSIZE
350
1B7
  3
UCSBASE
350
1CE
  3
UCSORGBACK
350
1D4
  3
UCSORGBOTTOM
350
1D0
  3
UCSORGFRONT
350
1D3
  3
UCSORGLEFT
350
1D1
  3
UCSORGRIGHT
350
1D2
  3
UCSORGTOP
350
1CF
  3
UCSORTHOREF
350
1CC
  3
UCSORTHOVIEW
350
1CD
  3
VERSIONGUID
350
1C1
  0
DICTIONARY
  5
1D6
102
{ACAD_REACTORS
330
C
102
}
330
C
100
AcDbDictionary
  3
CANNOSCALE
350
1DF
  3
CMLEADERSTYLE
350
1D8
  3
CTABLESTYLE
350
1D7
  3
DIMASSOC
350
1DB
  3
HIDETEXT
350
1DC
  3
MSLTSCALE
350
1E0
  0
XRECORD
  5
1DE
102
{ACAD_REACTORS
330
1DD
102
}
330
1DD
100
AcDbXrecord
102
VTR_0.000_0.000_1.000_1.000_VISUALSTYLE
340
2F
102
VTR_0.000_0.000_1.000_1.000_GRIDDISPLAY
 70
     3
102
VTR_0.000_0.000_1.000_1.000_GRIDMAJOR
 70
     5
102
VTR_0.000_0.000_1.000_1.000_DEFAULTLIGHTING
280
     1
102
VTR_0.000_0.000_1.000_1.000_DEFAULTLIGHTINGTYPE
 70
     1
102
VTR_0.000_0.000_1.000_1.000_BRIGHTNESS
141
0.0
102
VTR_0.000_0.000_1.000_1.000_CONTRAST
142
0.0
  0
MATERIAL
  5
45
102
{ACAD_REACTORS
330
43
102
}
102
{ACAD_XDICTIONARY
360
1E3
102
}
330
43
100
AcDbMaterial
  1
BYBLOCK
  0
MATERIAL
  5
44
102
{ACAD_REACTORS
330
43
102
}
102
{ACAD_XDICTIONARY
360
1E1
102
}
330
43
100
AcDbMaterial
  1
BYLAYER
  0
MATERIAL
  5
46
102
{ACAD_REACTORS
330
43
102
}
102
{ACAD_XDICTIONARY
360
1E5
102
}
330
43
100
AcDbMaterial
  1
GLOBAL
  0
ACAD_PROXY_OBJECT
  5
6C
102
{ACAD_REACTORS
330
6B
102
}
330
6B
100
AcDbProxyObject
 90
      499
 91
      505
 93
      610
310
40901902A4063FBFFFFFE056BD1B81E855B9FC0AD7A3703D0AD73F4214DD185B99185C9900AD7A3703D0AC73F90141901A02B5E8DC0F42B1CFC02B5E8DC0F42B1CFE5764000000000000300FC0
340
14
340
0
340
11
340
0
 94
        0
1001
ACAD_MLEADERVER
1070
     2
  0
MLINESTYLE
  5
18
102
{ACAD_REACTORS
330
17
102
}
330
17
100
AcDbMlineStyle
  2
Standard
 70
     0
  3

 62
   256
 51
90.0
 52
90.0
 71
     2
 49
0.5
 62
   256
  6
BYLAYER
 49
-0.5
 62
   256
  6
BYLAYER
  0
ACAD_PROXY_OBJECT
  5
48
102
{ACAD_REACTORS
330
47
102
}
330
47
100
AcDbProxyObject
 90
      499
 91
      503
 93
       41
310
903313A31580
  0
ACAD_PROXY_OBJECT
  5
49
102
{ACAD_REACTORS
330
47
102
}
330
47
100
AcDbProxyObject
 90
      499
 91
      503
 93
      105
310
903313A324000000000000004000
  0
ACAD_PROXY_OBJECT
  5
4A
102
{ACAD_REACTORS
330
47
102
}
330
47
100
AcDbProxyObject
 90
      499
 91
      503
 93
      105
310
903313A344000000000000104000
  0
ACAD_PROXY_OBJECT
  5
4B
102
{ACAD_REACTORS
330
47
102
}
330
47
100
AcDbProxyObject
 90
      499
 91
      503
 93
      105
310
903313A354000000000000144000
  0
ACAD_PROXY_OBJECT
  5
4C
102
{ACAD_REACTORS
330
47
102
}
330
47
100
AcDbProxyObject
 90
      499
 91
      503
 93
      105
310
903313A384000000000000204000
  0
ACAD_PROXY_OBJECT
  5
4D
102
{ACAD_REACTORS
330
47
102
}
330
47
100
AcDbProxyObject
 90
      499
 91
      503
 93
      113
310
904313A31304000000000000244000
  0
ACAD_PROXY_OBJECT
  5
4E
102
{ACAD_REACTORS
330
47
102
}
330
47
100
AcDbProxyObject
 90
      499
 91
      503
 93
      113
310
904313A31364000000000000304000
  0
ACAD_PROXY_OBJECT
  5
4F
102
{ACAD_REACTORS
330
47
102
}
330
47
100
AcDbProxyObject
 90
      499
 91
      503
 93
      113
310
904313A32304000000000000344000
  0
ACAD_PROXY_OBJECT
  5
50
102
{ACAD_REACTORS
330
47
102
}
330
47
100
AcDbProxyObject
 90
      499
 91
      503
 93
      113
310
904313A333040000000000003E4000
  0
ACAD_PROXY_OBJECT
  5
51
102
{ACAD_REACTORS
330
47
102
}
330
47
100
AcDbProxyObject
 90
      499
 91
      503
 93
      113
310
904313A34304000000000000444000
  0
ACAD_PROXY_OBJECT
  5
52
102
{ACAD_REACTORS
330
47
102
}
330
47
100
AcDbProxyObject
 90
      499
 91
      503
 93
      113
310
904313A35304000000000000494000
  0
ACAD_PROXY_OBJECT
  5
53
102
{ACAD_REACTORS
330
47
102
}
330
47
100
AcDbProxyObject
 90
      499
 91
      503
 93
      121
310
905313A3130304000000000000594000
  0
ACAD_PROXY_OBJECT
  5
54
102
{ACAD_REACTORS
330
47
102
}
330
47
100
AcDbProxyObject
 90
      499
 91
      503
 93
      105
310
903323A310000000000000010100
  0
ACAD_PROXY_OBJECT
  5
55
102
{ACAD_REACTORS
330
47
102
}
330
47
100
AcDbProxyObject
 90
      499
 91
      503
 93
      105
310
903343A310000000000000410100
  0
ACAD_PROXY_OBJECT
  5
56
102
{ACAD_REACTORS
330
47
102
}
330
47
100
AcDbProxyObject
 90
      499
 91
      503
 93
      105
310
903383A310000000000000810100
  0
ACAD_PROXY_OBJECT
  5
57
102
{ACAD_REACTORS
330
47
102
}
330
47
100
AcDbProxyObject
 90
      499
 91
      503
 93
      113
310
90431303A310000000000000910100
  0
ACAD_PROXY_OBJECT
  5
58
102
{ACAD_REACTORS
330
47
102
}
330
47
100
AcDbProxyObject
 90
      499
 91
      503
 93
      121
310
9053130303A310000000000001650100
  0
ACAD_PROXY_OBJECT
  5
59
102
{ACAD_REACTORS
330
47
102
}
330
47
100
AcDbProxyObject
 90
      499
 91
      503
 93
      257
310
90E312F31323822203D2031272D3022000000000000200FC000000000000284000
  0
ACAD_PROXY_OBJECT
  5
5A
102
{ACAD_REACTORS
330
47
102
}
330
47
100
AcDbProxyObject
 90
      499
 91
      503
 93
      249
310
90D312F363422203D2031272D3022000000000000240FC000000000000284000
  0
ACAD_PROXY_OBJECT
  5
5B
102
{ACAD_REACTORS
330
47
102
}
330
47
100
AcDbProxyObject
 90
      499
 91
      503
 93
      249
310
90D312F333222203D2031272D3022000000000000280FC000000000000284000
  0
ACAD_PROXY_OBJECT
  5
5C
102
{ACAD_REACTORS
330
47
102
}
330
47
100
AcDbProxyObject
 90
      499
 91
      503
 93
      249
310
90D312F313622203D2031272D30220000000000002C0FC000000000000284000
  0
ACAD_PROXY_OBJECT
  5
5D
102
{ACAD_REACTORS
330
47
102
}
330
47
100
AcDbProxyObject
 90
      499
 91
      503
 93
      249
310
90D332F333222203D2031272D30220000000000002E0FC000000000000284000
  0
ACAD_PROXY_OBJECT
  5
5E
102
{ACAD_REACTORS
330
47
102
}
330
47
100
AcDbProxyObject
 90
      499
 91
      503
 93
      241
310
90C312F3822203D2031272D3022000000000000300FC000000000000284000
  0
ACAD_PROXY_OBJECT
  5
5F
102
{ACAD_REACTORS
330
47
102
}
330
47
100
AcDbProxyObject
 90
      499
 91
      503
 93
      249
310
90D332F313622203D2031272D3022000000000000320FC000000000000284000
  0
ACAD_PROXY_OBJECT
  5
60
102
{ACAD_REACTORS
330
47
102
}
330
47
100
AcDbProxyObject
 90
      499
 91
      503
 93
      241
310
90C312F3422203D2031272D3022000000000000340FC000000000000284000
  0
ACAD_PROXY_OBJECT
  5
61
102
{ACAD_REACTORS
330
47
102
}
330
47
100
AcDbProxyObject
 90
      499
 91
      503
 93
      241
310
90C332F3822203D2031272D3022000000000000360FC000000000000284000
  0
ACAD_PROXY_OBJECT
  5
62
102
{ACAD_REACTORS
330
47
102
}
330
47
100
AcDbProxyObject
 90
      499
 91
      503
 93
      241
310
90C312F3222203D2031272D3022000000000000380FC000000000000284000
  0
ACAD_PROXY_OBJECT
  5
63
102
{ACAD_REACTORS
330
47
102
}
330
47
100
AcDbProxyObject
 90
      499
 91
      503
 93
      241
310
90C332F3422203D2031272D30220000000000003A0FC000000000000284000
  0
ACAD_PROXY_OBJECT
  5
64
102
{ACAD_REACTORS
330
47
102
}
330
47
100
AcDbProxyObject
 90
      499
 91
      503
 93
      161
310
90A3122203D2031272D30224000000000000284000
  0
ACAD_PROXY_OBJECT
  5
65
102
{ACAD_REACTORS
330
47
102
}
330
47
100
AcDbProxyObject
 90
      499
 91
      503
 93
      257
310
90E312D312F3222203D2031272D30220000000000003E0FC000000000000284000
  0
ACAD_PROXY_OBJECT
  5
66
102
{ACAD_REACTORS
330
47
102
}
330
47
100
AcDbProxyObject
 90
      499
 91
      503
 93
      225
310
90A3322203D2031272D302200000000000002100000000000000284000
  0
ACAD_PROXY_OBJECT
  5
67
102
{ACAD_REACTORS
330
47
102
}
330
47
100
AcDbProxyObject
 90
      499
 91
      503
 93
      225
310
90A3622203D2031272D302200000000000006100000000000000284000
  0
ACAD_PROXY_OBJECT
  5
68
102
{ACAD_REACTORS
330
47
102
}
330
47
100
AcDbProxyObject
 90
      499
 91
      503
 93
      249
310
90D31272D3022203D2031272D30220000000000000A100000000000000284000
  0
ACAD_PROXY_OBJECT
  5
2F
102
{ACAD_REACTORS
330
2A
102
}
330
2A
100
AcDbProxyObject
 90
      499
 91
      501
 93
      436
310
42CC9915DA5C99599C985B595049028333333333333E33F0000000000000F90107901411070040501600405405064090741402480A0340
1001
ACAD
1000
AcDbSavedByObjectVersion
1070
     0
  0
ACAD_PROXY_OBJECT
  5
32
102
{ACAD_REACTORS
330
2A
102
}
330
2A
100
AcDbProxyObject
 90
      499
 91
      501
 93
      388
310
4150985CDA58D07406404333333333333E33F0000000000000F90107A41107004050150841D405064090741402480A0350
1001
ACAD
1000
AcDbSavedByObjectVersion
1070
     0
  0
ACAD_PROXY_OBJECT
  5
36
102
{ACAD_REACTORS
330
2A
102
}
330
2A
100
AcDbProxyObject
 90
      499
 91
      501
 93
      428
310
42109C9A59DA1D195B90C409028333333333333E33F0000000000000F9010790141107004050150841D405064090741402480A029950
1001
ACAD
1000
AcDbSavedByObjectVersion
1070
     0
  0
ACAD_PROXY_OBJECT
  5
3A
102
{ACAD_REACTORS
330
2A
102
}
330
2A
100
AcDbProxyObject
 90
      499
 91
      501
 93
      452
310
42D0DBDB1BDC90DA185B99D95104090240C333333333333E33F0000000000000F90108901411070040501508421405064090741402480A0350
1001
ACAD
1000
AcDbSavedByObjectVersion
1070
     0
  0
ACAD_PROXY_OBJECT
  5
34
102
{ACAD_REACTORS
330
2A
102
}
330
2A
100
AcDbProxyObject
 90
      499
 91
      501
 93
      500
310
4290DBDB98D95C1D1D585B10940D028333333333333E33F0000000000000F90107902409070040501000000000018199010841D405064090740C02480A0340
1001
ACAD
1000
AcDbSavedByObjectVersion
1070
     0
  0
ACAD_PROXY_OBJECT
  5
35
102
{ACAD_REACTORS
330
2A
102
}
330
2A
100
AcDbProxyObject
 90
      499
 91
      501
 93
      412
310
40D11A5B50B409028333333333333E33F0000000000000F9010790141107004050150841D405064090741402480A02677FFFFFD0
1001
ACAD
1000
AcDbSavedByObjectVersion
1070
     0
  0
ACAD_PROXY_OBJECT
  5
3D
102
{ACAD_REACTORS
330
2A
102
}
330
2A
100
AcDbProxyObject
 90
      499
 91
      501
 93
      452
310
43115919D950DBDB1BDC93D999916409028333333333333E33F0000000000000F9010790141107004050150841D405064090741402480A0350
1001
ACAD
1000
AcDbSavedByObjectVersion
1070
     0
  0
ACAD_PROXY_OBJECT
  5
39
102
{ACAD_REACTORS
330
2A
102
}
330
2A
100
AcDbProxyObject
 90
      499
 91
      501
 93
      444
310
42D19858D95C185D1D195C9B90F409028333333333333E33F0000000000000F9010790141107004050150841D405064090741402480A0350
1001
ACAD
1000
AcDbSavedByObjectVersion
1070
     0
  0
ACAD_PROXY_OBJECT
  5
2B
102
{ACAD_REACTORS
330
2A
102
}
330
2A
100
AcDbProxyObject
 90
      499
 91
      501
 93
      380
310
41119B185D240901404333333333333E33F0000000000000F9010740A907004050150841D405064090741402480A1B50
1001
ACAD
1000
AcDbSavedByObjectVersion
1070
     0
  0
ACAD_PROXY_OBJECT
  5
2C
102
{ACAD_REACTORS
330
2A
102
}
330
2A
100
AcDbProxyObject
 90
      499
 91
      501
 93
      468
310
43519B185D15DA5D1A115919D95CD0140901404333333333333E33F0000000000000F90107409019070040501600405405064090741402480A1B50
1001
ACAD
1000
AcDbSavedByObjectVersion
1070
     0
  0
ACAD_PROXY_OBJECT
  5
2D
102
{ACAD_REACTORS
330
2A
102
}
330
2A
100
AcDbProxyObject
 90
      499
 91
      501
 93
      404
310
41D1DBDD5C985D5910240902404333333333333E33F0000000000000F9010740A9070040501641D405064090741402480A1B50
1001
ACAD
1000
AcDbSavedByObjectVersion
1070
     0
  0
ACAD_PROXY_OBJECT
  5
2E
102
{ACAD_REACTORS
330
2A
102
}
330
2A
100
AcDbProxyObject
 90
      499
 91
      501
 93
      492
310
4411DBDD5C985D5915DA5D1A115919D95CD0340902404333333333333E33F0000000000000F90107409019070040501600405405064090741402480A1B50
1001
ACAD
1000
AcDbSavedByObjectVersion
1070
     0
  0
ACAD_PROXY_OBJECT
  5
31
102
{ACAD_REACTORS
330
2A
102
}
330
2A
100
AcDbProxyObject
 90
      499
 91
      501
 93
      476
310
41921A5919195B90640502408333333333333E33F0000000000000F901079024090700405020000000000001110200405405064090740C02480A0340
1001
ACAD
1000
AcDbSavedByObjectVersion
1070
     0
  0
ACAD_PROXY_OBJECT
  5
3B
102
{ACAD_REACTORS
330
2A
102
}
330
2A
100
AcDbProxyObject
 90
      499
 91
      501
 93
      428
310
42529A5D1D195C93D999914409028333333333333E33F0000000000000F9010790141107004050150A41D405064090741402480A0350
1001
ACAD
1000
AcDbSavedByObjectVersion
1070
     0
  0
ACAD_PROXY_OBJECT
  5
38
102
{ACAD_REACTORS
330
2A
102
}
330
2A
100
AcDbProxyObject
 90
      499
 91
      501
 93
      444
310
42D31A5B995C185D1D195C9B90E409028333333333333E33F0000000000000F9010790141107004050750841D405064090741402483A0350
1001
ACAD
1000
AcDbSavedByObjectVersion
1070
     0
  0
ACAD_PROXY_OBJECT
  5
3C
102
{ACAD_REACTORS
330
2A
102
}
330
2A
100
AcDbProxyObject
 90
      499
 91
      501
 93
      444
310
42D3DD995C9A185B99D3D999915409028333333333333E33F0000000000000F9010790141107004050150941D405064090741402480A0350
1001
ACAD
1000
AcDbSavedByObjectVersion
1070
     0
  0
ACAD_PROXY_OBJECT
  5
33
102
{ACAD_REACTORS
330
2A
102
}
330
2A
100
AcDbProxyObject
 90
      499
 91
      501
 93
      428
310
425499585B1A5CDD1A58D08409038333333333333E33F0000000000000F9010740A907004050150800405405064090740C02480A1B40
1001
ACAD
1000
AcDbSavedByObjectVersion
1070
     0
  0
ACAD_PROXY_OBJECT
  5
42
102
{ACAD_REACTORS
330
2A
102
}
330
2A
100
AcDbProxyObject
 90
      499
 91
      501
 93
      420
310
4194DA1859195911B40902404333333333333E33F0000000000000F9010740A41107004050150800405405064090840C02480A0B40
1001
ACAD
1000
AcDbSavedByObjectVersion
1070
     0
  0
ACAD_PROXY_OBJECT
  5
41
102
{ACAD_REACTORS
330
2A
102
}
330
2A
100
AcDbProxyObject
 90
      499
 91
      501
 93
      516
310
4454DA18591959081DDA5D1A08195919D95CD1A40902404333333333333E33F0000000000000F901074090142907004050250800405405064090740C02480A0B40
1001
ACAD
1000
AcDbSavedByObjectVersion
1070
     0
  0
ACAD_PROXY_OBJECT
  5
3E
102
{ACAD_REACTORS
330
2A
102
}
330
2A
100
AcDbProxyObject
 90
      499
 91
      501
 93
      532
310
4394DA1859195CC81BD98811DC985E5174090240C333333333333E33F0000000000000F901079024090741D01000000000000111010841D405064090740C02480A0340
1001
ACAD
1000
AcDbSavedByObjectVersion
1070
     0
  0
ACAD_PROXY_OBJECT
  5
3F
102
{ACAD_REACTORS
330
2A
102
}
330
2A
100
AcDbProxyObject
 90
      499
 91
      501
 93
      476
310
41D4DAD95D18DA1E51840502408333333333333E33F0000000000000F901079024090741D01000000000000111010B41D405064090741802480A0340
1001
ACAD
1000
AcDbSavedByObjectVersion
1070
     0
  0
ACAD_PROXY_OBJECT
  5
37
102
{ACAD_REACTORS
330
2A
102
}
330
2A
100
AcDbProxyObject
 90
      499
 91
      501
 93
      412
310
41D51A1A58DAD95B90D409028333333333333E33F0000000000000F9010790141107004050150C41D405064090741402480A0350
1001
ACAD
1000
AcDbSavedByObjectVersion
1070
     0
  0
ACAD_PROXY_OBJECT
  5
30
102
{ACAD_REACTORS
330
2A
102
}
330
2A
100
AcDbProxyObject
 90
      499
 91
      501
 93
      420
310
4255DA5C99599C985B595059028333333333333E33F0000000000000F90107901411070040501600405405064090740C02480A0340
1001
ACAD
1000
AcDbSavedByObjectVersion
1070
     0
  0
ACAD_PROXY_OBJECT
  5
40
102
{ACAD_REACTORS
330
2A
102
}
330
2A
100
AcDbProxyObject
 90
      499
 91
      501
 93
      404
310
41560B54985E51940902404000000000000E03F0000000000000F9010740501907004050150841D405064090740C02480A1B40
1001
ACAD
1000
AcDbSavedByObjectVersion
1070
     0
  0
XRECORD
  5
1BF
102
{ACAD_REACTORS
330
1B5
102
}
330
1B5
100
AcDbXrecord
340
0
  0
XRECORD
  5
1BE
102
{ACAD_REACTORS
330
1B5
102
}
330
1B5
100
AcDbXrecord
 90
        0
  0
XRECORD
  5
1D5
102
{ACAD_REACTORS
330
1B5
102
}
330
1B5
100
AcDbXrecord
1000
DSTYLE
1002
{
1070
   171
 70
     2
1070
   143
 40
25.4
1070
   274
 70
     2
1070
    41
 40
0.18
1070
   141
 40
0.09
1070
   271
 70
     4
1070
    43
 40
0.38
1070
   278
 70
    46
1070
    44
 40
0.18
1070
    42
 40
0.0625
1070
   147
 40
0.09
1070
    77
 70
     0
1070
   272
 70
     4
1070
    73
 70
     1
1070
   172
 70
     0
1070
    74
 70
     1
1070
   283
 70
     1
1070
   340
340
11
1070
   140
 40
0.18
1070
   284
 70
     0
1070
    78
 70
     0
1002
}
  0
XRECORD
  5
1C0
102
{ACAD_REACTORS
330
1B5
102
}
330
1B5
100
AcDbXrecord
  1
{083a6a34-4449-4aff-8e6e-bf608e933cc8}
  0
XRECORD
  5
1B8
102
{ACAD_REACTORS
330
1B5
102
}
330
1B5
100
AcDbXrecord
  1

  0
XRECORD
  5
1BD
102
{ACAD_REACTORS
330
1B5
102
}
330
1B5
100
AcDbXrecord
 90
        4
  0
XRECORD
  5
1BA
102
{ACAD_REACTORS
330
1B5
102
}
330
1B5
100
AcDbXrecord
340
1A
  0
XRECORD
  5
1BC
102
{ACAD_REACTORS
330
1B5
102
}
330
1B5
100
AcDbXrecord
 90
    10781
  0
XRECORD
  5
1BB
102
{ACAD_REACTORS
330
1B5
102
}
330
1B5
100
AcDbXrecord
340
19
  0
XRECORD
  5
1C2
102
{ACAD_REACTORS
330
1B5
102
}
330
1B5
100
AcDbXrecord
 40
0.0
  0
XRECORD
  5
1C5
102
{ACAD_REACTORS
330
1B5
102
}
330
1B5
100
AcDbXrecord
340
0
  0
XRECORD
  5
1CB
102
{ACAD_REACTORS
330
1B5
102
}
330
1B5
100
AcDbXrecord
 10
0.0
 20
0.0
 30
0.0
  0
XRECORD
  5
1C7
102
{ACAD_REACTORS
330
1B5
102
}
330
1B5
100
AcDbXrecord
 10
0.0
 20
0.0
 30
0.0
  0
XRECORD
  5
1CA
102
{ACAD_REACTORS
330
1B5
102
}
330
1B5
100
AcDbXrecord
 10
0.0
 20
0.0
 30
0.0
  0
XRECORD
  5
1C8
102
{ACAD_REACTORS
330
1B5
102
}
330
1B5
100
AcDbXrecord
 10
0.0
 20
0.0
 30
0.0
  0
XRECORD
  5
1C9
102
{ACAD_REACTORS
330
1B5
102
}
330
1B5
100
AcDbXrecord
 10
0.0
 20
0.0
 30
0.0
  0
XRECORD
  5
1C6
102
{ACAD_REACTORS
330
1B5
102
}
330
1B5
100
AcDbXrecord
 10
0.0
 20
0.0
 30
0.0
  0
XRECORD
  5
1C3
102
{ACAD_REACTORS
330
1B5
102
}
330
1B5
100
AcDbXrecord
340
0
  0
XRECORD
  5
1C4
102
{ACAD_REACTORS
330
1B5
102
}
330
1B5
100
AcDbXrecord
 70
     0
  0
XRECORD
  5
1B9
102
{ACAD_REACTORS
330
1B5
102
}
330
1B5
100
AcDbXrecord
  1

  0
XRECORD
  5
1B6
102
{ACAD_REACTORS
330
1B5
102
}
330
1B5
100
AcDbXrecord
 90
        1
  0
XRECORD
  5
1B7
102
{ACAD_REACTORS
330
1B5
102
}
330
1B5
100
AcDbXrecord
 90
       70
  0
XRECORD
  5
1CE
102
{ACAD_REACTORS
330
1B5
102
}
330
1B5
100
AcDbXrecord
340
0
  0
XRECORD
  5
1D4
102
{ACAD_REACTORS
330
1B5
102
}
330
1B5
100
AcDbXrecord
 10
0.0
 20
0.0
 30
0.0
  0
XRECORD
  5
1D0
102
{ACAD_REACTORS
330
1B5
102
}
330
1B5
100
AcDbXrecord
 10
0.0
 20
0.0
 30
0.0
  0
XRECORD
  5
1D3
102
{ACAD_REACTORS
330
1B5
102
}
330
1B5
100
AcDbXrecord
 10
0.0
 20
0.0
 30
0.0
  0
XRECORD
  5
1D1
102
{ACAD_REACTORS
330
1B5
102
}
330
1B5
100
AcDbXrecord
 10
0.0
 20
0.0
 30
0.0
  0
XRECORD
  5
1D2
102
{ACAD_REACTORS
330
1B5
102
}
330
1B5
100
AcDbXrecord
 10
0.0
 20
0.0
 30
0.0
  0
XRECORD
  5
1CF
102
{ACAD_REACTORS
330
1B5
102
}
330
1B5
100
AcDbXrecord
 10
0.0
 20
0.0
 30
0.0
  0
XRECORD
  5
1CC
102
{ACAD_REACTORS
330
1B5
102
}
330
1B5
100
AcDbXrecord
340
0
  0
XRECORD
  5
1CD
102
{ACAD_REACTORS
330
1B5
102
}
330
1B5
100
AcDbXrecord
 70
     0
  0
XRECORD
  5
1C1
102
{ACAD_REACTORS
330
1B5
102
}
330
1B5
100
AcDbXrecord
  1
{FAEB1C32-E019-11D5-929B-00C0DF256EC4}
  0
DICTIONARYVAR
  5
1DF
102
{ACAD_REACTORS
330
1D6
102
}
330
1D6
100
DictionaryVariables
280
     0
  1
1:1
  0
DICTIONARYVAR
  5
1D8
102
{ACAD_REACTORS
330
1D6
102
}
330
1D6
100
DictionaryVariables
280
     0
  1
Standard
  0
DICTIONARYVAR
  5
1D7
102
{ACAD_REACTORS
330
1D6
102
}
330
1D6
100
DictionaryVariables
280
     0
  1
Standard
  0
DICTIONARYVAR
  5
1DB
102
{ACAD_REACTORS
330
1D6
102
}
330
1D6
100
DictionaryVariables
280
     0
  1
2
  0
DICTIONARYVAR
  5
1DC
102
{ACAD_REACTORS
330
1D6
102
}
330
1D6
100
DictionaryVariables
280
     0
  1
1
  0
DICTIONARYVAR
  5
1E0
102
{ACAD_REACTORS
330
1D6
102
}
330
1D6
100
DictionaryVariables
280
     0
  1
1
  0
DICTIONARY
  5
1E3
330
45
100
AcDbDictionary
280
     1
  3
ACAD_XREC_ROUNDTRIP
360
1E4
  0
DICTIONARY
  5
1E1
330
44
100
AcDbDictionary
280
     1
  3
ACAD_XREC_ROUNDTRIP
360
1E2
  0
DICTIONARY
  5
1E5
330
46
100
AcDbDictionary
280
     1
  3
ACAD_XREC_ROUNDTRIP
360
1E6
  0
XRECORD
  5
1E4
102
{ACAD_REACTORS
330
1E3
102
}
330
1E3
100
AcDbXrecord
102
MATERIAL
148
0.0
149
0.0
149
0.0
 93
        0
 94
      127
282
     0
 72
     1
 77
     1
171
     1
175
     1
179
     1
273
     0
  0
XRECORD
  5
1E2
102
{ACAD_REACTORS
330
1E1
102
}
330
1E1
100
AcDbXrecord
102
MATERIAL
148
0.0
149
0.0
149
0.0
 93
        0
 94
      127
282
     0
 72
     1
 77
     1
171
     1
175
     1
179
     1
273
     0
  0
XRECORD
  5
1E6
102
{ACAD_REACTORS
330
1E5
102
}
330
1E5
100
AcDbXrecord
102
MATERIAL
148
0.0
149
0.0
149
0.0
 93
        0
 94
      127
282
     0
 72
     1
 77
     1
171
     1
175
     1
179
     1
273
     0
  0
ENDSEC
  0
EOF
