ISO-10303-21;
HEADER;
FILE_DESCRIPTION (( 'STEP AP214' ),
    '1' );
FILE_NAME ('Corps moulage2.STEP',
    '2021-02-19T16:18:05',
    ( '' ),
    ( '' ),
    'SwSTEP 2.0',
    'SolidWorks 2020',
    '' );
FILE_SCHEMA (( 'AUTOMOTIVE_DESIGN' ));
ENDSEC;

DATA;
#1 = DIRECTION ( 'NONE',  ( 1.000000000000000000, 0.000000000000000000, 0.000000000000000000 ) ) ;
#2 = CARTESIAN_POINT ( 'NONE',  ( 0.000000000000000000, 0.000000000000000000, 0.000000000000000000 ) ) ;
#3 = AXIS2_PLACEMENT_3D ( 'NONE', #127, #60, #166 ) ;
#4 = SURFACE_STYLE_USAGE ( .BOTH. , #204 ) ;
#5 = DIRECTION ( 'NONE',  ( 1.000000000000000000, 0.000000000000000000, 0.000000000000000000 ) ) ;
#6 = EDGE_LOOP ( 'NONE', ( #160, #54, #194, #214 ) ) ;
#7 = CARTESIAN_POINT ( 'NONE',  ( 32.50000000000000000, 3.980102097228898626E-15, 220.0000000000000000 ) ) ;
#8 = EDGE_CURVE ( 'NONE', #150, #114, #161, .T. ) ;
#9 = PRODUCT_DEFINITION_SHAPE ( 'NONE', 'NONE',  #73 ) ;
#10 = PRODUCT_RELATED_PRODUCT_CATEGORY ( 'part', '', ( #78 ) ) ;
#11 = CARTESIAN_POINT ( 'NONE',  ( -32.50000000000000000, 0.000000000000000000, 0.000000000000000000 ) ) ;
#12 = ORIENTED_EDGE ( 'NONE', *, *, #46, .T. ) ;
#13 = CARTESIAN_POINT ( 'NONE',  ( -25.64999999999999858, 3.141219039812960652E-15, 0.000000000000000000 ) ) ;
#14 = CARTESIAN_POINT ( 'NONE',  ( 0.000000000000000000, 0.000000000000000000, 0.000000000000000000 ) ) ;
#15 = COLOUR_RGB ( '',0.8980392156862745390, 0.9176470588235293713, 0.9294117647058823817 ) ;
#16 = EDGE_CURVE ( 'NONE', #134, #114, #70, .T. ) ;
#17 = VECTOR ( 'NONE', #116, 1000.000000000000000 ) ;
#18 = CARTESIAN_POINT ( 'NONE',  ( 0.000000000000000000, 0.000000000000000000, 0.000000000000000000 ) ) ;
#19 = MANIFOLD_SOLID_BREP ( 'Cut-Extrude2', #49 ) ;
#20 = ORIENTED_EDGE ( 'NONE', *, *, #8, .T. ) ;
#21 = PLANE ( 'NONE',  #104 ) ;
#22 = DIRECTION ( 'NONE',  ( -0.000000000000000000, -0.000000000000000000, -1.000000000000000000 ) ) ;
#23 = DIRECTION ( 'NONE',  ( 1.000000000000000000, 0.000000000000000000, 0.000000000000000000 ) ) ;
#24 = ORIENTED_EDGE ( 'NONE', *, *, #31, .F. ) ;
#25 = EDGE_LOOP ( 'NONE', ( #131, #58 ) ) ;
#26 = VERTEX_POINT ( 'NONE', #13 ) ;
#27 = ADVANCED_FACE ( 'NONE', ( #151, #175 ), #163, .F. ) ;
#28 = AXIS2_PLACEMENT_3D ( 'NONE', #14, #180, #84 ) ;
#29 = CARTESIAN_POINT ( 'NONE',  ( 0.000000000000000000, 0.000000000000000000, 220.0000000000000000 ) ) ;
#30 = CARTESIAN_POINT ( 'NONE',  ( 25.64999999999999858, 0.000000000000000000, 0.000000000000000000 ) ) ;
#31 = EDGE_CURVE ( 'NONE', #150, #26, #53, .T. ) ;
#32 = CARTESIAN_POINT ( 'NONE',  ( 32.50000000000000000, 3.980102097228898626E-15, 0.000000000000000000 ) ) ;
#33 = APPLICATION_PROTOCOL_DEFINITION ( 'draft international standard', 'automotive_design', 1998, #162 ) ;
#34 = DIRECTION ( 'NONE',  ( 0.000000000000000000, 0.000000000000000000, 1.000000000000000000 ) ) ;
#35 = FILL_AREA_STYLE ('',( #202 ) ) ;
#36 = ORIENTED_EDGE ( 'NONE', *, *, #16, .T. ) ;
#37 = DIRECTION ( 'NONE',  ( 1.000000000000000000, 0.000000000000000000, 0.000000000000000000 ) ) ;
#38 = SURFACE_STYLE_USAGE ( .BOTH. , #189 ) ;
#39 = CARTESIAN_POINT ( 'NONE',  ( 0.000000000000000000, 0.000000000000000000, 220.0000000000000000 ) ) ;
#40 = CARTESIAN_POINT ( 'NONE',  ( 0.000000000000000000, 0.000000000000000000, 0.000000000000000000 ) ) ;
#41 = VERTEX_POINT ( 'NONE', #11 ) ;
#42 = ORIENTED_EDGE ( 'NONE', *, *, #132, .F. ) ;
#43 = FILL_AREA_STYLE ('',( #177 ) ) ;
#44 = PRODUCT_DEFINITION_CONTEXT ( 'detailed design', #69, 'design' ) ;
#45 = DIRECTION ( 'NONE',  ( -0.000000000000000000, -0.000000000000000000, -1.000000000000000000 ) ) ;
#46 = EDGE_CURVE ( 'NONE', #164, #41, #208, .T. ) ;
#47 = VECTOR ( 'NONE', #142, 1000.000000000000000 ) ;
#48 = DIRECTION ( 'NONE',  ( -0.000000000000000000, -0.000000000000000000, -1.000000000000000000 ) ) ;
#49 = CLOSED_SHELL ( 'NONE', ( #68, #203, #154, #213, #27, #143 ) ) ;
#50 = DIRECTION ( 'NONE',  ( 1.000000000000000000, 0.000000000000000000, 0.000000000000000000 ) ) ;
#51 = AXIS2_PLACEMENT_3D ( 'NONE', #39, #22, #124 ) ;
#52 = EDGE_CURVE ( 'NONE', #26, #150, #186, .T. ) ;
#53 = CIRCLE ( 'NONE', #165, 25.64999999999999858 ) ;
#54 = ORIENTED_EDGE ( 'NONE', *, *, #138, .F. ) ;
#55 =( NAMED_UNIT ( * ) SI_UNIT ( $, .STERADIAN. ) SOLID_ANGLE_UNIT ( ) );
#56 = SURFACE_STYLE_FILL_AREA ( #43 ) ;
#57 =( NAMED_UNIT ( * ) PLANE_ANGLE_UNIT ( ) SI_UNIT ( $, .RADIAN. ) );
#58 = ORIENTED_EDGE ( 'NONE', *, *, #132, .T. ) ;
#59 = AXIS2_PLACEMENT_3D ( 'NONE', #2, #199, #50 ) ;
#60 = DIRECTION ( 'NONE',  ( 0.000000000000000000, 0.000000000000000000, 1.000000000000000000 ) ) ;
#61 = ORIENTED_EDGE ( 'NONE', *, *, #94, .T. ) ;
#62 = PRESENTATION_STYLE_ASSIGNMENT (( #38 ) ) ;
#63 = ORIENTED_EDGE ( 'NONE', *, *, #94, .F. ) ;
#64 = CARTESIAN_POINT ( 'NONE',  ( 0.000000000000000000, 0.000000000000000000, 220.0000000000000000 ) ) ;
#65 = CARTESIAN_POINT ( 'NONE',  ( -32.50000000000000000, 0.000000000000000000, 220.0000000000000000 ) ) ;
#66 = CYLINDRICAL_SURFACE ( 'NONE', #92, 32.50000000000000000 ) ;
#67 = UNCERTAINTY_MEASURE_WITH_UNIT (LENGTH_MEASURE( 1.000000000000000082E-05 ), #110, 'distance_accuracy_value', 'NONE');
#68 = ADVANCED_FACE ( 'NONE', ( #81 ), #129, .F. ) ;
#69 = APPLICATION_CONTEXT ( 'automotive_design' ) ;
#70 = CIRCLE ( 'NONE', #122, 25.64999999999999858 ) ;
#71 = DIRECTION ( 'NONE',  ( 1.000000000000000000, 0.000000000000000000, 0.000000000000000000 ) ) ;
#72 = CYLINDRICAL_SURFACE ( 'NONE', #51, 32.50000000000000000 ) ;
#73 = PRODUCT_DEFINITION ( 'UNKNOWN', '', #88, #44 ) ;
#74 = LINE ( 'NONE', #7, #47 ) ;
#75 = SURFACE_STYLE_FILL_AREA ( #35 ) ;
#76 =( LENGTH_UNIT ( ) NAMED_UNIT ( * ) SI_UNIT ( .MILLI., .METRE. ) );
#77 = VERTEX_POINT ( 'NONE', #115 ) ;
#78 = PRODUCT ( 'Corps moulage2', 'Corps moulage2', '', ( #169 ) ) ;
#79 = CARTESIAN_POINT ( 'NONE',  ( 0.000000000000000000, 0.000000000000000000, 0.000000000000000000 ) ) ;
#80 = EDGE_LOOP ( 'NONE', ( #210, #61, #36, #141 ) ) ;
#81 = FACE_OUTER_BOUND ( 'NONE', #80, .T. ) ;
#82 =( GEOMETRIC_REPRESENTATION_CONTEXT ( 3 ) GLOBAL_UNCERTAINTY_ASSIGNED_CONTEXT ( ( #85 ) ) GLOBAL_UNIT_ASSIGNED_CONTEXT ( ( #193, #83, #55 ) ) REPRESENTATION_CONTEXT ( 'NONE', 'WORKASPACE' ) );
#83 =( NAMED_UNIT ( * ) PLANE_ANGLE_UNIT ( ) SI_UNIT ( $, .RADIAN. ) );
#84 = DIRECTION ( 'NONE',  ( 1.000000000000000000, 0.000000000000000000, 0.000000000000000000 ) ) ;
#85 = UNCERTAINTY_MEASURE_WITH_UNIT (LENGTH_MEASURE( 1.000000000000000082E-05 ), #193, 'distance_accuracy_value', 'NONE');
#86 = DIRECTION ( 'NONE',  ( 0.000000000000000000, 0.000000000000000000, 1.000000000000000000 ) ) ;
#87 = CARTESIAN_POINT ( 'NONE',  ( 25.64999999999999858, 0.000000000000000000, 220.0000000000000000 ) ) ;
#88 = PRODUCT_DEFINITION_FORMATION_WITH_SPECIFIED_SOURCE ( 'ANY', '', #78, .NOT_KNOWN. ) ;
#89 = COLOUR_RGB ( '',0.8980392156862745390, 0.9176470588235293713, 0.9294117647058823817 ) ;
#90 = ADVANCED_BREP_SHAPE_REPRESENTATION ( 'Corps moulage2', ( #19, #100 ), #113 ) ;
#91 = APPLICATION_PROTOCOL_DEFINITION ( 'draft international standard', 'automotive_design', 1998, #69 ) ;
#92 = AXIS2_PLACEMENT_3D ( 'NONE', #184, #48, #119 ) ;
#93 = SHAPE_DEFINITION_REPRESENTATION ( #9, #90 ) ;
#94 = EDGE_CURVE ( 'NONE', #26, #134, #105, .T. ) ;
#95 = ORIENTED_EDGE ( 'NONE', *, *, #16, .F. ) ;
#96 = DIRECTION ( 'NONE',  ( 0.000000000000000000, 0.000000000000000000, 1.000000000000000000 ) ) ;
#97 = EDGE_LOOP ( 'NONE', ( #63, #24, #20, #117 ) ) ;
#98 = EDGE_LOOP ( 'NONE', ( #42, #135, #12, #205 ) ) ;
#99 = EDGE_CURVE ( 'NONE', #41, #164, #155, .T. ) ;
#100 = AXIS2_PLACEMENT_3D ( 'NONE', #18, #168, #71 ) ;
#101 = AXIS2_PLACEMENT_3D ( 'NONE', #209, #173, #23 ) ;
#102 = DIRECTION ( 'NONE',  ( -0.000000000000000000, -0.000000000000000000, 1.000000000000000000 ) ) ;
#103 = CARTESIAN_POINT ( 'NONE',  ( -25.64999999999999858, 3.141219039812960652E-15, 0.000000000000000000 ) ) ;
#104 = AXIS2_PLACEMENT_3D ( 'NONE', #145, #34, #108 ) ;
#105 = LINE ( 'NONE', #103, #118 ) ;
#106 = AXIS2_PLACEMENT_3D ( 'NONE', #181, #195, #1 ) ;
#107 = EDGE_CURVE ( 'NONE', #77, #41, #153, .T. ) ;
#108 = DIRECTION ( 'NONE',  ( 1.000000000000000000, 0.000000000000000000, -0.000000000000000000 ) ) ;
#109 = MECHANICAL_DESIGN_GEOMETRIC_PRESENTATION_REPRESENTATION (  '', ( #149 ), #82 ) ;
#110 =( LENGTH_UNIT ( ) NAMED_UNIT ( * ) SI_UNIT ( .MILLI., .METRE. ) );
#111 = VERTEX_POINT ( 'NONE', #120 ) ;
#112 =( NAMED_UNIT ( * ) PLANE_ANGLE_UNIT ( ) SI_UNIT ( $, .RADIAN. ) );
#113 =( GEOMETRIC_REPRESENTATION_CONTEXT ( 3 ) GLOBAL_UNCERTAINTY_ASSIGNED_CONTEXT ( ( #67 ) ) GLOBAL_UNIT_ASSIGNED_CONTEXT ( ( #110, #57, #123 ) ) REPRESENTATION_CONTEXT ( 'NONE', 'WORKASPACE' ) );
#114 = VERTEX_POINT ( 'NONE', #87 ) ;
#115 = CARTESIAN_POINT ( 'NONE',  ( -32.50000000000000000, 0.000000000000000000, 220.0000000000000000 ) ) ;
#116 = DIRECTION ( 'NONE',  ( -0.000000000000000000, -0.000000000000000000, 1.000000000000000000 ) ) ;
#117 = ORIENTED_EDGE ( 'NONE', *, *, #170, .T. ) ;
#118 = VECTOR ( 'NONE', #102, 1000.000000000000000 ) ;
#119 = DIRECTION ( 'NONE',  ( -1.000000000000000000, 0.000000000000000000, 0.000000000000000000 ) ) ;
#120 = CARTESIAN_POINT ( 'NONE',  ( 32.50000000000000000, 3.980102097228898626E-15, 220.0000000000000000 ) ) ;
#121 = CIRCLE ( 'NONE', #106, 32.50000000000000000 ) ;
#122 = AXIS2_PLACEMENT_3D ( 'NONE', #172, #158, #5 ) ;
#123 =( NAMED_UNIT ( * ) SI_UNIT ( $, .STERADIAN. ) SOLID_ANGLE_UNIT ( ) );
#124 = DIRECTION ( 'NONE',  ( -1.000000000000000000, 0.000000000000000000, 0.000000000000000000 ) ) ;
#125 = AXIS2_PLACEMENT_3D ( 'NONE', #178, #96, #146 ) ;
#126 = EDGE_LOOP ( 'NONE', ( #148, #95 ) ) ;
#127 = CARTESIAN_POINT ( 'NONE',  ( 0.000000000000000000, 0.000000000000000000, 0.000000000000000000 ) ) ;
#128 = ORIENTED_EDGE ( 'NONE', *, *, #52, .T. ) ;
#129 = CYLINDRICAL_SURFACE ( 'NONE', #179, 25.64999999999999858 ) ;
#130 = CIRCLE ( 'NONE', #211, 32.50000000000000000 ) ;
#131 = ORIENTED_EDGE ( 'NONE', *, *, #138, .T. ) ;
#132 = EDGE_CURVE ( 'NONE', #111, #77, #130, .T. ) ;
#133 = DIRECTION ( 'NONE',  ( -0.000000000000000000, -0.000000000000000000, 1.000000000000000000 ) ) ;
#134 = VERTEX_POINT ( 'NONE', #152 ) ;
#135 = ORIENTED_EDGE ( 'NONE', *, *, #201, .T. ) ;
#136 = FACE_OUTER_BOUND ( 'NONE', #6, .T. ) ;
#137 = DIRECTION ( 'NONE',  ( 0.000000000000000000, 0.000000000000000000, 1.000000000000000000 ) ) ;
#138 = EDGE_CURVE ( 'NONE', #77, #111, #121, .T. ) ;
#139 = DIRECTION ( 'NONE',  ( 1.000000000000000000, 0.000000000000000000, 0.000000000000000000 ) ) ;
#140 = PRESENTATION_LAYER_ASSIGNMENT (  '', '', ( #149 ) ) ;
#141 = ORIENTED_EDGE ( 'NONE', *, *, #8, .F. ) ;
#142 = DIRECTION ( 'NONE',  ( -0.000000000000000000, -0.000000000000000000, -1.000000000000000000 ) ) ;
#143 = ADVANCED_FACE ( 'NONE', ( #167 ), #183, .F. ) ;
#144 = ORIENTED_EDGE ( 'NONE', *, *, #31, .T. ) ;
#145 = CARTESIAN_POINT ( 'NONE',  ( 0.000000000000000000, 0.000000000000000000, 220.0000000000000000 ) ) ;
#146 = DIRECTION ( 'NONE',  ( 1.000000000000000000, 0.000000000000000000, 0.000000000000000000 ) ) ;
#147 = AXIS2_PLACEMENT_3D ( 'NONE', #64, #137, #197 ) ;
#148 = ORIENTED_EDGE ( 'NONE', *, *, #170, .F. ) ;
#149 = STYLED_ITEM ( 'NONE', ( #62 ), #19 ) ;
#150 = VERTEX_POINT ( 'NONE', #30 ) ;
#151 = FACE_BOUND ( 'NONE', #157, .T. ) ;
#152 = CARTESIAN_POINT ( 'NONE',  ( -25.64999999999999858, 3.141219039812960652E-15, 220.0000000000000000 ) ) ;
#153 = LINE ( 'NONE', #65, #190 ) ;
#154 = ADVANCED_FACE ( 'NONE', ( #136 ), #66, .T. ) ;
#155 = CIRCLE ( 'NONE', #28, 32.50000000000000000 ) ;
#156 = FACE_OUTER_BOUND ( 'NONE', #98, .T. ) ;
#157 = EDGE_LOOP ( 'NONE', ( #144, #128 ) ) ;
#158 = DIRECTION ( 'NONE',  ( 0.000000000000000000, 0.000000000000000000, 1.000000000000000000 ) ) ;
#159 =( GEOMETRIC_REPRESENTATION_CONTEXT ( 3 ) GLOBAL_UNCERTAINTY_ASSIGNED_CONTEXT ( ( #198 ) ) GLOBAL_UNIT_ASSIGNED_CONTEXT ( ( #76, #112, #174 ) ) REPRESENTATION_CONTEXT ( 'NONE', 'WORKASPACE' ) );
#160 = ORIENTED_EDGE ( 'NONE', *, *, #201, .F. ) ;
#161 = LINE ( 'NONE', #192, #17 ) ;
#162 = APPLICATION_CONTEXT ( 'automotive_design' ) ;
#163 = PLANE ( 'NONE',  #3 ) ;
#164 = VERTEX_POINT ( 'NONE', #32 ) ;
#165 = AXIS2_PLACEMENT_3D ( 'NONE', #79, #188, #37 ) ;
#166 = DIRECTION ( 'NONE',  ( 1.000000000000000000, 0.000000000000000000, -0.000000000000000000 ) ) ;
#167 = FACE_OUTER_BOUND ( 'NONE', #97, .T. ) ;
#168 = DIRECTION ( 'NONE',  ( 0.000000000000000000, 0.000000000000000000, 1.000000000000000000 ) ) ;
#169 = PRODUCT_CONTEXT ( 'NONE', #162, 'mechanical' ) ;
#170 = EDGE_CURVE ( 'NONE', #114, #134, #182, .T. ) ;
#171 = FACE_OUTER_BOUND ( 'NONE', #25, .T. ) ;
#172 = CARTESIAN_POINT ( 'NONE',  ( 0.000000000000000000, 0.000000000000000000, 220.0000000000000000 ) ) ;
#173 = DIRECTION ( 'NONE',  ( 0.000000000000000000, 0.000000000000000000, 1.000000000000000000 ) ) ;
#174 =( NAMED_UNIT ( * ) SI_UNIT ( $, .STERADIAN. ) SOLID_ANGLE_UNIT ( ) );
#175 = FACE_OUTER_BOUND ( 'NONE', #212, .T. ) ;
#176 = ORIENTED_EDGE ( 'NONE', *, *, #99, .F. ) ;
#177 = FILL_AREA_STYLE_COLOUR ( '', #89 ) ;
#178 = CARTESIAN_POINT ( 'NONE',  ( 0.000000000000000000, 0.000000000000000000, 0.000000000000000000 ) ) ;
#179 = AXIS2_PLACEMENT_3D ( 'NONE', #40, #133, #191 ) ;
#180 = DIRECTION ( 'NONE',  ( 0.000000000000000000, 0.000000000000000000, 1.000000000000000000 ) ) ;
#181 = CARTESIAN_POINT ( 'NONE',  ( 0.000000000000000000, 0.000000000000000000, 220.0000000000000000 ) ) ;
#182 = CIRCLE ( 'NONE', #147, 25.64999999999999858 ) ;
#183 = CYLINDRICAL_SURFACE ( 'NONE', #59, 25.64999999999999858 ) ;
#184 = CARTESIAN_POINT ( 'NONE',  ( 0.000000000000000000, 0.000000000000000000, 220.0000000000000000 ) ) ;
#185 = FACE_BOUND ( 'NONE', #126, .T. ) ;
#186 = CIRCLE ( 'NONE', #101, 25.64999999999999858 ) ;
#187 = ORIENTED_EDGE ( 'NONE', *, *, #46, .F. ) ;
#188 = DIRECTION ( 'NONE',  ( 0.000000000000000000, 0.000000000000000000, 1.000000000000000000 ) ) ;
#189 = SURFACE_SIDE_STYLE ('',( #56 ) ) ;
#190 = VECTOR ( 'NONE', #45, 1000.000000000000000 ) ;
#191 = DIRECTION ( 'NONE',  ( 1.000000000000000000, 0.000000000000000000, 0.000000000000000000 ) ) ;
#192 = CARTESIAN_POINT ( 'NONE',  ( 25.64999999999999858, 0.000000000000000000, 0.000000000000000000 ) ) ;
#193 =( LENGTH_UNIT ( ) NAMED_UNIT ( * ) SI_UNIT ( .MILLI., .METRE. ) );
#194 = ORIENTED_EDGE ( 'NONE', *, *, #107, .T. ) ;
#195 = DIRECTION ( 'NONE',  ( 0.000000000000000000, 0.000000000000000000, 1.000000000000000000 ) ) ;
#196 = PRESENTATION_LAYER_ASSIGNMENT (  '', '', ( #200 ) ) ;
#197 = DIRECTION ( 'NONE',  ( 1.000000000000000000, 0.000000000000000000, 0.000000000000000000 ) ) ;
#198 = UNCERTAINTY_MEASURE_WITH_UNIT (LENGTH_MEASURE( 1.000000000000000082E-05 ), #76, 'distance_accuracy_value', 'NONE');
#199 = DIRECTION ( 'NONE',  ( -0.000000000000000000, -0.000000000000000000, 1.000000000000000000 ) ) ;
#200 = STYLED_ITEM ( 'NONE', ( #206 ), #90 ) ;
#201 = EDGE_CURVE ( 'NONE', #111, #164, #74, .T. ) ;
#202 = FILL_AREA_STYLE_COLOUR ( '', #15 ) ;
#203 = ADVANCED_FACE ( 'NONE', ( #156 ), #72, .T. ) ;
#204 = SURFACE_SIDE_STYLE ('',( #75 ) ) ;
#205 = ORIENTED_EDGE ( 'NONE', *, *, #107, .F. ) ;
#206 = PRESENTATION_STYLE_ASSIGNMENT (( #4 ) ) ;
#207 = MECHANICAL_DESIGN_GEOMETRIC_PRESENTATION_REPRESENTATION (  '', ( #200 ), #159 ) ;
#208 = CIRCLE ( 'NONE', #125, 32.50000000000000000 ) ;
#209 = CARTESIAN_POINT ( 'NONE',  ( 0.000000000000000000, 0.000000000000000000, 0.000000000000000000 ) ) ;
#210 = ORIENTED_EDGE ( 'NONE', *, *, #52, .F. ) ;
#211 = AXIS2_PLACEMENT_3D ( 'NONE', #29, #86, #139 ) ;
#212 = EDGE_LOOP ( 'NONE', ( #176, #187 ) ) ;
#213 = ADVANCED_FACE ( 'NONE', ( #185, #171 ), #21, .T. ) ;
#214 = ORIENTED_EDGE ( 'NONE', *, *, #99, .T. ) ;
ENDSEC;
END-ISO-10303-21;
