ISO-10303-21;
HEADER;
FILE_DESCRIPTION(('CATIA V5 STEP Exchange'),'2;1');

FILE_NAME('Z:\\TECHDRIVE\\MOTEUR HD9\\STP\\PLAQUE MOTEUR HD9.stp','2021-02-16T09:11:02+00:00',('none'),('none'),'CATIA Version 5-6 Release 2019 SP3','CATIA V5 STEP AP203 v1','none');

FILE_SCHEMA(('CONFIG_CONTROL_DESIGN'));

ENDSEC;
DATA;
#5=PRODUCT('PLAQUE MOTEUR HD9','','',(#2)) ;
#1=APPLICATION_CONTEXT('configuration controlled 3D design of mechanical parts and assemblies') ;
#14=PRODUCT_DEFINITION('',' ',#6,#3) ;
#16=SECURITY_CLASSIFICATION(' ',' ',#15) ;
#15=SECURITY_CLASSIFICATION_LEVEL('unclassified') ;
#46=CARTESIAN_POINT(' ',(0.,0.,0.)) ;
#51=CARTESIAN_POINT('Axis2P3D Location',(-58.5,60.,0.)) ;
#56=CARTESIAN_POINT('Line Origine',(-58.5,60.,2.)) ;
#60=CARTESIAN_POINT('Vertex',(-58.5,60.,0.)) ;
#62=CARTESIAN_POINT('Vertex',(-58.5,60.,4.)) ;
#65=CARTESIAN_POINT('Line Origine',(-59.5,59.,0.)) ;
#69=CARTESIAN_POINT('Vertex',(-60.5,58.,0.)) ;
#72=CARTESIAN_POINT('Line Origine',(-60.5,58.,2.)) ;
#76=CARTESIAN_POINT('Vertex',(-60.5,58.,4.)) ;
#79=CARTESIAN_POINT('Line Origine',(-59.5,59.,4.)) ;
#91=CARTESIAN_POINT('Axis2P3D Location',(-60.5,-58.,0.)) ;
#96=CARTESIAN_POINT('Line Origine',(-60.5,0.,0.)) ;
#100=CARTESIAN_POINT('Vertex',(-60.5,-58.,0.)) ;
#103=CARTESIAN_POINT('Line Origine',(-60.5,-58.,2.)) ;
#107=CARTESIAN_POINT('Vertex',(-60.5,-58.,4.)) ;
#110=CARTESIAN_POINT('Line Origine',(-60.5,0.,4.)) ;
#122=CARTESIAN_POINT('Axis2P3D Location',(-58.5,-60.,0.)) ;
#127=CARTESIAN_POINT('Line Origine',(-59.5,-59.,0.)) ;
#131=CARTESIAN_POINT('Vertex',(-58.5,-60.,0.)) ;
#134=CARTESIAN_POINT('Line Origine',(-58.5,-60.,2.)) ;
#138=CARTESIAN_POINT('Vertex',(-58.5,-60.,4.)) ;
#141=CARTESIAN_POINT('Line Origine',(-59.5,-59.,4.)) ;
#153=CARTESIAN_POINT('Axis2P3D Location',(58.5,-60.,0.)) ;
#158=CARTESIAN_POINT('Line Origine',(-7.1054273576E-15,-60.,0.)) ;
#162=CARTESIAN_POINT('Vertex',(58.5,-60.,0.)) ;
#165=CARTESIAN_POINT('Line Origine',(58.5,-60.,2.)) ;
#169=CARTESIAN_POINT('Vertex',(58.5,-60.,4.)) ;
#172=CARTESIAN_POINT('Line Origine',(-7.1054273576E-15,-60.,4.)) ;
#184=CARTESIAN_POINT('Axis2P3D Location',(60.5,-58.,0.)) ;
#189=CARTESIAN_POINT('Line Origine',(59.5,-59.,0.)) ;
#193=CARTESIAN_POINT('Vertex',(60.5,-58.,0.)) ;
#196=CARTESIAN_POINT('Line Origine',(60.5,-58.,2.)) ;
#200=CARTESIAN_POINT('Vertex',(60.5,-58.,4.)) ;
#203=CARTESIAN_POINT('Line Origine',(59.5,-59.,4.)) ;
#215=CARTESIAN_POINT('Axis2P3D Location',(60.5,58.,0.)) ;
#220=CARTESIAN_POINT('Line Origine',(60.5,1.42108547152E-14,0.)) ;
#224=CARTESIAN_POINT('Vertex',(60.5,58.,0.)) ;
#227=CARTESIAN_POINT('Line Origine',(60.5,58.,2.)) ;
#231=CARTESIAN_POINT('Vertex',(60.5,58.,4.)) ;
#234=CARTESIAN_POINT('Line Origine',(60.5,1.42108547152E-14,4.)) ;
#246=CARTESIAN_POINT('Axis2P3D Location',(58.5,60.,0.)) ;
#251=CARTESIAN_POINT('Line Origine',(59.5,59.,0.)) ;
#255=CARTESIAN_POINT('Vertex',(58.5,60.,0.)) ;
#258=CARTESIAN_POINT('Line Origine',(58.5,60.,2.)) ;
#262=CARTESIAN_POINT('Vertex',(58.5,60.,4.)) ;
#265=CARTESIAN_POINT('Line Origine',(59.5,59.,4.)) ;
#277=CARTESIAN_POINT('Axis2P3D Location',(-58.5,60.,0.)) ;
#282=CARTESIAN_POINT('Line Origine',(7.1054273576E-15,60.,0.)) ;
#287=CARTESIAN_POINT('Line Origine',(7.1054273576E-15,60.,4.)) ;
#299=CARTESIAN_POINT('Axis2P3D Location',(-54.,54.,2.)) ;
#304=CARTESIAN_POINT('Axis2P3D Location',(-54.,54.,4.)) ;
#308=CARTESIAN_POINT('Vertex',(-54.,51.25,4.)) ;
#310=CARTESIAN_POINT('Vertex',(-54.,56.75,4.)) ;
#313=CARTESIAN_POINT('Line Origine',(-54.,56.75,2.)) ;
#317=CARTESIAN_POINT('Vertex',(-54.,56.75,0.)) ;
#320=CARTESIAN_POINT('Axis2P3D Location',(-54.,54.,0.)) ;
#324=CARTESIAN_POINT('Vertex',(-54.,51.25,0.)) ;
#327=CARTESIAN_POINT('Line Origine',(-54.,51.25,2.)) ;
#339=CARTESIAN_POINT('Axis2P3D Location',(-54.,54.,4.)) ;
#344=CARTESIAN_POINT('Axis2P3D Location',(-54.,54.,0.)) ;
#356=CARTESIAN_POINT('Axis2P3D Location',(-54.,-54.,2.)) ;
#361=CARTESIAN_POINT('Axis2P3D Location',(-54.,-54.,4.)) ;
#365=CARTESIAN_POINT('Vertex',(-54.,-56.75,4.)) ;
#367=CARTESIAN_POINT('Vertex',(-54.,-51.25,4.)) ;
#370=CARTESIAN_POINT('Line Origine',(-54.,-51.25,2.)) ;
#374=CARTESIAN_POINT('Vertex',(-54.,-51.25,0.)) ;
#377=CARTESIAN_POINT('Axis2P3D Location',(-54.,-54.,0.)) ;
#381=CARTESIAN_POINT('Vertex',(-54.,-56.75,0.)) ;
#384=CARTESIAN_POINT('Line Origine',(-54.,-56.75,2.)) ;
#396=CARTESIAN_POINT('Axis2P3D Location',(-54.,-54.,4.)) ;
#401=CARTESIAN_POINT('Axis2P3D Location',(-54.,-54.,0.)) ;
#413=CARTESIAN_POINT('Axis2P3D Location',(54.,-54.,2.)) ;
#418=CARTESIAN_POINT('Axis2P3D Location',(54.,-54.,4.)) ;
#422=CARTESIAN_POINT('Vertex',(54.,-56.75,4.)) ;
#424=CARTESIAN_POINT('Vertex',(54.,-51.25,4.)) ;
#427=CARTESIAN_POINT('Line Origine',(54.,-51.25,2.)) ;
#431=CARTESIAN_POINT('Vertex',(54.,-51.25,0.)) ;
#434=CARTESIAN_POINT('Axis2P3D Location',(54.,-54.,0.)) ;
#438=CARTESIAN_POINT('Vertex',(54.,-56.75,0.)) ;
#441=CARTESIAN_POINT('Line Origine',(54.,-56.75,2.)) ;
#453=CARTESIAN_POINT('Axis2P3D Location',(54.,-54.,4.)) ;
#458=CARTESIAN_POINT('Axis2P3D Location',(54.,-54.,0.)) ;
#470=CARTESIAN_POINT('Axis2P3D Location',(54.,54.,2.)) ;
#475=CARTESIAN_POINT('Axis2P3D Location',(54.,54.,4.)) ;
#479=CARTESIAN_POINT('Vertex',(54.,51.25,4.)) ;
#481=CARTESIAN_POINT('Vertex',(54.,56.75,4.)) ;
#484=CARTESIAN_POINT('Line Origine',(54.,56.75,2.)) ;
#488=CARTESIAN_POINT('Vertex',(54.,56.75,0.)) ;
#491=CARTESIAN_POINT('Axis2P3D Location',(54.,54.,0.)) ;
#495=CARTESIAN_POINT('Vertex',(54.,51.25,0.)) ;
#498=CARTESIAN_POINT('Line Origine',(54.,51.25,2.)) ;
#510=CARTESIAN_POINT('Axis2P3D Location',(54.,54.,4.)) ;
#515=CARTESIAN_POINT('Axis2P3D Location',(54.,54.,0.)) ;
#527=CARTESIAN_POINT('Axis2P3D Location',(0.,0.,0.)) ;
#559=CARTESIAN_POINT('Axis2P3D Location',(0.,0.,4.)) ;
#52=DIRECTION('Axis2P3D Direction',(-0.707106781187,0.707106781187,0.)) ;
#53=DIRECTION('Axis2P3D XDirection',(-0.707106781187,-0.707106781187,-0.)) ;
#57=DIRECTION('Vector Direction',(0.,0.,1.)) ;
#66=DIRECTION('Vector Direction',(-0.707106781187,-0.707106781187,0.)) ;
#73=DIRECTION('Vector Direction',(0.,0.,1.)) ;
#80=DIRECTION('Vector Direction',(-0.707106781187,-0.707106781187,0.)) ;
#92=DIRECTION('Axis2P3D Direction',(1.,0.,0.)) ;
#93=DIRECTION('Axis2P3D XDirection',(0.,1.,0.)) ;
#97=DIRECTION('Vector Direction',(0.,1.,0.)) ;
#104=DIRECTION('Vector Direction',(0.,0.,1.)) ;
#111=DIRECTION('Vector Direction',(0.,1.,0.)) ;
#123=DIRECTION('Axis2P3D Direction',(0.707106781187,0.707106781187,-0.)) ;
#124=DIRECTION('Axis2P3D XDirection',(-0.707106781187,0.707106781187,0.)) ;
#128=DIRECTION('Vector Direction',(-0.707106781187,0.707106781187,0.)) ;
#135=DIRECTION('Vector Direction',(0.,0.,1.)) ;
#142=DIRECTION('Vector Direction',(-0.707106781187,0.707106781187,0.)) ;
#154=DIRECTION('Axis2P3D Direction',(0.,1.,-0.)) ;
#155=DIRECTION('Axis2P3D XDirection',(-1.,0.,0.)) ;
#159=DIRECTION('Vector Direction',(-1.,0.,0.)) ;
#166=DIRECTION('Vector Direction',(0.,0.,1.)) ;
#173=DIRECTION('Vector Direction',(-1.,0.,0.)) ;
#185=DIRECTION('Axis2P3D Direction',(-0.707106781187,0.707106781187,0.)) ;
#186=DIRECTION('Axis2P3D XDirection',(-0.707106781187,-0.707106781187,-0.)) ;
#190=DIRECTION('Vector Direction',(-0.707106781187,-0.707106781187,0.)) ;
#197=DIRECTION('Vector Direction',(0.,0.,1.)) ;
#204=DIRECTION('Vector Direction',(-0.707106781187,-0.707106781187,0.)) ;
#216=DIRECTION('Axis2P3D Direction',(-1.,0.,0.)) ;
#217=DIRECTION('Axis2P3D XDirection',(-0.,-1.,-0.)) ;
#221=DIRECTION('Vector Direction',(0.,-1.,0.)) ;
#228=DIRECTION('Vector Direction',(0.,0.,1.)) ;
#235=DIRECTION('Vector Direction',(0.,-1.,0.)) ;
#247=DIRECTION('Axis2P3D Direction',(-0.707106781187,-0.707106781187,0.)) ;
#248=DIRECTION('Axis2P3D XDirection',(0.707106781187,-0.707106781187,0.)) ;
#252=DIRECTION('Vector Direction',(0.707106781187,-0.707106781187,0.)) ;
#259=DIRECTION('Vector Direction',(0.,0.,1.)) ;
#266=DIRECTION('Vector Direction',(0.707106781187,-0.707106781187,0.)) ;
#278=DIRECTION('Axis2P3D Direction',(0.,-1.,0.)) ;
#279=DIRECTION('Axis2P3D XDirection',(1.,0.,0.)) ;
#283=DIRECTION('Vector Direction',(1.,0.,0.)) ;
#288=DIRECTION('Vector Direction',(1.,0.,0.)) ;
#300=DIRECTION('Axis2P3D Direction',(0.,0.,1.)) ;
#301=DIRECTION('Axis2P3D XDirection',(0.,1.,0.)) ;
#305=DIRECTION('Axis2P3D Direction',(0.,0.,1.)) ;
#314=DIRECTION('Vector Direction',(0.,0.,1.)) ;
#321=DIRECTION('Axis2P3D Direction',(0.,0.,1.)) ;
#328=DIRECTION('Vector Direction',(0.,0.,1.)) ;
#340=DIRECTION('Axis2P3D Direction',(0.,0.,1.)) ;
#345=DIRECTION('Axis2P3D Direction',(0.,0.,1.)) ;
#357=DIRECTION('Axis2P3D Direction',(0.,0.,1.)) ;
#358=DIRECTION('Axis2P3D XDirection',(0.,1.,0.)) ;
#362=DIRECTION('Axis2P3D Direction',(0.,0.,1.)) ;
#371=DIRECTION('Vector Direction',(0.,0.,1.)) ;
#378=DIRECTION('Axis2P3D Direction',(0.,0.,1.)) ;
#385=DIRECTION('Vector Direction',(0.,0.,1.)) ;
#397=DIRECTION('Axis2P3D Direction',(0.,0.,1.)) ;
#402=DIRECTION('Axis2P3D Direction',(0.,0.,1.)) ;
#414=DIRECTION('Axis2P3D Direction',(0.,0.,1.)) ;
#415=DIRECTION('Axis2P3D XDirection',(0.,1.,0.)) ;
#419=DIRECTION('Axis2P3D Direction',(0.,0.,1.)) ;
#428=DIRECTION('Vector Direction',(0.,0.,1.)) ;
#435=DIRECTION('Axis2P3D Direction',(0.,0.,1.)) ;
#442=DIRECTION('Vector Direction',(0.,0.,1.)) ;
#454=DIRECTION('Axis2P3D Direction',(0.,0.,1.)) ;
#459=DIRECTION('Axis2P3D Direction',(0.,0.,1.)) ;
#471=DIRECTION('Axis2P3D Direction',(0.,0.,1.)) ;
#472=DIRECTION('Axis2P3D XDirection',(0.,1.,0.)) ;
#476=DIRECTION('Axis2P3D Direction',(0.,0.,1.)) ;
#485=DIRECTION('Vector Direction',(0.,0.,1.)) ;
#492=DIRECTION('Axis2P3D Direction',(0.,0.,1.)) ;
#499=DIRECTION('Vector Direction',(0.,0.,1.)) ;
#511=DIRECTION('Axis2P3D Direction',(0.,0.,1.)) ;
#516=DIRECTION('Axis2P3D Direction',(0.,0.,1.)) ;
#528=DIRECTION('Axis2P3D Direction',(0.,0.,1.)) ;
#529=DIRECTION('Axis2P3D XDirection',(0.,1.,0.)) ;
#560=DIRECTION('Axis2P3D Direction',(0.,0.,1.)) ;
#561=DIRECTION('Axis2P3D XDirection',(0.,1.,0.)) ;
#47=AXIS2_PLACEMENT_3D(' ',#46,$,$) ;
#54=AXIS2_PLACEMENT_3D('Plane Axis2P3D',#51,#52,#53) ;
#94=AXIS2_PLACEMENT_3D('Plane Axis2P3D',#91,#92,#93) ;
#125=AXIS2_PLACEMENT_3D('Plane Axis2P3D',#122,#123,#124) ;
#156=AXIS2_PLACEMENT_3D('Plane Axis2P3D',#153,#154,#155) ;
#187=AXIS2_PLACEMENT_3D('Plane Axis2P3D',#184,#185,#186) ;
#218=AXIS2_PLACEMENT_3D('Plane Axis2P3D',#215,#216,#217) ;
#249=AXIS2_PLACEMENT_3D('Plane Axis2P3D',#246,#247,#248) ;
#280=AXIS2_PLACEMENT_3D('Plane Axis2P3D',#277,#278,#279) ;
#302=AXIS2_PLACEMENT_3D('Cylinder Axis2P3D',#299,#300,#301) ;
#306=AXIS2_PLACEMENT_3D('Circle Axis2P3D',#304,#305,$) ;
#322=AXIS2_PLACEMENT_3D('Circle Axis2P3D',#320,#321,$) ;
#341=AXIS2_PLACEMENT_3D('Circle Axis2P3D',#339,#340,$) ;
#346=AXIS2_PLACEMENT_3D('Circle Axis2P3D',#344,#345,$) ;
#359=AXIS2_PLACEMENT_3D('Cylinder Axis2P3D',#356,#357,#358) ;
#363=AXIS2_PLACEMENT_3D('Circle Axis2P3D',#361,#362,$) ;
#379=AXIS2_PLACEMENT_3D('Circle Axis2P3D',#377,#378,$) ;
#398=AXIS2_PLACEMENT_3D('Circle Axis2P3D',#396,#397,$) ;
#403=AXIS2_PLACEMENT_3D('Circle Axis2P3D',#401,#402,$) ;
#416=AXIS2_PLACEMENT_3D('Cylinder Axis2P3D',#413,#414,#415) ;
#420=AXIS2_PLACEMENT_3D('Circle Axis2P3D',#418,#419,$) ;
#436=AXIS2_PLACEMENT_3D('Circle Axis2P3D',#434,#435,$) ;
#455=AXIS2_PLACEMENT_3D('Circle Axis2P3D',#453,#454,$) ;
#460=AXIS2_PLACEMENT_3D('Circle Axis2P3D',#458,#459,$) ;
#473=AXIS2_PLACEMENT_3D('Cylinder Axis2P3D',#470,#471,#472) ;
#477=AXIS2_PLACEMENT_3D('Circle Axis2P3D',#475,#476,$) ;
#493=AXIS2_PLACEMENT_3D('Circle Axis2P3D',#491,#492,$) ;
#512=AXIS2_PLACEMENT_3D('Circle Axis2P3D',#510,#511,$) ;
#517=AXIS2_PLACEMENT_3D('Circle Axis2P3D',#515,#516,$) ;
#530=AXIS2_PLACEMENT_3D('Plane Axis2P3D',#527,#528,#529) ;
#562=AXIS2_PLACEMENT_3D('Plane Axis2P3D',#559,#560,#561) ;
#40=PRODUCT_DEFINITION_SHAPE(' ',' ',#14) ;
#31=APPROVAL_PERSON_ORGANIZATION(#25,#21,#19) ;
#25=PERSON_AND_ORGANIZATION(#22,#23) ;
#22=PERSON(' ',' ',' ',$,$,$) ;
#23=ORGANIZATION(' ',' ',' ') ;
#21=APPROVAL(#20,' ') ;
#20=APPROVAL_STATUS('not_yet_approved') ;
#19=APPROVAL_ROLE('APPROVER') ;
#13=DATE_AND_TIME(#11,#12) ;
#12=LOCAL_TIME(10,11,2.,#10) ;
#10=COORDINATED_UNIVERSAL_TIME_OFFSET(0,0,.AHEAD.) ;
#85=ORIENTED_EDGE('',*,*,#64,.F.) ;
#86=ORIENTED_EDGE('',*,*,#71,.T.) ;
#87=ORIENTED_EDGE('',*,*,#78,.T.) ;
#88=ORIENTED_EDGE('',*,*,#83,.F.) ;
#116=ORIENTED_EDGE('',*,*,#78,.F.) ;
#117=ORIENTED_EDGE('',*,*,#102,.T.) ;
#118=ORIENTED_EDGE('',*,*,#109,.T.) ;
#119=ORIENTED_EDGE('',*,*,#114,.F.) ;
#147=ORIENTED_EDGE('',*,*,#109,.F.) ;
#148=ORIENTED_EDGE('',*,*,#133,.T.) ;
#149=ORIENTED_EDGE('',*,*,#140,.T.) ;
#150=ORIENTED_EDGE('',*,*,#145,.F.) ;
#178=ORIENTED_EDGE('',*,*,#140,.F.) ;
#179=ORIENTED_EDGE('',*,*,#164,.T.) ;
#180=ORIENTED_EDGE('',*,*,#171,.T.) ;
#181=ORIENTED_EDGE('',*,*,#176,.F.) ;
#209=ORIENTED_EDGE('',*,*,#171,.F.) ;
#210=ORIENTED_EDGE('',*,*,#195,.T.) ;
#211=ORIENTED_EDGE('',*,*,#202,.T.) ;
#212=ORIENTED_EDGE('',*,*,#207,.F.) ;
#240=ORIENTED_EDGE('',*,*,#202,.F.) ;
#241=ORIENTED_EDGE('',*,*,#226,.T.) ;
#242=ORIENTED_EDGE('',*,*,#233,.T.) ;
#243=ORIENTED_EDGE('',*,*,#238,.F.) ;
#271=ORIENTED_EDGE('',*,*,#233,.F.) ;
#272=ORIENTED_EDGE('',*,*,#257,.T.) ;
#273=ORIENTED_EDGE('',*,*,#264,.T.) ;
#274=ORIENTED_EDGE('',*,*,#269,.F.) ;
#293=ORIENTED_EDGE('',*,*,#264,.F.) ;
#294=ORIENTED_EDGE('',*,*,#286,.T.) ;
#295=ORIENTED_EDGE('',*,*,#64,.T.) ;
#296=ORIENTED_EDGE('',*,*,#291,.F.) ;
#333=ORIENTED_EDGE('',*,*,#312,.T.) ;
#334=ORIENTED_EDGE('',*,*,#319,.F.) ;
#335=ORIENTED_EDGE('',*,*,#326,.F.) ;
#336=ORIENTED_EDGE('',*,*,#331,.T.) ;
#350=ORIENTED_EDGE('',*,*,#343,.T.) ;
#351=ORIENTED_EDGE('',*,*,#331,.F.) ;
#352=ORIENTED_EDGE('',*,*,#348,.F.) ;
#353=ORIENTED_EDGE('',*,*,#319,.T.) ;
#390=ORIENTED_EDGE('',*,*,#369,.T.) ;
#391=ORIENTED_EDGE('',*,*,#376,.F.) ;
#392=ORIENTED_EDGE('',*,*,#383,.F.) ;
#393=ORIENTED_EDGE('',*,*,#388,.T.) ;
#407=ORIENTED_EDGE('',*,*,#400,.T.) ;
#408=ORIENTED_EDGE('',*,*,#388,.F.) ;
#409=ORIENTED_EDGE('',*,*,#405,.F.) ;
#410=ORIENTED_EDGE('',*,*,#376,.T.) ;
#447=ORIENTED_EDGE('',*,*,#426,.T.) ;
#448=ORIENTED_EDGE('',*,*,#433,.F.) ;
#449=ORIENTED_EDGE('',*,*,#440,.F.) ;
#450=ORIENTED_EDGE('',*,*,#445,.T.) ;
#464=ORIENTED_EDGE('',*,*,#457,.T.) ;
#465=ORIENTED_EDGE('',*,*,#445,.F.) ;
#466=ORIENTED_EDGE('',*,*,#462,.F.) ;
#467=ORIENTED_EDGE('',*,*,#433,.T.) ;
#504=ORIENTED_EDGE('',*,*,#483,.T.) ;
#505=ORIENTED_EDGE('',*,*,#490,.F.) ;
#506=ORIENTED_EDGE('',*,*,#497,.F.) ;
#507=ORIENTED_EDGE('',*,*,#502,.T.) ;
#521=ORIENTED_EDGE('',*,*,#514,.T.) ;
#522=ORIENTED_EDGE('',*,*,#502,.F.) ;
#523=ORIENTED_EDGE('',*,*,#519,.F.) ;
#524=ORIENTED_EDGE('',*,*,#490,.T.) ;
#533=ORIENTED_EDGE('',*,*,#286,.F.) ;
#534=ORIENTED_EDGE('',*,*,#257,.F.) ;
#535=ORIENTED_EDGE('',*,*,#226,.F.) ;
#536=ORIENTED_EDGE('',*,*,#195,.F.) ;
#537=ORIENTED_EDGE('',*,*,#164,.F.) ;
#538=ORIENTED_EDGE('',*,*,#133,.F.) ;
#539=ORIENTED_EDGE('',*,*,#102,.F.) ;
#540=ORIENTED_EDGE('',*,*,#71,.F.) ;
#543=ORIENTED_EDGE('',*,*,#348,.T.) ;
#544=ORIENTED_EDGE('',*,*,#326,.T.) ;
#547=ORIENTED_EDGE('',*,*,#405,.T.) ;
#548=ORIENTED_EDGE('',*,*,#383,.T.) ;
#551=ORIENTED_EDGE('',*,*,#462,.T.) ;
#552=ORIENTED_EDGE('',*,*,#440,.T.) ;
#555=ORIENTED_EDGE('',*,*,#519,.T.) ;
#556=ORIENTED_EDGE('',*,*,#497,.T.) ;
#565=ORIENTED_EDGE('',*,*,#83,.T.) ;
#566=ORIENTED_EDGE('',*,*,#114,.T.) ;
#567=ORIENTED_EDGE('',*,*,#145,.T.) ;
#568=ORIENTED_EDGE('',*,*,#176,.T.) ;
#569=ORIENTED_EDGE('',*,*,#207,.T.) ;
#570=ORIENTED_EDGE('',*,*,#238,.T.) ;
#571=ORIENTED_EDGE('',*,*,#269,.T.) ;
#572=ORIENTED_EDGE('',*,*,#291,.T.) ;
#575=ORIENTED_EDGE('',*,*,#312,.F.) ;
#576=ORIENTED_EDGE('',*,*,#343,.F.) ;
#579=ORIENTED_EDGE('',*,*,#369,.F.) ;
#580=ORIENTED_EDGE('',*,*,#400,.F.) ;
#583=ORIENTED_EDGE('',*,*,#426,.F.) ;
#584=ORIENTED_EDGE('',*,*,#457,.F.) ;
#587=ORIENTED_EDGE('',*,*,#483,.F.) ;
#588=ORIENTED_EDGE('',*,*,#514,.F.) ;
#545=FACE_BOUND('',#542,.T.) ;
#549=FACE_BOUND('',#546,.T.) ;
#553=FACE_BOUND('',#550,.T.) ;
#557=FACE_BOUND('',#554,.T.) ;
#577=FACE_BOUND('',#574,.T.) ;
#581=FACE_BOUND('',#578,.T.) ;
#585=FACE_BOUND('',#582,.T.) ;
#589=FACE_BOUND('',#586,.T.) ;
#50=CLOSED_SHELL('Closed Shell',(#90,#121,#152,#183,#214,#245,#276,#298,#338,#355,#395,#412,#452,#469,#509,#526,#558,#590)) ;
#58=VECTOR('Line Direction',#57,1.) ;
#67=VECTOR('Line Direction',#66,1.) ;
#74=VECTOR('Line Direction',#73,1.) ;
#81=VECTOR('Line Direction',#80,1.) ;
#98=VECTOR('Line Direction',#97,1.) ;
#105=VECTOR('Line Direction',#104,1.) ;
#112=VECTOR('Line Direction',#111,1.) ;
#129=VECTOR('Line Direction',#128,1.) ;
#136=VECTOR('Line Direction',#135,1.) ;
#143=VECTOR('Line Direction',#142,1.) ;
#160=VECTOR('Line Direction',#159,1.) ;
#167=VECTOR('Line Direction',#166,1.) ;
#174=VECTOR('Line Direction',#173,1.) ;
#191=VECTOR('Line Direction',#190,1.) ;
#198=VECTOR('Line Direction',#197,1.) ;
#205=VECTOR('Line Direction',#204,1.) ;
#222=VECTOR('Line Direction',#221,1.) ;
#229=VECTOR('Line Direction',#228,1.) ;
#236=VECTOR('Line Direction',#235,1.) ;
#253=VECTOR('Line Direction',#252,1.) ;
#260=VECTOR('Line Direction',#259,1.) ;
#267=VECTOR('Line Direction',#266,1.) ;
#284=VECTOR('Line Direction',#283,1.) ;
#289=VECTOR('Line Direction',#288,1.) ;
#315=VECTOR('Line Direction',#314,1.) ;
#329=VECTOR('Line Direction',#328,1.) ;
#372=VECTOR('Line Direction',#371,1.) ;
#386=VECTOR('Line Direction',#385,1.) ;
#429=VECTOR('Line Direction',#428,1.) ;
#443=VECTOR('Line Direction',#442,1.) ;
#486=VECTOR('Line Direction',#485,1.) ;
#500=VECTOR('Line Direction',#499,1.) ;
#592=ADVANCED_BREP_SHAPE_REPRESENTATION('NONE',(#591),#45) ;
#48=SHAPE_REPRESENTATION(' ',(#47),#45) ;
#90=ADVANCED_FACE('Corps principal',(#89),#55,.T.) ;
#121=ADVANCED_FACE('Corps principal',(#120),#95,.F.) ;
#152=ADVANCED_FACE('Corps principal',(#151),#126,.F.) ;
#183=ADVANCED_FACE('Corps principal',(#182),#157,.F.) ;
#214=ADVANCED_FACE('Corps principal',(#213),#188,.F.) ;
#245=ADVANCED_FACE('Corps principal',(#244),#219,.F.) ;
#276=ADVANCED_FACE('Corps principal',(#275),#250,.F.) ;
#298=ADVANCED_FACE('Corps principal',(#297),#281,.F.) ;
#338=ADVANCED_FACE('Corps principal',(#337),#303,.F.) ;
#355=ADVANCED_FACE('Corps principal',(#354),#303,.F.) ;
#395=ADVANCED_FACE('Corps principal',(#394),#360,.F.) ;
#412=ADVANCED_FACE('Corps principal',(#411),#360,.F.) ;
#452=ADVANCED_FACE('Corps principal',(#451),#417,.F.) ;
#469=ADVANCED_FACE('Corps principal',(#468),#417,.F.) ;
#509=ADVANCED_FACE('Corps principal',(#508),#474,.F.) ;
#526=ADVANCED_FACE('Corps principal',(#525),#474,.F.) ;
#558=ADVANCED_FACE('Corps principal',(#541,#545,#549,#553,#557),#531,.F.) ;
#590=ADVANCED_FACE('Corps principal',(#573,#577,#581,#585,#589),#563,.T.) ;
#4=APPLICATION_PROTOCOL_DEFINITION('international standard','config_control_design',1994,#1) ;
#32=APPROVAL_DATE_TIME(#13,#21) ;
#591=MANIFOLD_SOLID_BREP('Corps principal',#50) ;
#11=CALENDAR_DATE(2021,16,2) ;
#30=CC_DESIGN_APPROVAL(#21,(#16,#6,#14)) ;
#18=CC_DESIGN_DATE_AND_TIME_ASSIGNMENT(#13,#17,(#16)) ;
#29=CC_DESIGN_DATE_AND_TIME_ASSIGNMENT(#13,#28,(#14)) ;
#17=DATE_TIME_ROLE('classification_date') ;
#28=DATE_TIME_ROLE('creation_date') ;
#27=CC_DESIGN_PERSON_AND_ORGANIZATION_ASSIGNMENT(#25,#26,(#16)) ;
#33=CC_DESIGN_PERSON_AND_ORGANIZATION_ASSIGNMENT(#25,#34,(#6)) ;
#35=CC_DESIGN_PERSON_AND_ORGANIZATION_ASSIGNMENT(#25,#36,(#6,#14)) ;
#37=CC_DESIGN_PERSON_AND_ORGANIZATION_ASSIGNMENT(#25,#38,(#5)) ;
#26=PERSON_AND_ORGANIZATION_ROLE('classification_officer') ;
#34=PERSON_AND_ORGANIZATION_ROLE('design_supplier') ;
#36=PERSON_AND_ORGANIZATION_ROLE('creator') ;
#38=PERSON_AND_ORGANIZATION_ROLE('design_owner') ;
#39=CC_DESIGN_SECURITY_CLASSIFICATION(#16,(#6)) ;
#307=CIRCLE('generated circle',#306,2.75) ;
#323=CIRCLE('generated circle',#322,2.75) ;
#342=CIRCLE('generated circle',#341,2.75) ;
#347=CIRCLE('generated circle',#346,2.75) ;
#364=CIRCLE('generated circle',#363,2.75) ;
#380=CIRCLE('generated circle',#379,2.75) ;
#399=CIRCLE('generated circle',#398,2.75) ;
#404=CIRCLE('generated circle',#403,2.75) ;
#421=CIRCLE('generated circle',#420,2.75) ;
#437=CIRCLE('generated circle',#436,2.75) ;
#456=CIRCLE('generated circle',#455,2.75) ;
#461=CIRCLE('generated circle',#460,2.75) ;
#478=CIRCLE('generated circle',#477,2.75) ;
#494=CIRCLE('generated circle',#493,2.75) ;
#513=CIRCLE('generated circle',#512,2.75) ;
#518=CIRCLE('generated circle',#517,2.75) ;
#593=SHAPE_REPRESENTATION_RELATIONSHIP(' ',' ',#48,#592) ;
#303=CYLINDRICAL_SURFACE('generated cylinder',#302,2.75) ;
#360=CYLINDRICAL_SURFACE('generated cylinder',#359,2.75) ;
#417=CYLINDRICAL_SURFACE('generated cylinder',#416,2.75) ;
#474=CYLINDRICAL_SURFACE('generated cylinder',#473,2.75) ;
#3=DESIGN_CONTEXT(' ',#1,'design') ;
#64=EDGE_CURVE('',#61,#63,#59,.T.) ;
#71=EDGE_CURVE('',#61,#70,#68,.T.) ;
#78=EDGE_CURVE('',#70,#77,#75,.T.) ;
#83=EDGE_CURVE('',#63,#77,#82,.T.) ;
#102=EDGE_CURVE('',#70,#101,#99,.F.) ;
#109=EDGE_CURVE('',#101,#108,#106,.T.) ;
#114=EDGE_CURVE('',#77,#108,#113,.F.) ;
#133=EDGE_CURVE('',#101,#132,#130,.F.) ;
#140=EDGE_CURVE('',#132,#139,#137,.T.) ;
#145=EDGE_CURVE('',#108,#139,#144,.F.) ;
#164=EDGE_CURVE('',#132,#163,#161,.F.) ;
#171=EDGE_CURVE('',#163,#170,#168,.T.) ;
#176=EDGE_CURVE('',#139,#170,#175,.F.) ;
#195=EDGE_CURVE('',#163,#194,#192,.F.) ;
#202=EDGE_CURVE('',#194,#201,#199,.T.) ;
#207=EDGE_CURVE('',#170,#201,#206,.F.) ;
#226=EDGE_CURVE('',#194,#225,#223,.F.) ;
#233=EDGE_CURVE('',#225,#232,#230,.T.) ;
#238=EDGE_CURVE('',#201,#232,#237,.F.) ;
#257=EDGE_CURVE('',#225,#256,#254,.F.) ;
#264=EDGE_CURVE('',#256,#263,#261,.T.) ;
#269=EDGE_CURVE('',#232,#263,#268,.F.) ;
#286=EDGE_CURVE('',#256,#61,#285,.F.) ;
#291=EDGE_CURVE('',#263,#63,#290,.F.) ;
#312=EDGE_CURVE('',#309,#311,#307,.T.) ;
#319=EDGE_CURVE('',#318,#311,#316,.T.) ;
#326=EDGE_CURVE('',#325,#318,#323,.T.) ;
#331=EDGE_CURVE('',#325,#309,#330,.T.) ;
#343=EDGE_CURVE('',#311,#309,#342,.T.) ;
#348=EDGE_CURVE('',#318,#325,#347,.T.) ;
#369=EDGE_CURVE('',#366,#368,#364,.T.) ;
#376=EDGE_CURVE('',#375,#368,#373,.T.) ;
#383=EDGE_CURVE('',#382,#375,#380,.T.) ;
#388=EDGE_CURVE('',#382,#366,#387,.T.) ;
#400=EDGE_CURVE('',#368,#366,#399,.T.) ;
#405=EDGE_CURVE('',#375,#382,#404,.T.) ;
#426=EDGE_CURVE('',#423,#425,#421,.T.) ;
#433=EDGE_CURVE('',#432,#425,#430,.T.) ;
#440=EDGE_CURVE('',#439,#432,#437,.T.) ;
#445=EDGE_CURVE('',#439,#423,#444,.T.) ;
#457=EDGE_CURVE('',#425,#423,#456,.T.) ;
#462=EDGE_CURVE('',#432,#439,#461,.T.) ;
#483=EDGE_CURVE('',#480,#482,#478,.T.) ;
#490=EDGE_CURVE('',#489,#482,#487,.T.) ;
#497=EDGE_CURVE('',#496,#489,#494,.T.) ;
#502=EDGE_CURVE('',#496,#480,#501,.T.) ;
#514=EDGE_CURVE('',#482,#480,#513,.T.) ;
#519=EDGE_CURVE('',#489,#496,#518,.T.) ;
#84=EDGE_LOOP('',(#85,#86,#87,#88)) ;
#115=EDGE_LOOP('',(#116,#117,#118,#119)) ;
#146=EDGE_LOOP('',(#147,#148,#149,#150)) ;
#177=EDGE_LOOP('',(#178,#179,#180,#181)) ;
#208=EDGE_LOOP('',(#209,#210,#211,#212)) ;
#239=EDGE_LOOP('',(#240,#241,#242,#243)) ;
#270=EDGE_LOOP('',(#271,#272,#273,#274)) ;
#292=EDGE_LOOP('',(#293,#294,#295,#296)) ;
#332=EDGE_LOOP('',(#333,#334,#335,#336)) ;
#349=EDGE_LOOP('',(#350,#351,#352,#353)) ;
#389=EDGE_LOOP('',(#390,#391,#392,#393)) ;
#406=EDGE_LOOP('',(#407,#408,#409,#410)) ;
#446=EDGE_LOOP('',(#447,#448,#449,#450)) ;
#463=EDGE_LOOP('',(#464,#465,#466,#467)) ;
#503=EDGE_LOOP('',(#504,#505,#506,#507)) ;
#520=EDGE_LOOP('',(#521,#522,#523,#524)) ;
#532=EDGE_LOOP('',(#533,#534,#535,#536,#537,#538,#539,#540)) ;
#542=EDGE_LOOP('',(#543,#544)) ;
#546=EDGE_LOOP('',(#547,#548)) ;
#550=EDGE_LOOP('',(#551,#552)) ;
#554=EDGE_LOOP('',(#555,#556)) ;
#564=EDGE_LOOP('',(#565,#566,#567,#568,#569,#570,#571,#572)) ;
#574=EDGE_LOOP('',(#575,#576)) ;
#578=EDGE_LOOP('',(#579,#580)) ;
#582=EDGE_LOOP('',(#583,#584)) ;
#586=EDGE_LOOP('',(#587,#588)) ;
#89=FACE_OUTER_BOUND('',#84,.T.) ;
#120=FACE_OUTER_BOUND('',#115,.T.) ;
#151=FACE_OUTER_BOUND('',#146,.T.) ;
#182=FACE_OUTER_BOUND('',#177,.T.) ;
#213=FACE_OUTER_BOUND('',#208,.T.) ;
#244=FACE_OUTER_BOUND('',#239,.T.) ;
#275=FACE_OUTER_BOUND('',#270,.T.) ;
#297=FACE_OUTER_BOUND('',#292,.T.) ;
#337=FACE_OUTER_BOUND('',#332,.T.) ;
#354=FACE_OUTER_BOUND('',#349,.T.) ;
#394=FACE_OUTER_BOUND('',#389,.T.) ;
#411=FACE_OUTER_BOUND('',#406,.T.) ;
#451=FACE_OUTER_BOUND('',#446,.T.) ;
#468=FACE_OUTER_BOUND('',#463,.T.) ;
#508=FACE_OUTER_BOUND('',#503,.T.) ;
#525=FACE_OUTER_BOUND('',#520,.T.) ;
#541=FACE_OUTER_BOUND('',#532,.T.) ;
#573=FACE_OUTER_BOUND('',#564,.T.) ;
#44=UNCERTAINTY_MEASURE_WITH_UNIT(LENGTH_MEASURE(0.005),#41,'distance_accuracy_value','CONFUSED CURVE UNCERTAINTY') ;
#59=LINE('Line',#56,#58) ;
#68=LINE('Line',#65,#67) ;
#75=LINE('Line',#72,#74) ;
#82=LINE('Line',#79,#81) ;
#99=LINE('Line',#96,#98) ;
#106=LINE('Line',#103,#105) ;
#113=LINE('Line',#110,#112) ;
#130=LINE('Line',#127,#129) ;
#137=LINE('Line',#134,#136) ;
#144=LINE('Line',#141,#143) ;
#161=LINE('Line',#158,#160) ;
#168=LINE('Line',#165,#167) ;
#175=LINE('Line',#172,#174) ;
#192=LINE('Line',#189,#191) ;
#199=LINE('Line',#196,#198) ;
#206=LINE('Line',#203,#205) ;
#223=LINE('Line',#220,#222) ;
#230=LINE('Line',#227,#229) ;
#237=LINE('Line',#234,#236) ;
#254=LINE('Line',#251,#253) ;
#261=LINE('Line',#258,#260) ;
#268=LINE('Line',#265,#267) ;
#285=LINE('Line',#282,#284) ;
#290=LINE('Line',#287,#289) ;
#316=LINE('Line',#313,#315) ;
#330=LINE('Line',#327,#329) ;
#373=LINE('Line',#370,#372) ;
#387=LINE('Line',#384,#386) ;
#430=LINE('Line',#427,#429) ;
#444=LINE('Line',#441,#443) ;
#487=LINE('Line',#484,#486) ;
#501=LINE('Line',#498,#500) ;
#2=MECHANICAL_CONTEXT(' ',#1,'mechanical') ;
#24=PERSONAL_ADDRESS(' ',' ',' ',' ',' ',' ',' ',' ',' ',' ',' ',' ',(#22),' ') ;
#55=PLANE('',#54) ;
#95=PLANE('',#94) ;
#126=PLANE('',#125) ;
#157=PLANE('',#156) ;
#188=PLANE('',#187) ;
#219=PLANE('',#218) ;
#250=PLANE('',#249) ;
#281=PLANE('',#280) ;
#531=PLANE('',#530) ;
#563=PLANE('',#562) ;
#7=PRODUCT_CATEGORY('part',$) ;
#9=PRODUCT_CATEGORY_RELATIONSHIP(' ',' ',#7,#8) ;
#6=PRODUCT_DEFINITION_FORMATION_WITH_SPECIFIED_SOURCE('',' ',#5,.NOT_KNOWN.) ;
#8=PRODUCT_RELATED_PRODUCT_CATEGORY('detail',$,(#5)) ;
#49=SHAPE_DEFINITION_REPRESENTATION(#40,#48) ;
#61=VERTEX_POINT('',#60) ;
#63=VERTEX_POINT('',#62) ;
#70=VERTEX_POINT('',#69) ;
#77=VERTEX_POINT('',#76) ;
#101=VERTEX_POINT('',#100) ;
#108=VERTEX_POINT('',#107) ;
#132=VERTEX_POINT('',#131) ;
#139=VERTEX_POINT('',#138) ;
#163=VERTEX_POINT('',#162) ;
#170=VERTEX_POINT('',#169) ;
#194=VERTEX_POINT('',#193) ;
#201=VERTEX_POINT('',#200) ;
#225=VERTEX_POINT('',#224) ;
#232=VERTEX_POINT('',#231) ;
#256=VERTEX_POINT('',#255) ;
#263=VERTEX_POINT('',#262) ;
#309=VERTEX_POINT('',#308) ;
#311=VERTEX_POINT('',#310) ;
#318=VERTEX_POINT('',#317) ;
#325=VERTEX_POINT('',#324) ;
#366=VERTEX_POINT('',#365) ;
#368=VERTEX_POINT('',#367) ;
#375=VERTEX_POINT('',#374) ;
#382=VERTEX_POINT('',#381) ;
#423=VERTEX_POINT('',#422) ;
#425=VERTEX_POINT('',#424) ;
#432=VERTEX_POINT('',#431) ;
#439=VERTEX_POINT('',#438) ;
#480=VERTEX_POINT('',#479) ;
#482=VERTEX_POINT('',#481) ;
#489=VERTEX_POINT('',#488) ;
#496=VERTEX_POINT('',#495) ;
#41=(LENGTH_UNIT()NAMED_UNIT(*)SI_UNIT(.MILLI.,.METRE.)) ;
#42=(NAMED_UNIT(*)PLANE_ANGLE_UNIT()SI_UNIT($,.RADIAN.)) ;
#43=(NAMED_UNIT(*)SI_UNIT($,.STERADIAN.)SOLID_ANGLE_UNIT()) ;
#45=(GEOMETRIC_REPRESENTATION_CONTEXT(3)GLOBAL_UNCERTAINTY_ASSIGNED_CONTEXT((#44))GLOBAL_UNIT_ASSIGNED_CONTEXT((#41,#42,#43))REPRESENTATION_CONTEXT(' ',' ')) ;
ENDSEC;
END-ISO-10303-21;
