ISO-10303-21;
HEADER;
FILE_DESCRIPTION (( 'STEP AP214' ),
    '1' );
FILE_NAME ('Support moulage2 .STEP',
    '2021-02-19T16:11:09',
    ( '' ),
    ( '' ),
    'SwSTEP 2.0',
    'SolidWorks 2020',
    '' );
FILE_SCHEMA (( 'AUTOMOTIVE_DESIGN' ));
ENDSEC;

DATA;
#1 = CARTESIAN_POINT ( 'NONE',  ( 12.82499999999999929, 1.570609519906480326E-15, 230.0000000000000000 ) ) ;
#2 = ADVANCED_FACE ( 'NONE', ( #352, #167 ), #199, .T. ) ;
#3 = ORIENTED_EDGE ( 'NONE', *, *, #392, .F. ) ;
#4 = ORIENTED_EDGE ( 'NONE', *, *, #184, .F. ) ;
#5 = CARTESIAN_POINT ( 'NONE',  ( 0.000000000000000000, 0.000000000000000000, 1.999999999999980904 ) ) ;
#6 = CARTESIAN_POINT ( 'NONE',  ( -25.57500000000000284, 0.000000000000000000, 30.00000000000000000 ) ) ;
#7 = VERTEX_POINT ( 'NONE', #259 ) ;
#8 = EDGE_LOOP ( 'NONE', ( #108, #128 ) ) ;
#9 = VERTEX_POINT ( 'NONE', #256 ) ;
#10 = VERTEX_POINT ( 'NONE', #161 ) ;
#11 = EDGE_LOOP ( 'NONE', ( #310, #67, #300, #245 ) ) ;
#12 = ADVANCED_FACE ( 'NONE', ( #96 ), #381, .T. ) ;
#13 = CLOSED_SHELL ( 'NONE', ( #115, #330, #170, #159, #236, #61, #2, #252, #12, #267, #309, #298, #15, #315 ) ) ;
#14 = CARTESIAN_POINT ( 'NONE',  ( -25.57500000000000284, 0.000000000000000000, 10.00000000000000000 ) ) ;
#15 = ADVANCED_FACE ( 'NONE', ( #255 ), #132, .T. ) ;
#16 =( GEOMETRIC_REPRESENTATION_CONTEXT ( 3 ) GLOBAL_UNCERTAINTY_ASSIGNED_CONTEXT ( ( #347 ) ) GLOBAL_UNIT_ASSIGNED_CONTEXT ( ( #306, #154, #210 ) ) REPRESENTATION_CONTEXT ( 'NONE', 'WORKASPACE' ) );
#17 = ORIENTED_EDGE ( 'NONE', *, *, #88, .T. ) ;
#18 = DIRECTION ( 'NONE',  ( 1.000000000000000000, 0.000000000000000000, -0.000000000000000000 ) ) ;
#19 = DIRECTION ( 'NONE',  ( 1.000000000000000000, 0.000000000000000000, 0.000000000000000000 ) ) ;
#20 = CARTESIAN_POINT ( 'NONE',  ( 0.000000000000000000, 0.000000000000000000, 10.00000000000000000 ) ) ;
#21 = EDGE_CURVE ( 'NONE', #77, #157, #46, .T. ) ;
#22 = FACE_OUTER_BOUND ( 'NONE', #148, .T. ) ;
#23 = VECTOR ( 'NONE', #113, 1000.000000000000000 ) ;
#24 = CIRCLE ( 'NONE', #95, 12.82499999999999929 ) ;
#25 = CARTESIAN_POINT ( 'NONE',  ( 0.000000000000000000, 0.000000000000000000, 0.000000000000000000 ) ) ;
#26 = DIRECTION ( 'NONE',  ( 1.000000000000000000, 0.000000000000000000, 0.000000000000000000 ) ) ;
#27 = SURFACE_SIDE_STYLE ('',( #207 ) ) ;
#28 = AXIS2_PLACEMENT_3D ( 'NONE', #304, #196, #290 ) ;
#29 = DIRECTION ( 'NONE',  ( 0.000000000000000000, 0.000000000000000000, 1.000000000000000000 ) ) ;
#30 = ORIENTED_EDGE ( 'NONE', *, *, #82, .T. ) ;
#31 = FILL_AREA_STYLE_COLOUR ( '', #284 ) ;
#32 = ORIENTED_EDGE ( 'NONE', *, *, #340, .T. ) ;
#33 = DIRECTION ( 'NONE',  ( -0.000000000000000000, -0.000000000000000000, 1.000000000000000000 ) ) ;
#34 = FILL_AREA_STYLE_COLOUR ( '', #84 ) ;
#35 = VERTEX_POINT ( 'NONE', #6 ) ;
#36 = CARTESIAN_POINT ( 'NONE',  ( 0.000000000000000000, 0.000000000000000000, 30.00000000000000000 ) ) ;
#37 = ADVANCED_BREP_SHAPE_REPRESENTATION ( 'Support moulage2 ', ( #339, #164 ), #16 ) ;
#38 = AXIS2_PLACEMENT_3D ( 'NONE', #175, #240, #117 ) ;
#39 = AXIS2_PLACEMENT_3D ( 'NONE', #344, #40, #282 ) ;
#40 = DIRECTION ( 'NONE',  ( -0.000000000000000000, -0.000000000000000000, -1.000000000000000000 ) ) ;
#41 = AXIS2_PLACEMENT_3D ( 'NONE', #163, #261, #264 ) ;
#42 = VECTOR ( 'NONE', #253, 1000.000000000000000 ) ;
#43 = AXIS2_PLACEMENT_3D ( 'NONE', #140, #393, #110 ) ;
#44 = CARTESIAN_POINT ( 'NONE',  ( -12.82499999999999929, 0.000000000000000000, 229.0000000000000284 ) ) ;
#45 = AXIS2_PLACEMENT_3D ( 'NONE', #80, #171, #173 ) ;
#46 = CIRCLE ( 'NONE', #385, 12.82499999999999929 ) ;
#47 = DIRECTION ( 'NONE',  ( 0.000000000000000000, 0.000000000000000000, 1.000000000000000000 ) ) ;
#48 = ORIENTED_EDGE ( 'NONE', *, *, #257, .T. ) ;
#49 = FACE_BOUND ( 'NONE', #191, .T. ) ;
#50 = CYLINDRICAL_SURFACE ( 'NONE', #41, 12.82499999999999929 ) ;
#51 = EDGE_CURVE ( 'NONE', #9, #375, #314, .T. ) ;
#52 = DIRECTION ( 'NONE',  ( 0.000000000000000000, 0.000000000000000000, 1.000000000000000000 ) ) ;
#53 = DIRECTION ( 'NONE',  ( 1.000000000000000000, 0.000000000000000000, 0.000000000000000000 ) ) ;
#54 = DIRECTION ( 'NONE',  ( 0.000000000000000000, 0.000000000000000000, -1.000000000000000000 ) ) ;
#55 = DIRECTION ( 'NONE',  ( -0.7071067811865665576, 0.000000000000000000, -0.7071067811865285879 ) ) ;
#56 = CONICAL_SURFACE ( 'NONE', #358, 11.82499999999997264, 0.7853981633974751464 ) ;
#57 = DIRECTION ( 'NONE',  ( 0.000000000000000000, 0.000000000000000000, 1.000000000000000000 ) ) ;
#58 = CIRCLE ( 'NONE', #85, 12.82499999999999929 ) ;
#59 =( LENGTH_UNIT ( ) NAMED_UNIT ( * ) SI_UNIT ( .MILLI., .METRE. ) );
#60 = ORIENTED_EDGE ( 'NONE', *, *, #318, .T. ) ;
#61 = ADVANCED_FACE ( 'NONE', ( #125 ), #73, .T. ) ;
#62 = VERTEX_POINT ( 'NONE', #14 ) ;
#63 = DIRECTION ( 'NONE',  ( 0.000000000000000000, 0.000000000000000000, -1.000000000000000000 ) ) ;
#64 = DIRECTION ( 'NONE',  ( 1.000000000000000000, 0.000000000000000000, 0.000000000000000000 ) ) ;
#65 = DIRECTION ( 'NONE',  ( 1.000000000000000000, 0.000000000000000000, 0.000000000000000000 ) ) ;
#66 = ORIENTED_EDGE ( 'NONE', *, *, #242, .T. ) ;
#67 = ORIENTED_EDGE ( 'NONE', *, *, #392, .T. ) ;
#68 = EDGE_CURVE ( 'NONE', #169, #157, #254, .T. ) ;
#69 = EDGE_LOOP ( 'NONE', ( #127, #215, #32, #387 ) ) ;
#70 = ORIENTED_EDGE ( 'NONE', *, *, #201, .T. ) ;
#71 = AXIS2_PLACEMENT_3D ( 'NONE', #397, #29, #271 ) ;
#72 = UNCERTAINTY_MEASURE_WITH_UNIT (LENGTH_MEASURE( 1.000000000000000082E-05 ), #141, 'distance_accuracy_value', 'NONE');
#73 = CYLINDRICAL_SURFACE ( 'NONE', #179, 29.50000000000000000 ) ;
#74 = VECTOR ( 'NONE', #351, 1000.000000000000000 ) ;
#75 = CARTESIAN_POINT ( 'NONE',  ( 0.000000000000000000, 0.000000000000000000, 10.00000000000000000 ) ) ;
#76 = EDGE_CURVE ( 'NONE', #169, #337, #58, .T. ) ;
#77 = VERTEX_POINT ( 'NONE', #219 ) ;
#78 = PLANE ( 'NONE',  #272 ) ;
#79 = AXIS2_PLACEMENT_3D ( 'NONE', #138, #357, #294 ) ;
#80 = CARTESIAN_POINT ( 'NONE',  ( 0.000000000000000000, 0.000000000000000000, 10.00000000000000000 ) ) ;
#81 = FACE_OUTER_BOUND ( 'NONE', #303, .T. ) ;
#82 = EDGE_CURVE ( 'NONE', #157, #77, #24, .T. ) ;
#83 = FACE_OUTER_BOUND ( 'NONE', #11, .T. ) ;
#84 = COLOUR_RGB ( '',0.8980392156862745390, 0.9176470588235293713, 0.9294117647058823817 ) ;
#85 = AXIS2_PLACEMENT_3D ( 'NONE', #214, #63, #241 ) ;
#86 = CARTESIAN_POINT ( 'NONE',  ( 12.82499999999999929, 1.570609519906480326E-15, 229.0000000000000284 ) ) ;
#87 = SURFACE_STYLE_USAGE ( .BOTH. , #27 ) ;
#88 = EDGE_CURVE ( 'NONE', #35, #62, #183, .T. ) ;
#89 = ORIENTED_EDGE ( 'NONE', *, *, #275, .F. ) ;
#90 = CARTESIAN_POINT ( 'NONE',  ( -12.82499999999999929, 0.000000000000000000, 230.0000000000000000 ) ) ;
#91 = AXIS2_PLACEMENT_3D ( 'NONE', #168, #137, #19 ) ;
#92 = ORIENTED_EDGE ( 'NONE', *, *, #193, .F. ) ;
#93 = ORIENTED_EDGE ( 'NONE', *, *, #283, .F. ) ;
#94 = CIRCLE ( 'NONE', #316, 29.50000000000000000 ) ;
#95 = AXIS2_PLACEMENT_3D ( 'NONE', #36, #335, #65 ) ;
#96 = FACE_OUTER_BOUND ( 'NONE', #391, .T. ) ;
#97 = PRODUCT_DEFINITION ( 'UNKNOWN', '', #225, #158 ) ;
#98 = STYLED_ITEM ( 'NONE', ( #341 ), #37 ) ;
#99 = DIRECTION ( 'NONE',  ( 1.000000000000000000, 0.000000000000000000, -0.000000000000000000 ) ) ;
#100 = EDGE_CURVE ( 'NONE', #375, #289, #145, .T. ) ;
#101 = EDGE_LOOP ( 'NONE', ( #369, #149, #251, #151 ) ) ;
#102 = CARTESIAN_POINT ( 'NONE',  ( 11.82499999999997264, 1.448144839991741825E-15, 230.0000000000000000 ) ) ;
#103 = VERTEX_POINT ( 'NONE', #150 ) ;
#104 = DIRECTION ( 'NONE',  ( 1.000000000000000000, 0.000000000000000000, 0.000000000000000000 ) ) ;
#105 = VECTOR ( 'NONE', #166, 1000.000000000000000 ) ;
#106 = CARTESIAN_POINT ( 'NONE',  ( 0.000000000000000000, 0.000000000000000000, 230.0000000000000000 ) ) ;
#107 = CARTESIAN_POINT ( 'NONE',  ( 0.000000000000000000, 0.000000000000000000, 30.00000000000000000 ) ) ;
#108 = ORIENTED_EDGE ( 'NONE', *, *, #361, .T. ) ;
#109 = CARTESIAN_POINT ( 'NONE',  ( 29.50000000000000000, 3.612708057484691604E-15, 1.999999999999980904 ) ) ;
#110 = DIRECTION ( 'NONE',  ( 1.000000000000000000, 0.000000000000000000, 0.000000000000000000 ) ) ;
#111 = AXIS2_PLACEMENT_3D ( 'NONE', #231, #353, #388 ) ;
#112 = APPLICATION_PROTOCOL_DEFINITION ( 'draft international standard', 'automotive_design', 1998, #147 ) ;
#113 = DIRECTION ( 'NONE',  ( -0.000000000000000000, -0.000000000000000000, -1.000000000000000000 ) ) ;
#114 = EDGE_LOOP ( 'NONE', ( #243, #302, #187, #400 ) ) ;
#115 = ADVANCED_FACE ( 'NONE', ( #396 ), #359, .T. ) ;
#116 = CARTESIAN_POINT ( 'NONE',  ( 11.82499999999997264, 1.509377179949111174E-15, 230.0000000000000000 ) ) ;
#117 = DIRECTION ( 'NONE',  ( 1.000000000000000000, 0.000000000000000000, 0.000000000000000000 ) ) ;
#118 = APPLICATION_PROTOCOL_DEFINITION ( 'draft international standard', 'automotive_design', 1998, #317 ) ;
#119 = ORIENTED_EDGE ( 'NONE', *, *, #386, .T. ) ;
#120 = CARTESIAN_POINT ( 'NONE',  ( 0.000000000000000000, 0.000000000000000000, 10.00000000000000000 ) ) ;
#121 = ORIENTED_EDGE ( 'NONE', *, *, #100, .T. ) ;
#122 = CIRCLE ( 'NONE', #348, 25.57500000000000284 ) ;
#123 = ORIENTED_EDGE ( 'NONE', *, *, #130, .T. ) ;
#124 = EDGE_CURVE ( 'NONE', #9, #7, #247, .T. ) ;
#125 = FACE_OUTER_BOUND ( 'NONE', #69, .T. ) ;
#126 = ORIENTED_EDGE ( 'NONE', *, *, #230, .F. ) ;
#127 = ORIENTED_EDGE ( 'NONE', *, *, #51, .F. ) ;
#128 = ORIENTED_EDGE ( 'NONE', *, *, #283, .T. ) ;
#129 = MECHANICAL_DESIGN_GEOMETRIC_PRESENTATION_REPRESENTATION (  '', ( #368 ), #189 ) ;
#130 = EDGE_CURVE ( 'NONE', #10, #375, #360, .T. ) ;
#131 = DIRECTION ( 'NONE',  ( 1.000000000000000000, 0.000000000000000000, -0.000000000000000000 ) ) ;
#132 = CONICAL_SURFACE ( 'NONE', #165, 29.50000000000000000, 0.7853981633974604915 ) ;
#133 = PLANE ( 'NONE',  #334 ) ;
#134 = DIRECTION ( 'NONE',  ( 1.000000000000000000, 0.000000000000000000, 0.000000000000000000 ) ) ;
#135 = CYLINDRICAL_SURFACE ( 'NONE', #380, 12.82499999999999929 ) ;
#136 = CIRCLE ( 'NONE', #213, 25.57500000000000284 ) ;
#137 = DIRECTION ( 'NONE',  ( 0.000000000000000000, 0.000000000000000000, 1.000000000000000000 ) ) ;
#138 = CARTESIAN_POINT ( 'NONE',  ( 0.000000000000000000, 0.000000000000000000, 1.999999999999980904 ) ) ;
#139 = ORIENTED_EDGE ( 'NONE', *, *, #386, .F. ) ;
#140 = CARTESIAN_POINT ( 'NONE',  ( 0.000000000000000000, 0.000000000000000000, 10.00000000000000000 ) ) ;
#141 =( LENGTH_UNIT ( ) NAMED_UNIT ( * ) SI_UNIT ( .MILLI., .METRE. ) );
#142 = CARTESIAN_POINT ( 'NONE',  ( 0.000000000000000000, 0.000000000000000000, 230.0000000000000000 ) ) ;
#143 = CARTESIAN_POINT ( 'NONE',  ( 29.50000000000000000, 0.000000000000000000, 1.999999999999980904 ) ) ;
#144 = CIRCLE ( 'NONE', #38, 12.82499999999999929 ) ;
#145 = CIRCLE ( 'NONE', #198, 29.50000000000000000 ) ;
#146 = LINE ( 'NONE', #395, #23 ) ;
#147 = APPLICATION_CONTEXT ( 'automotive_design' ) ;
#148 = EDGE_LOOP ( 'NONE', ( #3, #60, #307, #30 ) ) ;
#149 = ORIENTED_EDGE ( 'NONE', *, *, #379, .T. ) ;
#150 = CARTESIAN_POINT ( 'NONE',  ( -27.49999999999996803, 3.490243377569954483E-15, 0.000000000000000000 ) ) ;
#151 = ORIENTED_EDGE ( 'NONE', *, *, #88, .F. ) ;
#152 = ORIENTED_EDGE ( 'NONE', *, *, #346, .T. ) ;
#153 = CARTESIAN_POINT ( 'NONE',  ( -25.57500000000000284, 0.000000000000000000, 30.00000000000000000 ) ) ;
#154 =( NAMED_UNIT ( * ) PLANE_ANGLE_UNIT ( ) SI_UNIT ( $, .RADIAN. ) );
#155 = AXIS2_PLACEMENT_3D ( 'NONE', #25, #287, #18 ) ;
#156 = VERTEX_POINT ( 'NONE', #226 ) ;
#157 = VERTEX_POINT ( 'NONE', #377 ) ;
#158 = PRODUCT_DEFINITION_CONTEXT ( 'detailed design', #147, 'design' ) ;
#159 = ADVANCED_FACE ( 'NONE', ( #364 ), #188, .T. ) ;
#160 = DIRECTION ( 'NONE',  ( -0.000000000000000000, -0.000000000000000000, -1.000000000000000000 ) ) ;
#161 = CARTESIAN_POINT ( 'NONE',  ( 27.49999999999996803, 0.000000000000000000, 0.000000000000000000 ) ) ;
#162 = PRODUCT_RELATED_PRODUCT_CATEGORY ( 'part', '', ( #218 ) ) ;
#163 = CARTESIAN_POINT ( 'NONE',  ( 0.000000000000000000, 0.000000000000000000, 230.0000000000000000 ) ) ;
#164 = AXIS2_PLACEMENT_3D ( 'NONE', #299, #185, #248 ) ;
#165 = AXIS2_PLACEMENT_3D ( 'NONE', #378, #206, #269 ) ;
#166 = DIRECTION ( 'NONE',  ( -0.7071067811865561215, 8.659560562355038861E-17, 0.7071067811865389130 ) ) ;
#167 = FACE_OUTER_BOUND ( 'NONE', #279, .T. ) ;
#168 = CARTESIAN_POINT ( 'NONE',  ( 0.000000000000000000, 0.000000000000000000, 10.00000000000000000 ) ) ;
#169 = VERTEX_POINT ( 'NONE', #44 ) ;
#170 = ADVANCED_FACE ( 'NONE', ( #83 ), #50, .T. ) ;
#171 = DIRECTION ( 'NONE',  ( -0.000000000000000000, -0.000000000000000000, -1.000000000000000000 ) ) ;
#172 = VECTOR ( 'NONE', #367, 1000.000000000000000 ) ;
#173 = DIRECTION ( 'NONE',  ( -1.000000000000000000, 0.000000000000000000, 0.000000000000000000 ) ) ;
#174 = EDGE_CURVE ( 'NONE', #212, #62, #394, .T. ) ;
#175 = CARTESIAN_POINT ( 'NONE',  ( 0.000000000000000000, 0.000000000000000000, 229.0000000000000284 ) ) ;
#176 = DIRECTION ( 'NONE',  ( -0.000000000000000000, -0.000000000000000000, -1.000000000000000000 ) ) ;
#177 = DIRECTION ( 'NONE',  ( -1.000000000000000000, 0.000000000000000000, 0.000000000000000000 ) ) ;
#178 = AXIS2_PLACEMENT_3D ( 'NONE', #120, #238, #53 ) ;
#179 = AXIS2_PLACEMENT_3D ( 'NONE', #192, #160, #249 ) ;
#180 = DIRECTION ( 'NONE',  ( 1.000000000000000000, 0.000000000000000000, 0.000000000000000000 ) ) ;
#181 = EDGE_LOOP ( 'NONE', ( #93, #221, #342, #139 ) ) ;
#182 =( NAMED_UNIT ( * ) PLANE_ANGLE_UNIT ( ) SI_UNIT ( $, .RADIAN. ) );
#183 = LINE ( 'NONE', #153, #321 ) ;
#184 = EDGE_CURVE ( 'NONE', #289, #375, #94, .T. ) ;
#185 = DIRECTION ( 'NONE',  ( 0.000000000000000000, 0.000000000000000000, 1.000000000000000000 ) ) ;
#186 = ORIENTED_EDGE ( 'NONE', *, *, #82, .F. ) ;
#187 = ORIENTED_EDGE ( 'NONE', *, *, #100, .F. ) ;
#188 = CYLINDRICAL_SURFACE ( 'NONE', #28, 25.57500000000000284 ) ;
#189 =( GEOMETRIC_REPRESENTATION_CONTEXT ( 3 ) GLOBAL_UNCERTAINTY_ASSIGNED_CONTEXT ( ( #224 ) ) GLOBAL_UNIT_ASSIGNED_CONTEXT ( ( #59, #182, #301 ) ) REPRESENTATION_CONTEXT ( 'NONE', 'WORKASPACE' ) );
#190 = AXIS2_PLACEMENT_3D ( 'NONE', #270, #54, #323 ) ;
#191 = EDGE_LOOP ( 'NONE', ( #186, #250 ) ) ;
#192 = CARTESIAN_POINT ( 'NONE',  ( 0.000000000000000000, 0.000000000000000000, 10.00000000000000000 ) ) ;
#193 = EDGE_CURVE ( 'NONE', #103, #289, #268, .T. ) ;
#194 = CARTESIAN_POINT ( 'NONE',  ( -29.50000000000000000, 3.612708057484691604E-15, 1.999999999999980904 ) ) ;
#195 = ORIENTED_EDGE ( 'NONE', *, *, #124, .F. ) ;
#196 = DIRECTION ( 'NONE',  ( -0.000000000000000000, -0.000000000000000000, -1.000000000000000000 ) ) ;
#197 = CONICAL_SURFACE ( 'NONE', #79, 29.50000000000000000, 0.7853981633974604915 ) ;
#198 = AXIS2_PLACEMENT_3D ( 'NONE', #5, #33, #278 ) ;
#199 = PLANE ( 'NONE',  #223 ) ;
#200 = PLANE ( 'NONE',  #155 ) ;
#201 = EDGE_CURVE ( 'NONE', #10, #103, #246, .T. ) ;
#202 = DIRECTION ( 'NONE',  ( 0.000000000000000000, 0.000000000000000000, 1.000000000000000000 ) ) ;
#203 = DIRECTION ( 'NONE',  ( -1.000000000000000000, 0.000000000000000000, 0.000000000000000000 ) ) ;
#204 = DIRECTION ( 'NONE',  ( 0.000000000000000000, 0.000000000000000000, 1.000000000000000000 ) ) ;
#205 = MECHANICAL_DESIGN_GEOMETRIC_PRESENTATION_REPRESENTATION (  '', ( #98 ), #349 ) ;
#206 = DIRECTION ( 'NONE',  ( -0.000000000000000000, -0.000000000000000000, 1.000000000000000000 ) ) ;
#207 = SURFACE_STYLE_FILL_AREA ( #366 ) ;
#208 = SURFACE_SIDE_STYLE ('',( #276 ) ) ;
#209 = LINE ( 'NONE', #331, #281 ) ;
#210 =( NAMED_UNIT ( * ) SI_UNIT ( $, .STERADIAN. ) SOLID_ANGLE_UNIT ( ) );
#211 = PRESENTATION_STYLE_ASSIGNMENT (( #87 ) ) ;
#212 = VERTEX_POINT ( 'NONE', #354 ) ;
#213 = AXIS2_PLACEMENT_3D ( 'NONE', #107, #52, #355 ) ;
#214 = CARTESIAN_POINT ( 'NONE',  ( 0.000000000000000000, 0.000000000000000000, 229.0000000000000284 ) ) ;
#215 = ORIENTED_EDGE ( 'NONE', *, *, #257, .F. ) ;
#216 = CARTESIAN_POINT ( 'NONE',  ( 0.000000000000000000, 0.000000000000000000, 30.00000000000000000 ) ) ;
#217 = ORIENTED_EDGE ( 'NONE', *, *, #346, .F. ) ;
#218 = PRODUCT ( 'Support moulage2 ', 'Support moulage2 ', '', ( #295 ) ) ;
#219 = CARTESIAN_POINT ( 'NONE',  ( 12.82499999999999929, 1.570609519906480326E-15, 30.00000000000000000 ) ) ;
#220 = FILL_AREA_STYLE ('',( #34 ) ) ;
#221 = ORIENTED_EDGE ( 'NONE', *, *, #275, .T. ) ;
#222 = CIRCLE ( 'NONE', #291, 11.82499999999997264 ) ;
#223 = AXIS2_PLACEMENT_3D ( 'NONE', #20, #202, #131 ) ;
#224 = UNCERTAINTY_MEASURE_WITH_UNIT (LENGTH_MEASURE( 1.000000000000000082E-05 ), #59, 'distance_accuracy_value', 'NONE');
#225 = PRODUCT_DEFINITION_FORMATION_WITH_SPECIFIED_SOURCE ( 'ANY', '', #218, .NOT_KNOWN. ) ;
#226 = CARTESIAN_POINT ( 'NONE',  ( -11.82499999999997264, 0.000000000000000000, 230.0000000000000000 ) ) ;
#227 = DIRECTION ( 'NONE',  ( 1.000000000000000000, 0.000000000000000000, 0.000000000000000000 ) ) ;
#228 = ORIENTED_EDGE ( 'NONE', *, *, #230, .T. ) ;
#229 = CYLINDRICAL_SURFACE ( 'NONE', #45, 29.50000000000000000 ) ;
#230 = EDGE_CURVE ( 'NONE', #35, #372, #136, .T. ) ;
#231 = CARTESIAN_POINT ( 'NONE',  ( 0.000000000000000000, 0.000000000000000000, 0.000000000000000000 ) ) ;
#232 = CIRCLE ( 'NONE', #71, 11.82499999999997264 ) ;
#233 = DIRECTION ( 'NONE',  ( -0.000000000000000000, -0.000000000000000000, -1.000000000000000000 ) ) ;
#234 = ORIENTED_EDGE ( 'NONE', *, *, #51, .T. ) ;
#235 = CARTESIAN_POINT ( 'NONE',  ( 0.000000000000000000, 0.000000000000000000, 30.00000000000000000 ) ) ;
#236 = ADVANCED_FACE ( 'NONE', ( #81 ), #229, .T. ) ;
#237 = PRODUCT_DEFINITION_SHAPE ( 'NONE', 'NONE',  #97 ) ;
#238 = DIRECTION ( 'NONE',  ( 0.000000000000000000, 0.000000000000000000, 1.000000000000000000 ) ) ;
#239 = CARTESIAN_POINT ( 'NONE',  ( 0.000000000000000000, 0.000000000000000000, 30.00000000000000000 ) ) ;
#240 = DIRECTION ( 'NONE',  ( 0.000000000000000000, 0.000000000000000000, -1.000000000000000000 ) ) ;
#241 = DIRECTION ( 'NONE',  ( 1.000000000000000000, 0.000000000000000000, 0.000000000000000000 ) ) ;
#242 = EDGE_CURVE ( 'NONE', #103, #10, #328, .T. ) ;
#243 = ORIENTED_EDGE ( 'NONE', *, *, #242, .F. ) ;
#244 = ORIENTED_EDGE ( 'NONE', *, *, #124, .T. ) ;
#245 = ORIENTED_EDGE ( 'NONE', *, *, #68, .F. ) ;
#246 = CIRCLE ( 'NONE', #376, 27.49999999999996803 ) ;
#247 = CIRCLE ( 'NONE', #43, 29.50000000000000000 ) ;
#248 = DIRECTION ( 'NONE',  ( 1.000000000000000000, 0.000000000000000000, 0.000000000000000000 ) ) ;
#249 = DIRECTION ( 'NONE',  ( -1.000000000000000000, 0.000000000000000000, 0.000000000000000000 ) ) ;
#250 = ORIENTED_EDGE ( 'NONE', *, *, #21, .F. ) ;
#251 = ORIENTED_EDGE ( 'NONE', *, *, #174, .T. ) ;
#252 = ADVANCED_FACE ( 'NONE', ( #286 ), #200, .F. ) ;
#253 = DIRECTION ( 'NONE',  ( -0.000000000000000000, -0.000000000000000000, -1.000000000000000000 ) ) ;
#254 = LINE ( 'NONE', #90, #266 ) ;
#255 = FACE_OUTER_BOUND ( 'NONE', #311, .T. ) ;
#256 = CARTESIAN_POINT ( 'NONE',  ( 29.50000000000000000, 3.612708057484691604E-15, 10.00000000000000000 ) ) ;
#257 = EDGE_CURVE ( 'NONE', #7, #9, #345, .T. ) ;
#258 = CIRCLE ( 'NONE', #178, 25.57500000000000284 ) ;
#259 = CARTESIAN_POINT ( 'NONE',  ( -29.50000000000000000, 0.000000000000000000, 10.00000000000000000 ) ) ;
#260 = FACE_OUTER_BOUND ( 'NONE', #325, .T. ) ;
#261 = DIRECTION ( 'NONE',  ( -0.000000000000000000, -0.000000000000000000, -1.000000000000000000 ) ) ;
#262 = ORIENTED_EDGE ( 'NONE', *, *, #373, .T. ) ;
#263 = CARTESIAN_POINT ( 'NONE',  ( 0.000000000000000000, 0.000000000000000000, 230.0000000000000000 ) ) ;
#264 = DIRECTION ( 'NONE',  ( -1.000000000000000000, 0.000000000000000000, 0.000000000000000000 ) ) ;
#265 = VECTOR ( 'NONE', #176, 1000.000000000000000 ) ;
#266 = VECTOR ( 'NONE', #370, 1000.000000000000000 ) ;
#267 = ADVANCED_FACE ( 'NONE', ( #49, #260 ), #133, .T. ) ;
#268 = LINE ( 'NONE', #194, #105 ) ;
#269 = DIRECTION ( 'NONE',  ( 1.000000000000000000, 0.000000000000000000, 0.000000000000000000 ) ) ;
#270 = CARTESIAN_POINT ( 'NONE',  ( 0.000000000000000000, 0.000000000000000000, 230.0000000000000000 ) ) ;
#271 = DIRECTION ( 'NONE',  ( 1.000000000000000000, 0.000000000000000000, 0.000000000000000000 ) ) ;
#272 = AXIS2_PLACEMENT_3D ( 'NONE', #322, #47, #99 ) ;
#273 = DIRECTION ( 'NONE',  ( 0.7071067811865561215, 0.000000000000000000, 0.7071067811865389130 ) ) ;
#274 = CARTESIAN_POINT ( 'NONE',  ( 25.57500000000000284, 3.132034188819356226E-15, 30.00000000000000000 ) ) ;
#275 = EDGE_CURVE ( 'NONE', #390, #337, #292, .T. ) ;
#276 = SURFACE_STYLE_FILL_AREA ( #220 ) ;
#277 = EDGE_LOOP ( 'NONE', ( #89, #280, #119, #371 ) ) ;
#278 = DIRECTION ( 'NONE',  ( 1.000000000000000000, 0.000000000000000000, 0.000000000000000000 ) ) ;
#279 = EDGE_LOOP ( 'NONE', ( #48, #244 ) ) ;
#280 = ORIENTED_EDGE ( 'NONE', *, *, #361, .F. ) ;
#281 = VECTOR ( 'NONE', #55, 1000.000000000000000 ) ;
#282 = DIRECTION ( 'NONE',  ( -1.000000000000000000, 0.000000000000000000, 0.000000000000000000 ) ) ;
#283 = EDGE_CURVE ( 'NONE', #390, #156, #222, .T. ) ;
#284 = COLOUR_RGB ( '',0.8980392156862745390, 0.9176470588235293713, 0.9294117647058823817 ) ;
#285 = PRESENTATION_LAYER_ASSIGNMENT (  '', '', ( #98 ) ) ;
#286 = FACE_OUTER_BOUND ( 'NONE', #356, .T. ) ;
#287 = DIRECTION ( 'NONE',  ( 0.000000000000000000, 0.000000000000000000, 1.000000000000000000 ) ) ;
#288 = FACE_OUTER_BOUND ( 'NONE', #8, .T. ) ;
#289 = VERTEX_POINT ( 'NONE', #384 ) ;
#290 = DIRECTION ( 'NONE',  ( -1.000000000000000000, 0.000000000000000000, 0.000000000000000000 ) ) ;
#291 = AXIS2_PLACEMENT_3D ( 'NONE', #263, #327, #26 ) ;
#292 = LINE ( 'NONE', #102, #74 ) ;
#293 = SURFACE_STYLE_USAGE ( .BOTH. , #208 ) ;
#294 = DIRECTION ( 'NONE',  ( 1.000000000000000000, 0.000000000000000000, 0.000000000000000000 ) ) ;
#295 = PRODUCT_CONTEXT ( 'NONE', #317, 'mechanical' ) ;
#296 = LINE ( 'NONE', #399, #172 ) ;
#297 = PRESENTATION_LAYER_ASSIGNMENT (  '', '', ( #368 ) ) ;
#298 = ADVANCED_FACE ( 'NONE', ( #288 ), #78, .T. ) ;
#299 = CARTESIAN_POINT ( 'NONE',  ( 0.000000000000000000, 0.000000000000000000, 0.000000000000000000 ) ) ;
#300 = ORIENTED_EDGE ( 'NONE', *, *, #21, .T. ) ;
#301 =( NAMED_UNIT ( * ) SI_UNIT ( $, .STERADIAN. ) SOLID_ANGLE_UNIT ( ) );
#302 = ORIENTED_EDGE ( 'NONE', *, *, #193, .T. ) ;
#303 = EDGE_LOOP ( 'NONE', ( #195, #234, #121, #343 ) ) ;
#304 = CARTESIAN_POINT ( 'NONE',  ( 0.000000000000000000, 0.000000000000000000, 30.00000000000000000 ) ) ;
#305 = DIRECTION ( 'NONE',  ( -0.000000000000000000, -0.000000000000000000, -1.000000000000000000 ) ) ;
#306 =( LENGTH_UNIT ( ) NAMED_UNIT ( * ) SI_UNIT ( .MILLI., .METRE. ) );
#307 = ORIENTED_EDGE ( 'NONE', *, *, #68, .T. ) ;
#308 = SHAPE_DEFINITION_REPRESENTATION ( #237, #37 ) ;
#309 = ADVANCED_FACE ( 'NONE', ( #22 ), #135, .T. ) ;
#310 = ORIENTED_EDGE ( 'NONE', *, *, #76, .T. ) ;
#311 = EDGE_LOOP ( 'NONE', ( #92, #374, #123, #4 ) ) ;
#312 = ORIENTED_EDGE ( 'NONE', *, *, #379, .F. ) ;
#313 = CARTESIAN_POINT ( 'NONE',  ( 29.50000000000000000, 3.612708057484691604E-15, 10.00000000000000000 ) ) ;
#314 = LINE ( 'NONE', #313, #42 ) ;
#315 = ADVANCED_FACE ( 'NONE', ( #326 ), #56, .T. ) ;
#316 = AXIS2_PLACEMENT_3D ( 'NONE', #319, #382, #134 ) ;
#317 = APPLICATION_CONTEXT ( 'automotive_design' ) ;
#318 = EDGE_CURVE ( 'NONE', #337, #169, #144, .T. ) ;
#319 = CARTESIAN_POINT ( 'NONE',  ( 0.000000000000000000, 0.000000000000000000, 1.999999999999980904 ) ) ;
#320 = AXIS2_PLACEMENT_3D ( 'NONE', #75, #204, #227 ) ;
#321 = VECTOR ( 'NONE', #305, 1000.000000000000000 ) ;
#322 = CARTESIAN_POINT ( 'NONE',  ( 0.000000000000000000, 0.000000000000000000, 230.0000000000000000 ) ) ;
#323 = DIRECTION ( 'NONE',  ( -1.000000000000000000, 0.000000000000000000, 0.000000000000000000 ) ) ;
#324 = DIRECTION ( 'NONE',  ( -0.000000000000000000, -0.000000000000000000, -1.000000000000000000 ) ) ;
#325 = EDGE_LOOP ( 'NONE', ( #228, #262 ) ) ;
#326 = FACE_OUTER_BOUND ( 'NONE', #277, .T. ) ;
#327 = DIRECTION ( 'NONE',  ( 0.000000000000000000, 0.000000000000000000, 1.000000000000000000 ) ) ;
#328 = CIRCLE ( 'NONE', #111, 27.49999999999996803 ) ;
#329 = VECTOR ( 'NONE', #273, 1000.000000000000000 ) ;
#330 = ADVANCED_FACE ( 'NONE', ( #333 ), #197, .T. ) ;
#331 = CARTESIAN_POINT ( 'NONE',  ( -11.82499999999997264, 0.000000000000000000, 230.0000000000000000 ) ) ;
#332 =( NAMED_UNIT ( * ) PLANE_ANGLE_UNIT ( ) SI_UNIT ( $, .RADIAN. ) );
#333 = FACE_OUTER_BOUND ( 'NONE', #114, .T. ) ;
#334 = AXIS2_PLACEMENT_3D ( 'NONE', #235, #383, #389 ) ;
#335 = DIRECTION ( 'NONE',  ( 0.000000000000000000, 0.000000000000000000, 1.000000000000000000 ) ) ;
#336 = LINE ( 'NONE', #1, #265 ) ;
#337 = VERTEX_POINT ( 'NONE', #86 ) ;
#338 = DIRECTION ( 'NONE',  ( 0.000000000000000000, 0.000000000000000000, 1.000000000000000000 ) ) ;
#339 = MANIFOLD_SOLID_BREP ( 'Chamfer2', #13 ) ;
#340 = EDGE_CURVE ( 'NONE', #7, #289, #296, .T. ) ;
#341 = PRESENTATION_STYLE_ASSIGNMENT (( #293 ) ) ;
#342 = ORIENTED_EDGE ( 'NONE', *, *, #76, .F. ) ;
#343 = ORIENTED_EDGE ( 'NONE', *, *, #340, .F. ) ;
#344 = CARTESIAN_POINT ( 'NONE',  ( 0.000000000000000000, 0.000000000000000000, 30.00000000000000000 ) ) ;
#345 = CIRCLE ( 'NONE', #91, 29.50000000000000000 ) ;
#346 = EDGE_CURVE ( 'NONE', #62, #212, #258, .T. ) ;
#347 = UNCERTAINTY_MEASURE_WITH_UNIT (LENGTH_MEASURE( 1.000000000000000082E-05 ), #306, 'distance_accuracy_value', 'NONE');
#348 = AXIS2_PLACEMENT_3D ( 'NONE', #216, #338, #64 ) ;
#349 =( GEOMETRIC_REPRESENTATION_CONTEXT ( 3 ) GLOBAL_UNCERTAINTY_ASSIGNED_CONTEXT ( ( #72 ) ) GLOBAL_UNIT_ASSIGNED_CONTEXT ( ( #141, #332, #365 ) ) REPRESENTATION_CONTEXT ( 'NONE', 'WORKASPACE' ) );
#350 = CARTESIAN_POINT ( 'NONE',  ( 0.000000000000000000, 0.000000000000000000, 0.000000000000000000 ) ) ;
#351 = DIRECTION ( 'NONE',  ( 0.7071067811865665576, 8.659560562355165819E-17, -0.7071067811865285879 ) ) ;
#352 = FACE_BOUND ( 'NONE', #398, .T. ) ;
#353 = DIRECTION ( 'NONE',  ( -0.000000000000000000, -0.000000000000000000, -1.000000000000000000 ) ) ;
#354 = CARTESIAN_POINT ( 'NONE',  ( 25.57500000000000284, 3.132034188819356226E-15, 10.00000000000000000 ) ) ;
#355 = DIRECTION ( 'NONE',  ( 1.000000000000000000, 0.000000000000000000, 0.000000000000000000 ) ) ;
#356 = EDGE_LOOP ( 'NONE', ( #70, #66 ) ) ;
#357 = DIRECTION ( 'NONE',  ( -0.000000000000000000, -0.000000000000000000, 1.000000000000000000 ) ) ;
#358 = AXIS2_PLACEMENT_3D ( 'NONE', #142, #362, #177 ) ;
#359 = CONICAL_SURFACE ( 'NONE', #190, 11.82499999999997264, 0.7853981633974751464 ) ;
#360 = LINE ( 'NONE', #143, #329 ) ;
#361 = EDGE_CURVE ( 'NONE', #156, #390, #232, .T. ) ;
#362 = DIRECTION ( 'NONE',  ( 0.000000000000000000, 0.000000000000000000, -1.000000000000000000 ) ) ;
#363 = ORIENTED_EDGE ( 'NONE', *, *, #174, .F. ) ;
#364 = FACE_OUTER_BOUND ( 'NONE', #101, .T. ) ;
#365 =( NAMED_UNIT ( * ) SI_UNIT ( $, .STERADIAN. ) SOLID_ANGLE_UNIT ( ) );
#366 = FILL_AREA_STYLE ('',( #31 ) ) ;
#367 = DIRECTION ( 'NONE',  ( -0.000000000000000000, -0.000000000000000000, -1.000000000000000000 ) ) ;
#368 = STYLED_ITEM ( 'NONE', ( #211 ), #339 ) ;
#369 = ORIENTED_EDGE ( 'NONE', *, *, #373, .F. ) ;
#370 = DIRECTION ( 'NONE',  ( -0.000000000000000000, -0.000000000000000000, -1.000000000000000000 ) ) ;
#371 = ORIENTED_EDGE ( 'NONE', *, *, #318, .F. ) ;
#372 = VERTEX_POINT ( 'NONE', #274 ) ;
#373 = EDGE_CURVE ( 'NONE', #372, #35, #122, .T. ) ;
#374 = ORIENTED_EDGE ( 'NONE', *, *, #201, .F. ) ;
#375 = VERTEX_POINT ( 'NONE', #109 ) ;
#376 = AXIS2_PLACEMENT_3D ( 'NONE', #350, #324, #104 ) ;
#377 = CARTESIAN_POINT ( 'NONE',  ( -12.82499999999999929, 0.000000000000000000, 30.00000000000000000 ) ) ;
#378 = CARTESIAN_POINT ( 'NONE',  ( 0.000000000000000000, 0.000000000000000000, 1.999999999999980904 ) ) ;
#379 = EDGE_CURVE ( 'NONE', #372, #212, #146, .T. ) ;
#380 = AXIS2_PLACEMENT_3D ( 'NONE', #106, #233, #203 ) ;
#381 = CYLINDRICAL_SURFACE ( 'NONE', #39, 25.57500000000000284 ) ;
#382 = DIRECTION ( 'NONE',  ( -0.000000000000000000, -0.000000000000000000, 1.000000000000000000 ) ) ;
#383 = DIRECTION ( 'NONE',  ( 0.000000000000000000, 0.000000000000000000, 1.000000000000000000 ) ) ;
#384 = CARTESIAN_POINT ( 'NONE',  ( -29.50000000000000000, 0.000000000000000000, 1.999999999999980904 ) ) ;
#385 = AXIS2_PLACEMENT_3D ( 'NONE', #239, #57, #180 ) ;
#386 = EDGE_CURVE ( 'NONE', #156, #169, #209, .T. ) ;
#387 = ORIENTED_EDGE ( 'NONE', *, *, #184, .T. ) ;
#388 = DIRECTION ( 'NONE',  ( 1.000000000000000000, 0.000000000000000000, 0.000000000000000000 ) ) ;
#389 = DIRECTION ( 'NONE',  ( 1.000000000000000000, 0.000000000000000000, -0.000000000000000000 ) ) ;
#390 = VERTEX_POINT ( 'NONE', #116 ) ;
#391 = EDGE_LOOP ( 'NONE', ( #312, #126, #17, #152 ) ) ;
#392 = EDGE_CURVE ( 'NONE', #337, #77, #336, .T. ) ;
#393 = DIRECTION ( 'NONE',  ( 0.000000000000000000, 0.000000000000000000, 1.000000000000000000 ) ) ;
#394 = CIRCLE ( 'NONE', #320, 25.57500000000000284 ) ;
#395 = CARTESIAN_POINT ( 'NONE',  ( 25.57500000000000284, 3.132034188819356226E-15, 30.00000000000000000 ) ) ;
#396 = FACE_OUTER_BOUND ( 'NONE', #181, .T. ) ;
#397 = CARTESIAN_POINT ( 'NONE',  ( 0.000000000000000000, 0.000000000000000000, 230.0000000000000000 ) ) ;
#398 = EDGE_LOOP ( 'NONE', ( #217, #363 ) ) ;
#399 = CARTESIAN_POINT ( 'NONE',  ( -29.50000000000000000, 0.000000000000000000, 10.00000000000000000 ) ) ;
#400 = ORIENTED_EDGE ( 'NONE', *, *, #130, .F. ) ;
ENDSEC;
END-ISO-10303-21;
