ISO-10303-21;
HEADER;
/* Generated by software containing ST-Developer
 * from STEP Tools, Inc. (www.steptools.com) 
 */

FILE_DESCRIPTION(
/* description */ ('Alibre Inc.'),
/* implementation_level */ '2;1');

FILE_NAME(
/* name */ 'export0',
/* time_stamp */ '2021-01-14T08:46:39+01:00',
/* author */ (''),
/* organization */ (''),
/* preprocessor_version */ 'ST-DEVELOPER v14',
/* originating_system */ 'Alibre',
/* authorisation */ '');

FILE_SCHEMA (('CONFIG_CONTROL_DESIGN'));
ENDSEC;

DATA;
#10=MECHANICAL_CONTEXT('detailed design',#18,'mechanical');
#11=PRODUCT_RELATED_PRODUCT_CATEGORY('d\X\E9tail','',(#98));
#12=CC_DESIGN_SECURITY_CLASSIFICATION(#14,(#97));
#13=SECURITY_CLASSIFICATION_LEVEL('unclassified');
#14=SECURITY_CLASSIFICATION('nom','Niveau de s\X\E9curit\X\E9 pour la v
ersion',#13);
#15=SHAPE_DEFINITION_REPRESENTATION(#16,#525);
#16=PRODUCT_DEFINITION_SHAPE('','Desc. D\X\E9finition',#96);
#17=APPLICATION_PROTOCOL_DEFINITION('AP definition status',
'config_control_design',1994,#18);
#18=APPLICATION_CONTEXT(
'control the configuration of three dimensional design');
#19=DESIGN_CONTEXT('detailed design',#18,'design');
#20=PERSON_AND_ORGANIZATION_ROLE('creator');
#21=PERSON_AND_ORGANIZATION_ROLE('classification_officer');
#22=PERSON_AND_ORGANIZATION_ROLE('creator');
#23=PERSON_AND_ORGANIZATION_ROLE('design_supplier');
#24=PERSON_AND_ORGANIZATION_ROLE('design_owner');
#25=CC_DESIGN_PERSON_AND_ORGANIZATION_ASSIGNMENT(#57,#20,(#96));
#26=CC_DESIGN_PERSON_AND_ORGANIZATION_ASSIGNMENT(#60,#21,(#14));
#27=CC_DESIGN_PERSON_AND_ORGANIZATION_ASSIGNMENT(#61,#22,(#97));
#28=CC_DESIGN_PERSON_AND_ORGANIZATION_ASSIGNMENT(#62,#23,(#97));
#29=CC_DESIGN_PERSON_AND_ORGANIZATION_ASSIGNMENT(#63,#24,(#98));
#30=DATE_TIME_ROLE('creation_date');
#31=DATE_TIME_ROLE('classification_date');
#32=CC_DESIGN_DATE_AND_TIME_ASSIGNMENT(#86,#30,(#96));
#33=CC_DESIGN_DATE_AND_TIME_ASSIGNMENT(#89,#31,(#14));
#34=CC_DESIGN_APPROVAL(#93,(#96));
#35=CC_DESIGN_APPROVAL(#94,(#97));
#36=CC_DESIGN_APPROVAL(#95,(#14));
#37=APPROVAL_PERSON_ORGANIZATION(#56,#93,#64);
#38=APPROVAL_PERSON_ORGANIZATION(#58,#94,#65);
#39=APPROVAL_PERSON_ORGANIZATION(#59,#95,#66);
#40=ORGANIZATION('DEFINITION_APPROVEDBY_ORG_ID',
'DEFINITION_APPROVEDBY_ORG_NAME','DEFINITION_APPROVEDBY_ORG_DESCR');
#41=ORGANIZATION('DEF_CREATOR_ORG_ID','DEF_CREATOR_ORG_NAME',
'DEF_CREATOR_ORG_DESCR');
#42=ORGANIZATION('ID_ORG_APPROBATEUR','NOM_ORG_APPROBATEUR',
'DESCR_ORG_APPROBATEUR');
#43=ORGANIZATION('SECURITY_APPROVEDBY_ORG_ID',
'SECURITY_APPROVEDBY_ORG_NAME','SECURITY_APPROVEDBY_ORG_DESCR');
#44=ORGANIZATION('CLASSOFFICER_ORG_ID','CLASSOFFICER_ORG_NAME',
'CLASSOFFICER_ORG_DESCR');
#45=ORGANIZATION('CODE_SOCIETE_CREATEUR','NOM_SOCIETE_CREATEUR',
'DESCRIPTION_SOCIETE_CREATEUR');
#46=ORGANIZATION('SUPPLIER_ORG_ID','SUPPLIER_ORG_NAME',
'SUPPLIER_ORG_DESCR');
#47=ORGANIZATION('PROPRIETAIRE_SOCIETE_ID','PROPRIETAIRE_SOCIETE_NOM',
'PROPRIETAIRE_SOCIETE_DESCRIPTION');
#48=PERSON('ID_Validateur D\X\E9finition',
'DEFINITION_APPROVEDBY_LASTNAME','DEFINITION_APPROVEDBY_FIRSTNAME',$,$,$);
#49=PERSON('DEF_createrID','DEF_CREATOR_LASTNAME',
'DEF_CREATOR_FIRSTNAME',$,$,$);
#50=PERSON('ID Validateur','NOM_APPROBATEUR','PRENOM_APPROBATEUR',$,$,$);
#51=PERSON('SECURITY_approverID','SECURITY_LASTNAME',
'SECURITY_APPROVEDBY_FIRSTNAME',$,$,$);
#52=PERSON('classifierID','CLASSOFFICER_LASTNAME',
'CLASSOFFICER_FIRSTNAME',$,$,$);
#53=PERSON('Code cr\X\E9ateur','NOM_CREATEUR','PRENOM_CREATEUR',$,$,$);
#54=PERSON('Code fournisseur','SUPPLIER_LASTNAME','SUPPLIER_FIRSTNAME',$,
$,$);
#55=PERSON('ID propri\X\E9taire','PROPRIETAIRE_NOM',
'PROPRIETAIRE_PRENOM',$,$,$);
#56=PERSON_AND_ORGANIZATION(#48,#40);
#57=PERSON_AND_ORGANIZATION(#49,#41);
#58=PERSON_AND_ORGANIZATION(#50,#42);
#59=PERSON_AND_ORGANIZATION(#51,#43);
#60=PERSON_AND_ORGANIZATION(#52,#44);
#61=PERSON_AND_ORGANIZATION(#53,#45);
#62=PERSON_AND_ORGANIZATION(#54,#46);
#63=PERSON_AND_ORGANIZATION(#55,#47);
#64=APPROVAL_ROLE('definition_approval');
#65=APPROVAL_ROLE('version_approval');
#66=APPROVAL_ROLE('security_approval');
#67=APPROVAL_DATE_TIME(#85,#93);
#68=APPROVAL_DATE_TIME(#87,#94);
#69=APPROVAL_DATE_TIME(#88,#95);
#70=COORDINATED_UNIVERSAL_TIME_OFFSET(1,0,.AHEAD.);
#71=COORDINATED_UNIVERSAL_TIME_OFFSET(1,0,.AHEAD.);
#72=COORDINATED_UNIVERSAL_TIME_OFFSET(1,0,.AHEAD.);
#73=COORDINATED_UNIVERSAL_TIME_OFFSET(1,0,.AHEAD.);
#74=COORDINATED_UNIVERSAL_TIME_OFFSET(1,0,.AHEAD.);
#75=LOCAL_TIME(15,5,55.,#70);
#76=LOCAL_TIME(15,5,55.,#71);
#77=LOCAL_TIME(15,5,55.,#72);
#78=LOCAL_TIME(15,5,55.,#73);
#79=LOCAL_TIME(15,5,55.,#74);
#80=CALENDAR_DATE(2021,5,1);
#81=CALENDAR_DATE(2021,5,1);
#82=CALENDAR_DATE(2021,5,1);
#83=CALENDAR_DATE(2021,5,1);
#84=CALENDAR_DATE(2021,5,1);
#85=DATE_AND_TIME(#80,#75);
#86=DATE_AND_TIME(#81,#76);
#87=DATE_AND_TIME(#82,#77);
#88=DATE_AND_TIME(#83,#78);
#89=DATE_AND_TIME(#84,#79);
#90=APPROVAL_STATUS('not_yet_approved');
#91=APPROVAL_STATUS('not_yet_approved');
#92=APPROVAL_STATUS('not_yet_approved');
#93=APPROVAL(#90,'Concept valid\X\E9');
#94=APPROVAL(#91,'version approuv\X\E9e');
#95=APPROVAL(#92,'security approval');
#96=PRODUCT_DEFINITION('ID D\X\E9finition','Desc. D\X\E9finition',#97,#19);
#97=PRODUCT_DEFINITION_FORMATION_WITH_SPECIFIED_SOURCE(
'REFERENCE_PRODUIT','DESCR_VERSION_PRODUIT',#98,.NOT_KNOWN.);
#98=PRODUCT('ID_1','CAPOT BOL MIXER','',(#10));
#99=(
LENGTH_UNIT()
NAMED_UNIT(*)
SI_UNIT(.CENTI.,.METRE.)
);
#100=(
NAMED_UNIT(*)
PLANE_ANGLE_UNIT()
SI_UNIT($,.RADIAN.)
);
#101=(
NAMED_UNIT(*)
SI_UNIT($,.STERADIAN.)
SOLID_ANGLE_UNIT()
);
#102=UNCERTAINTY_MEASURE_WITH_UNIT(LENGTH_MEASURE(1.E-006),#99,
'DISTANCE_ACCURACY_VALUE',
'Maximum model space distance between geometric entities at asserted co
nnectivities');
#103=(
GEOMETRIC_REPRESENTATION_CONTEXT(3)
GLOBAL_UNCERTAINTY_ASSIGNED_CONTEXT((#102))
GLOBAL_UNIT_ASSIGNED_CONTEXT((#101,#100,#99))
REPRESENTATION_CONTEXT('ID1','3D')
);
#104=VECTOR('',#348,1.);
#105=VECTOR('',#349,1.);
#106=VECTOR('',#350,1.);
#107=VECTOR('',#351,1.);
#108=VECTOR('',#353,1.);
#109=VECTOR('',#354,1.);
#110=VECTOR('',#355,1.);
#111=VECTOR('',#357,1.);
#112=VECTOR('',#358,1.);
#113=VECTOR('',#359,1.);
#114=LINE('',#471,#104);
#115=LINE('',#474,#105);
#116=LINE('',#476,#106);
#117=LINE('',#478,#107);
#118=LINE('',#480,#108);
#119=LINE('',#483,#109);
#120=LINE('',#484,#110);
#121=LINE('',#486,#111);
#122=LINE('',#489,#112);
#123=LINE('',#490,#113);
#124=PLANE('',#313);
#125=PLANE('',#316);
#126=PLANE('',#317);
#127=PLANE('',#318);
#128=PLANE('',#319);
#129=PLANE('',#320);
#130=PLANE('',#336);
#131=CIRCLE('',#312,0.24585);
#132=CIRCLE('',#315,0.24585);
#133=CIRCLE('',#321,5.);
#134=CIRCLE('',#322,0.4);
#135=CIRCLE('',#323,0.65);
#136=CIRCLE('',#324,0.65);
#137=CIRCLE('',#325,0.4);
#138=CIRCLE('',#327,5.);
#139=CIRCLE('',#329,0.4);
#140=CIRCLE('',#331,0.65);
#141=CIRCLE('',#333,0.65);
#142=CIRCLE('',#335,0.4);
#143=VERTEX_POINT('',#427);
#144=VERTEX_POINT('',#429);
#145=VERTEX_POINT('',#466);
#146=VERTEX_POINT('',#468);
#147=VERTEX_POINT('',#472);
#148=VERTEX_POINT('',#473);
#149=VERTEX_POINT('',#475);
#150=VERTEX_POINT('',#477);
#151=VERTEX_POINT('',#481);
#152=VERTEX_POINT('',#482);
#153=VERTEX_POINT('',#487);
#154=VERTEX_POINT('',#488);
#155=VERTEX_POINT('',#494);
#156=VERTEX_POINT('',#496);
#157=VERTEX_POINT('',#498);
#158=VERTEX_POINT('',#500);
#159=VERTEX_POINT('',#505);
#160=VERTEX_POINT('',#508);
#161=VERTEX_POINT('',#511);
#162=VERTEX_POINT('',#514);
#163=B_SPLINE_CURVE_WITH_KNOTS('',3,(#393,#394,#395,#396,#397,#398,#399,
#400,#401,#402,#403,#404,#405,#406,#407,#408,#409,#410,#411,#412,#413,#414,
#415,#416,#417,#418,#419,#420,#421,#422,#423,#424,#425,#426),
 .UNSPECIFIED.,.T.,.U.,(4,2,2,2,2,2,2,2,2,2,2,2,2,2,2,2,4),(0.,0.0926130773719894,
0.185226154743979,0.277860448564663,0.370494742385347,0.463275170179291,
0.556055597973236,0.648683378241982,0.741311158510729,0.833938938779475,
0.926566719048222,1.01934714684217,1.11212757463611,1.20476186845679,1.29739616227748,
1.39000923964947,1.48262231702146),.UNSPECIFIED.);
#164=B_SPLINE_CURVE_WITH_KNOTS('',3,(#432,#433,#434,#435,#436,#437,#438,
#439,#440,#441,#442,#443,#444,#445,#446,#447,#448,#449,#450,#451,#452,#453,
#454,#455,#456,#457,#458,#459,#460,#461,#462,#463,#464,#465),
 .UNSPECIFIED.,.T.,.U.,(4,2,2,2,2,2,2,2,2,2,2,2,2,2,2,2,4),(0.,0.0926277802687467,
0.185255560537493,0.278035988331437,0.370816416125382,0.463450709946066,
0.55608500376675,0.64869808113874,0.741311158510729,0.833924235882718,0.926537313254708,
1.01917160707539,1.11180590089608,1.20458632869002,1.29736675648396,1.38999453675271,
1.48262231702146),.UNSPECIFIED.);
#165=EDGE_CURVE('',#143,#143,#163,.T.);
#166=EDGE_CURVE('',#144,#144,#131,.T.);
#167=EDGE_CURVE('',#145,#145,#164,.T.);
#168=EDGE_CURVE('',#146,#146,#132,.T.);
#169=EDGE_CURVE('',#147,#148,#114,.T.);
#170=EDGE_CURVE('',#149,#147,#115,.T.);
#171=EDGE_CURVE('',#150,#149,#116,.T.);
#172=EDGE_CURVE('',#150,#148,#117,.T.);
#173=EDGE_CURVE('',#151,#152,#118,.T.);
#174=EDGE_CURVE('',#148,#151,#119,.T.);
#175=EDGE_CURVE('',#152,#150,#120,.T.);
#176=EDGE_CURVE('',#153,#154,#121,.T.);
#177=EDGE_CURVE('',#149,#153,#122,.T.);
#178=EDGE_CURVE('',#154,#147,#123,.T.);
#179=EDGE_CURVE('',#152,#153,#133,.T.);
#180=EDGE_CURVE('',#155,#155,#134,.T.);
#181=EDGE_CURVE('',#156,#156,#135,.T.);
#182=EDGE_CURVE('',#157,#157,#136,.T.);
#183=EDGE_CURVE('',#158,#158,#137,.T.);
#184=EDGE_CURVE('',#154,#151,#138,.T.);
#185=EDGE_CURVE('',#159,#159,#139,.T.);
#186=EDGE_CURVE('',#160,#160,#140,.T.);
#187=EDGE_CURVE('',#161,#161,#141,.T.);
#188=EDGE_CURVE('',#162,#162,#142,.T.);
#189=ORIENTED_EDGE('',*,*,#165,.F.);
#190=ORIENTED_EDGE('',*,*,#166,.F.);
#191=ORIENTED_EDGE('',*,*,#166,.T.);
#192=ORIENTED_EDGE('',*,*,#167,.F.);
#193=ORIENTED_EDGE('',*,*,#168,.F.);
#194=ORIENTED_EDGE('',*,*,#168,.T.);
#195=ORIENTED_EDGE('',*,*,#169,.F.);
#196=ORIENTED_EDGE('',*,*,#170,.F.);
#197=ORIENTED_EDGE('',*,*,#171,.F.);
#198=ORIENTED_EDGE('',*,*,#172,.T.);
#199=ORIENTED_EDGE('',*,*,#173,.F.);
#200=ORIENTED_EDGE('',*,*,#174,.F.);
#201=ORIENTED_EDGE('',*,*,#172,.F.);
#202=ORIENTED_EDGE('',*,*,#175,.F.);
#203=ORIENTED_EDGE('',*,*,#176,.F.);
#204=ORIENTED_EDGE('',*,*,#177,.F.);
#205=ORIENTED_EDGE('',*,*,#170,.T.);
#206=ORIENTED_EDGE('',*,*,#178,.F.);
#207=ORIENTED_EDGE('',*,*,#175,.T.);
#208=ORIENTED_EDGE('',*,*,#171,.T.);
#209=ORIENTED_EDGE('',*,*,#177,.T.);
#210=ORIENTED_EDGE('',*,*,#179,.F.);
#211=ORIENTED_EDGE('',*,*,#180,.T.);
#212=ORIENTED_EDGE('',*,*,#181,.T.);
#213=ORIENTED_EDGE('',*,*,#182,.T.);
#214=ORIENTED_EDGE('',*,*,#183,.T.);
#215=ORIENTED_EDGE('',*,*,#165,.T.);
#216=ORIENTED_EDGE('',*,*,#167,.T.);
#217=ORIENTED_EDGE('',*,*,#173,.T.);
#218=ORIENTED_EDGE('',*,*,#179,.T.);
#219=ORIENTED_EDGE('',*,*,#176,.T.);
#220=ORIENTED_EDGE('',*,*,#184,.T.);
#221=ORIENTED_EDGE('',*,*,#185,.T.);
#222=ORIENTED_EDGE('',*,*,#180,.F.);
#223=ORIENTED_EDGE('',*,*,#186,.T.);
#224=ORIENTED_EDGE('',*,*,#181,.F.);
#225=ORIENTED_EDGE('',*,*,#187,.T.);
#226=ORIENTED_EDGE('',*,*,#182,.F.);
#227=ORIENTED_EDGE('',*,*,#188,.T.);
#228=ORIENTED_EDGE('',*,*,#183,.F.);
#229=ORIENTED_EDGE('',*,*,#174,.T.);
#230=ORIENTED_EDGE('',*,*,#184,.F.);
#231=ORIENTED_EDGE('',*,*,#178,.T.);
#232=ORIENTED_EDGE('',*,*,#169,.T.);
#233=ORIENTED_EDGE('',*,*,#188,.F.);
#234=ORIENTED_EDGE('',*,*,#187,.F.);
#235=ORIENTED_EDGE('',*,*,#186,.F.);
#236=ORIENTED_EDGE('',*,*,#185,.F.);
#237=EDGE_LOOP('',(#189));
#238=EDGE_LOOP('',(#190));
#239=EDGE_LOOP('',(#191));
#240=EDGE_LOOP('',(#192));
#241=EDGE_LOOP('',(#193));
#242=EDGE_LOOP('',(#194));
#243=EDGE_LOOP('',(#195,#196,#197,#198));
#244=EDGE_LOOP('',(#199,#200,#201,#202));
#245=EDGE_LOOP('',(#203,#204,#205,#206));
#246=EDGE_LOOP('',(#207,#208,#209,#210));
#247=EDGE_LOOP('',(#211));
#248=EDGE_LOOP('',(#212));
#249=EDGE_LOOP('',(#213));
#250=EDGE_LOOP('',(#214));
#251=EDGE_LOOP('',(#215));
#252=EDGE_LOOP('',(#216));
#253=EDGE_LOOP('',(#217,#218,#219,#220));
#254=EDGE_LOOP('',(#221));
#255=EDGE_LOOP('',(#222));
#256=EDGE_LOOP('',(#223));
#257=EDGE_LOOP('',(#224));
#258=EDGE_LOOP('',(#225));
#259=EDGE_LOOP('',(#226));
#260=EDGE_LOOP('',(#227));
#261=EDGE_LOOP('',(#228));
#262=EDGE_LOOP('',(#229,#230,#231,#232));
#263=EDGE_LOOP('',(#233));
#264=EDGE_LOOP('',(#234));
#265=EDGE_LOOP('',(#235));
#266=EDGE_LOOP('',(#236));
#267=FACE_BOUND('',#237,.T.);
#268=FACE_BOUND('',#238,.T.);
#269=FACE_BOUND('',#239,.T.);
#270=FACE_BOUND('',#240,.T.);
#271=FACE_BOUND('',#241,.T.);
#272=FACE_BOUND('',#242,.T.);
#273=FACE_BOUND('',#243,.T.);
#274=FACE_BOUND('',#244,.T.);
#275=FACE_BOUND('',#245,.T.);
#276=FACE_BOUND('',#246,.T.);
#277=FACE_BOUND('',#247,.T.);
#278=FACE_BOUND('',#248,.T.);
#279=FACE_BOUND('',#249,.T.);
#280=FACE_BOUND('',#250,.T.);
#281=FACE_BOUND('',#251,.T.);
#282=FACE_BOUND('',#252,.T.);
#283=FACE_BOUND('',#253,.T.);
#284=FACE_BOUND('',#254,.T.);
#285=FACE_BOUND('',#255,.T.);
#286=FACE_BOUND('',#256,.T.);
#287=FACE_BOUND('',#257,.T.);
#288=FACE_BOUND('',#258,.T.);
#289=FACE_BOUND('',#259,.T.);
#290=FACE_BOUND('',#260,.T.);
#291=FACE_BOUND('',#261,.T.);
#292=FACE_BOUND('',#262,.T.);
#293=FACE_BOUND('',#263,.T.);
#294=FACE_BOUND('',#264,.T.);
#295=FACE_BOUND('',#265,.T.);
#296=FACE_BOUND('',#266,.T.);
#297=ADVANCED_FACE('',(#267,#268),#516,.F.);
#298=ADVANCED_FACE('',(#269),#124,.F.);
#299=ADVANCED_FACE('',(#270,#271),#517,.F.);
#300=ADVANCED_FACE('',(#272),#125,.F.);
#301=ADVANCED_FACE('',(#273),#126,.F.);
#302=ADVANCED_FACE('',(#274),#127,.F.);
#303=ADVANCED_FACE('',(#275),#128,.F.);
#304=ADVANCED_FACE('',(#276,#277,#278,#279,#280),#129,.F.);
#305=ADVANCED_FACE('',(#281,#282,#283),#518,.T.);
#306=ADVANCED_FACE('',(#284,#285),#519,.F.);
#307=ADVANCED_FACE('',(#286,#287),#520,.F.);
#308=ADVANCED_FACE('',(#288,#289),#521,.F.);
#309=ADVANCED_FACE('',(#290,#291),#522,.F.);
#310=ADVANCED_FACE('',(#292,#293,#294,#295,#296),#130,.T.);
#311=AXIS2_PLACEMENT_3D('',#392,#337,#338);
#312=AXIS2_PLACEMENT_3D('',#428,#339,#340);
#313=AXIS2_PLACEMENT_3D('',#430,#341,$);
#314=AXIS2_PLACEMENT_3D('',#431,#342,#343);
#315=AXIS2_PLACEMENT_3D('',#467,#344,#345);
#316=AXIS2_PLACEMENT_3D('',#469,#346,$);
#317=AXIS2_PLACEMENT_3D('',#470,#347,$);
#318=AXIS2_PLACEMENT_3D('',#479,#352,$);
#319=AXIS2_PLACEMENT_3D('',#485,#356,$);
#320=AXIS2_PLACEMENT_3D('',#491,#360,$);
#321=AXIS2_PLACEMENT_3D('',#492,#361,#362);
#322=AXIS2_PLACEMENT_3D('',#493,#363,#364);
#323=AXIS2_PLACEMENT_3D('',#495,#365,#366);
#324=AXIS2_PLACEMENT_3D('',#497,#367,#368);
#325=AXIS2_PLACEMENT_3D('',#499,#369,#370);
#326=AXIS2_PLACEMENT_3D('',#501,#371,#372);
#327=AXIS2_PLACEMENT_3D('',#502,#373,#374);
#328=AXIS2_PLACEMENT_3D('',#503,#375,#376);
#329=AXIS2_PLACEMENT_3D('',#504,#377,#378);
#330=AXIS2_PLACEMENT_3D('',#506,#379,#380);
#331=AXIS2_PLACEMENT_3D('',#507,#381,#382);
#332=AXIS2_PLACEMENT_3D('',#509,#383,#384);
#333=AXIS2_PLACEMENT_3D('',#510,#385,#386);
#334=AXIS2_PLACEMENT_3D('',#512,#387,#388);
#335=AXIS2_PLACEMENT_3D('',#513,#389,#390);
#336=AXIS2_PLACEMENT_3D('',#515,#391,$);
#337=DIRECTION('',(0.965925826289068,0.258819045102521,0.));
#338=DIRECTION('',(0.,0.,0.24585));
#339=DIRECTION('',(-0.965925826289068,-0.258819045102521,0.));
#340=DIRECTION('',(0.,0.,0.24585));
#341=DIRECTION('',(0.965925826289068,0.258819045102521,0.));
#342=DIRECTION('',(-0.965925826289068,0.258819045102521,0.));
#343=DIRECTION('',(0.,0.,-0.24585));
#344=DIRECTION('',(0.965925826289068,-0.258819045102521,0.));
#345=DIRECTION('',(0.,0.,-0.24585));
#346=DIRECTION('',(-0.965925826289068,0.258819045102521,0.));
#347=DIRECTION('',(0.,-1.,0.));
#348=DIRECTION('',(-1.,0.,0.));
#349=DIRECTION('',(0.,0.,1.));
#350=DIRECTION('',(1.,0.,0.));
#351=DIRECTION('',(0.,0.,1.));
#352=DIRECTION('',(-1.,0.,0.));
#353=DIRECTION('',(0.,0.,-1.));
#354=DIRECTION('',(0.,1.,0.));
#355=DIRECTION('',(0.,-1.,0.));
#356=DIRECTION('',(1.,0.,0.));
#357=DIRECTION('',(0.,0.,1.));
#358=DIRECTION('',(0.,1.,0.));
#359=DIRECTION('',(0.,-1.,0.));
#360=DIRECTION('',(0.,0.,1.));
#361=DIRECTION('',(0.,0.,1.));
#362=DIRECTION('',(5.,0.,0.));
#363=DIRECTION('',(0.,0.,1.));
#364=DIRECTION('',(0.4,0.,0.));
#365=DIRECTION('',(0.,0.,1.));
#366=DIRECTION('',(0.65,0.,0.));
#367=DIRECTION('',(0.,0.,1.));
#368=DIRECTION('',(0.65,0.,0.));
#369=DIRECTION('',(0.,0.,1.));
#370=DIRECTION('',(0.4,0.,0.));
#371=DIRECTION('',(0.,0.,1.));
#372=DIRECTION('',(5.,0.,0.));
#373=DIRECTION('',(0.,0.,-1.));
#374=DIRECTION('',(5.,0.,0.));
#375=DIRECTION('',(0.,0.,1.));
#376=DIRECTION('',(0.4,0.,0.));
#377=DIRECTION('',(0.,0.,1.));
#378=DIRECTION('',(0.4,0.,0.));
#379=DIRECTION('',(0.,0.,1.));
#380=DIRECTION('',(0.65,0.,0.));
#381=DIRECTION('',(0.,0.,1.));
#382=DIRECTION('',(0.65,0.,0.));
#383=DIRECTION('',(0.,0.,1.));
#384=DIRECTION('',(0.65,0.,0.));
#385=DIRECTION('',(0.,0.,1.));
#386=DIRECTION('',(0.65,0.,0.));
#387=DIRECTION('',(0.,0.,1.));
#388=DIRECTION('',(0.4,0.,0.));
#389=DIRECTION('',(0.,0.,1.));
#390=DIRECTION('',(0.4,0.,0.));
#391=DIRECTION('',(0.,0.,1.));
#392=CARTESIAN_POINT('',(-4.80495659760403,-1.50065254845411,0.5));
#393=CARTESIAN_POINT('',(-4.83981358895232,-1.25546980218264,0.5));
#394=CARTESIAN_POINT('',(-4.83981358895232,-1.25546980218264,0.530871025790663));
#395=CARTESIAN_POINT('',(-4.83827584774975,-1.26144529208933,0.563799476527665));
#396=CARTESIAN_POINT('',(-4.8318844911046,-1.28570979169501,0.624373767931531));
#397=CARTESIAN_POINT('',(-4.82701509309491,-1.30399457120881,0.652019636738472));
#398=CARTESIAN_POINT('',(-4.81544346075159,-1.34609845307874,0.695681001100197));
#399=CARTESIAN_POINT('',(-4.8079670063086,-1.3727239588179,0.714602600015115));
#400=CARTESIAN_POINT('',(-4.79097981505985,-1.43088441621249,0.739686932553804));
#401=CARTESIAN_POINT('',(-4.78145342409201,-1.46241465055956,0.74585));
#402=CARTESIAN_POINT('',(-4.76301224658518,-1.52140422189861,0.74585));
#403=CARTESIAN_POINT('',(-4.75286831793327,-1.55279225340494,0.739669532852443));
#404=CARTESIAN_POINT('',(-4.73366887263278,-1.61037263828301,0.714555968381155));
#405=CARTESIAN_POINT('',(-4.72462873490631,-1.63657037264774,0.69562345398245));
#406=CARTESIAN_POINT('',(-4.71012856829222,-1.67784580988566,0.651969569520116));
#407=CARTESIAN_POINT('',(-4.70369897016187,-1.69569289304843,0.62434592891637));
#408=CARTESIAN_POINT('',(-4.69510310666809,-1.71935022828646,0.563799584099604));
#409=CARTESIAN_POINT('',(-4.69295315280971,-1.72516396482578,0.530875926756249));
#410=CARTESIAN_POINT('',(-4.69295315280971,-1.72516396482578,0.469124073243751));
#411=CARTESIAN_POINT('',(-4.69510310666809,-1.71935022828646,0.436200415900396));
#412=CARTESIAN_POINT('',(-4.70369897016187,-1.69569289304843,0.37565407108363));
#413=CARTESIAN_POINT('',(-4.71012856829222,-1.67784580988566,0.348030430479884));
#414=CARTESIAN_POINT('',(-4.72462873490631,-1.63657037264774,0.30437654601755));
#415=CARTESIAN_POINT('',(-4.73366887263278,-1.61037263828301,0.285444031618845));
#416=CARTESIAN_POINT('',(-4.75286831793327,-1.55279225340494,0.260330467147557));
#417=CARTESIAN_POINT('',(-4.76301224658518,-1.52140422189861,0.25415));
#418=CARTESIAN_POINT('',(-4.78145342409201,-1.46241465055956,0.25415));
#419=CARTESIAN_POINT('',(-4.79097981505985,-1.43088441621249,0.260313067446196));
#420=CARTESIAN_POINT('',(-4.8079670063086,-1.3727239588179,0.285397399984885));
#421=CARTESIAN_POINT('',(-4.81544346075159,-1.34609845307874,0.304318998899803));
#422=CARTESIAN_POINT('',(-4.82701509309491,-1.30399457120881,0.347980363261528));
#423=CARTESIAN_POINT('',(-4.8318844911046,-1.28570979169501,0.375626232068469));
#424=CARTESIAN_POINT('',(-4.83827584774975,-1.26144529208933,0.436200523472335));
#425=CARTESIAN_POINT('',(-4.83981358895232,-1.25546980218264,0.469128974209337));
#426=CARTESIAN_POINT('',(-4.83981358895232,-1.25546980218264,0.5));
#427=CARTESIAN_POINT('',(-4.83981358895231,-1.25546980218264,0.5));
#428=CARTESIAN_POINT('',(-3.54925302342824,-1.16418778982083,0.5));
#429=CARTESIAN_POINT('',(-3.54925302342824,-1.16418778982083,0.74585));
#430=CARTESIAN_POINT('',(-3.54925302342824,-1.16418778982083,0.5));
#431=CARTESIAN_POINT('',(4.80495659760403,-1.50065254845411,0.5));
#432=CARTESIAN_POINT('',(4.69295315280971,-1.72516396482578,0.5));
#433=CARTESIAN_POINT('',(4.69295315280971,-1.72516396482578,0.530875926756249));
#434=CARTESIAN_POINT('',(4.69510310666809,-1.71935022828646,0.563799584099604));
#435=CARTESIAN_POINT('',(4.70369897016187,-1.69569289304843,0.62434592891637));
#436=CARTESIAN_POINT('',(4.71012856829222,-1.67784580988566,0.651969569520116));
#437=CARTESIAN_POINT('',(4.72462873490631,-1.63657037264774,0.69562345398245));
#438=CARTESIAN_POINT('',(4.73366887263278,-1.61037263828301,0.714555968381155));
#439=CARTESIAN_POINT('',(4.75286831793327,-1.55279225340494,0.739669532852443));
#440=CARTESIAN_POINT('',(4.76301224658518,-1.52140422189861,0.74585));
#441=CARTESIAN_POINT('',(4.78145342409201,-1.46241465055956,0.74585));
#442=CARTESIAN_POINT('',(4.79097981505985,-1.43088441621249,0.739686932553804));
#443=CARTESIAN_POINT('',(4.8079670063086,-1.3727239588179,0.714602600015115));
#444=CARTESIAN_POINT('',(4.81544346075159,-1.34609845307874,0.695681001100197));
#445=CARTESIAN_POINT('',(4.82701509309491,-1.30399457120881,0.652019636738472));
#446=CARTESIAN_POINT('',(4.8318844911046,-1.28570979169501,0.624373767931531));
#447=CARTESIAN_POINT('',(4.83827584774975,-1.26144529208933,0.563799476527665));
#448=CARTESIAN_POINT('',(4.83981358895232,-1.25546980218264,0.530871025790663));
#449=CARTESIAN_POINT('',(4.83981358895232,-1.25546980218264,0.469128974209337));
#450=CARTESIAN_POINT('',(4.83827584774975,-1.26144529208933,0.436200523472335));
#451=CARTESIAN_POINT('',(4.8318844911046,-1.28570979169501,0.375626232068469));
#452=CARTESIAN_POINT('',(4.82701509309491,-1.30399457120881,0.347980363261528));
#453=CARTESIAN_POINT('',(4.81544346075159,-1.34609845307874,0.304318998899803));
#454=CARTESIAN_POINT('',(4.8079670063086,-1.3727239588179,0.285397399984885));
#455=CARTESIAN_POINT('',(4.79097981505985,-1.43088441621249,0.260313067446196));
#456=CARTESIAN_POINT('',(4.78145342409201,-1.46241465055956,0.25415));
#457=CARTESIAN_POINT('',(4.76301224658518,-1.52140422189861,0.25415));
#458=CARTESIAN_POINT('',(4.75286831793327,-1.55279225340494,0.260330467147557));
#459=CARTESIAN_POINT('',(4.73366887263278,-1.61037263828301,0.285444031618845));
#460=CARTESIAN_POINT('',(4.72462873490631,-1.63657037264774,0.30437654601755));
#461=CARTESIAN_POINT('',(4.71012856829222,-1.67784580988566,0.348030430479884));
#462=CARTESIAN_POINT('',(4.70369897016187,-1.69569289304843,0.37565407108363));
#463=CARTESIAN_POINT('',(4.69510310666809,-1.71935022828646,0.436200415900396));
#464=CARTESIAN_POINT('',(4.69295315280971,-1.72516396482578,0.469124073243751));
#465=CARTESIAN_POINT('',(4.69295315280971,-1.72516396482578,0.5));
#466=CARTESIAN_POINT('',(4.69295315280971,-1.72516396482578,0.5));
#467=CARTESIAN_POINT('',(3.54925302342824,-1.16418778982083,0.5));
#468=CARTESIAN_POINT('',(3.54925302342824,-1.16418778982083,0.25415));
#469=CARTESIAN_POINT('',(3.54925302342824,-1.16418778982083,0.5));
#470=CARTESIAN_POINT('',(0.,3.95,0.));
#471=CARTESIAN_POINT('',(0.,3.95,1.));
#472=CARTESIAN_POINT('',(3.05,3.95,1.));
#473=CARTESIAN_POINT('',(-3.05,3.95,1.));
#474=CARTESIAN_POINT('',(3.05,3.95,0.));
#475=CARTESIAN_POINT('',(3.05,3.95,0.));
#476=CARTESIAN_POINT('',(0.,3.95,0.));
#477=CARTESIAN_POINT('',(-3.05,3.95,0.));
#478=CARTESIAN_POINT('',(-3.05,3.95,0.));
#479=CARTESIAN_POINT('',(-3.05,4.475,0.));
#480=CARTESIAN_POINT('',(-3.05,3.96200706713151,0.5));
#481=CARTESIAN_POINT('',(-3.05,3.96200706713151,1.));
#482=CARTESIAN_POINT('',(-3.05,3.96200706713151,0.));
#483=CARTESIAN_POINT('',(-3.05,2.2375,1.));
#484=CARTESIAN_POINT('',(-3.05,2.2375,0.));
#485=CARTESIAN_POINT('',(3.05,4.475,0.));
#486=CARTESIAN_POINT('',(3.05,3.96200706713151,0.5));
#487=CARTESIAN_POINT('',(3.05,3.96200706713151,0.));
#488=CARTESIAN_POINT('',(3.05,3.96200706713151,1.));
#489=CARTESIAN_POINT('',(3.05,2.2375,0.));
#490=CARTESIAN_POINT('',(3.05,2.2375,1.));
#491=CARTESIAN_POINT('',(0.,0.,0.));
#492=CARTESIAN_POINT('',(0.,0.,0.));
#493=CARTESIAN_POINT('',(-4.,0.,0.));
#494=CARTESIAN_POINT('',(-3.6,0.,0.));
#495=CARTESIAN_POINT('',(-1.5,0.,0.));
#496=CARTESIAN_POINT('',(-0.85,0.,0.));
#497=CARTESIAN_POINT('',(1.5,0.,0.));
#498=CARTESIAN_POINT('',(2.15,0.,0.));
#499=CARTESIAN_POINT('',(4.,0.,0.));
#500=CARTESIAN_POINT('',(4.4,0.,0.));
#501=CARTESIAN_POINT('',(0.,0.,0.));
#502=CARTESIAN_POINT('',(0.,0.,1.));
#503=CARTESIAN_POINT('',(-4.,0.,0.));
#504=CARTESIAN_POINT('',(-4.,0.,1.));
#505=CARTESIAN_POINT('',(-3.6,0.,1.));
#506=CARTESIAN_POINT('',(-1.5,0.,0.));
#507=CARTESIAN_POINT('',(-1.5,0.,1.));
#508=CARTESIAN_POINT('',(-0.85,0.,1.));
#509=CARTESIAN_POINT('',(1.5,0.,0.));
#510=CARTESIAN_POINT('',(1.5,0.,1.));
#511=CARTESIAN_POINT('',(2.15,0.,1.));
#512=CARTESIAN_POINT('',(4.,0.,0.));
#513=CARTESIAN_POINT('',(4.,0.,1.));
#514=CARTESIAN_POINT('',(4.4,0.,1.));
#515=CARTESIAN_POINT('',(0.,0.,1.));
#516=CYLINDRICAL_SURFACE('',#311,0.24585);
#517=CYLINDRICAL_SURFACE('',#314,0.24585);
#518=CYLINDRICAL_SURFACE('',#326,5.);
#519=CYLINDRICAL_SURFACE('',#328,0.4);
#520=CYLINDRICAL_SURFACE('',#330,0.65);
#521=CYLINDRICAL_SURFACE('',#332,0.65);
#522=CYLINDRICAL_SURFACE('',#334,0.4);
#523=CLOSED_SHELL('',(#297,#298,#299,#300,#301,#302,#303,#304,#305,#306,
#307,#308,#309,#310));
#524=MANIFOLD_SOLID_BREP('',#523);
#525=ADVANCED_BREP_SHAPE_REPRESENTATION('',(#524),#103);
ENDSEC;
END-ISO-10303-21;
