ISO-10303-21;
HEADER;
/* Generated by software containing ST-Developer
 * from STEP Tools, Inc. (www.steptools.com) 
 */

FILE_DESCRIPTION(
/* description */ ('Alibre Inc.'),
/* implementation_level */ '2;1');

FILE_NAME(
/* name */ 'export0',
/* time_stamp */ '2021-01-14T10:06:35+01:00',
/* author */ (''),
/* organization */ (''),
/* preprocessor_version */ 'ST-DEVELOPER v14',
/* originating_system */ 'Alibre',
/* authorisation */ '');

FILE_SCHEMA (('CONFIG_CONTROL_DESIGN'));
ENDSEC;

DATA;
#10=MECHANICAL_CONTEXT('detailed design',#18,'mechanical');
#11=PRODUCT_RELATED_PRODUCT_CATEGORY('d\X\E9tail','',(#98));
#12=CC_DESIGN_SECURITY_CLASSIFICATION(#14,(#97));
#13=SECURITY_CLASSIFICATION_LEVEL('unclassified');
#14=SECURITY_CLASSIFICATION('nom','Niveau de s\X\E9curit\X\E9 pour la v
ersion',#13);
#15=SHAPE_DEFINITION_REPRESENTATION(#16,#462);
#16=PRODUCT_DEFINITION_SHAPE('','Desc. D\X\E9finition',#96);
#17=APPLICATION_PROTOCOL_DEFINITION('AP definition status',
'config_control_design',1994,#18);
#18=APPLICATION_CONTEXT(
'control the configuration of three dimensional design');
#19=DESIGN_CONTEXT('detailed design',#18,'design');
#20=PERSON_AND_ORGANIZATION_ROLE('creator');
#21=PERSON_AND_ORGANIZATION_ROLE('classification_officer');
#22=PERSON_AND_ORGANIZATION_ROLE('creator');
#23=PERSON_AND_ORGANIZATION_ROLE('design_supplier');
#24=PERSON_AND_ORGANIZATION_ROLE('design_owner');
#25=CC_DESIGN_PERSON_AND_ORGANIZATION_ASSIGNMENT(#57,#20,(#96));
#26=CC_DESIGN_PERSON_AND_ORGANIZATION_ASSIGNMENT(#60,#21,(#14));
#27=CC_DESIGN_PERSON_AND_ORGANIZATION_ASSIGNMENT(#61,#22,(#97));
#28=CC_DESIGN_PERSON_AND_ORGANIZATION_ASSIGNMENT(#62,#23,(#97));
#29=CC_DESIGN_PERSON_AND_ORGANIZATION_ASSIGNMENT(#63,#24,(#98));
#30=DATE_TIME_ROLE('creation_date');
#31=DATE_TIME_ROLE('classification_date');
#32=CC_DESIGN_DATE_AND_TIME_ASSIGNMENT(#86,#30,(#96));
#33=CC_DESIGN_DATE_AND_TIME_ASSIGNMENT(#89,#31,(#14));
#34=CC_DESIGN_APPROVAL(#93,(#96));
#35=CC_DESIGN_APPROVAL(#94,(#97));
#36=CC_DESIGN_APPROVAL(#95,(#14));
#37=APPROVAL_PERSON_ORGANIZATION(#56,#93,#64);
#38=APPROVAL_PERSON_ORGANIZATION(#58,#94,#65);
#39=APPROVAL_PERSON_ORGANIZATION(#59,#95,#66);
#40=ORGANIZATION('DEFINITION_APPROVEDBY_ORG_ID',
'DEFINITION_APPROVEDBY_ORG_NAME','DEFINITION_APPROVEDBY_ORG_DESCR');
#41=ORGANIZATION('DEF_CREATOR_ORG_ID','DEF_CREATOR_ORG_NAME',
'DEF_CREATOR_ORG_DESCR');
#42=ORGANIZATION('ID_ORG_APPROBATEUR','NOM_ORG_APPROBATEUR',
'DESCR_ORG_APPROBATEUR');
#43=ORGANIZATION('SECURITY_APPROVEDBY_ORG_ID',
'SECURITY_APPROVEDBY_ORG_NAME','SECURITY_APPROVEDBY_ORG_DESCR');
#44=ORGANIZATION('CLASSOFFICER_ORG_ID','CLASSOFFICER_ORG_NAME',
'CLASSOFFICER_ORG_DESCR');
#45=ORGANIZATION('CODE_SOCIETE_CREATEUR','NOM_SOCIETE_CREATEUR',
'DESCRIPTION_SOCIETE_CREATEUR');
#46=ORGANIZATION('SUPPLIER_ORG_ID','SUPPLIER_ORG_NAME',
'SUPPLIER_ORG_DESCR');
#47=ORGANIZATION('PROPRIETAIRE_SOCIETE_ID','PROPRIETAIRE_SOCIETE_NOM',
'PROPRIETAIRE_SOCIETE_DESCRIPTION');
#48=PERSON('ID_Validateur D\X\E9finition',
'DEFINITION_APPROVEDBY_LASTNAME','DEFINITION_APPROVEDBY_FIRSTNAME',$,$,$);
#49=PERSON('DEF_createrID','DEF_CREATOR_LASTNAME',
'DEF_CREATOR_FIRSTNAME',$,$,$);
#50=PERSON('ID Validateur','NOM_APPROBATEUR','PRENOM_APPROBATEUR',$,$,$);
#51=PERSON('SECURITY_approverID','SECURITY_LASTNAME',
'SECURITY_APPROVEDBY_FIRSTNAME',$,$,$);
#52=PERSON('classifierID','CLASSOFFICER_LASTNAME',
'CLASSOFFICER_FIRSTNAME',$,$,$);
#53=PERSON('Code cr\X\E9ateur','NOM_CREATEUR','PRENOM_CREATEUR',$,$,$);
#54=PERSON('Code fournisseur','SUPPLIER_LASTNAME','SUPPLIER_FIRSTNAME',$,
$,$);
#55=PERSON('ID propri\X\E9taire','PROPRIETAIRE_NOM',
'PROPRIETAIRE_PRENOM',$,$,$);
#56=PERSON_AND_ORGANIZATION(#48,#40);
#57=PERSON_AND_ORGANIZATION(#49,#41);
#58=PERSON_AND_ORGANIZATION(#50,#42);
#59=PERSON_AND_ORGANIZATION(#51,#43);
#60=PERSON_AND_ORGANIZATION(#52,#44);
#61=PERSON_AND_ORGANIZATION(#53,#45);
#62=PERSON_AND_ORGANIZATION(#54,#46);
#63=PERSON_AND_ORGANIZATION(#55,#47);
#64=APPROVAL_ROLE('definition_approval');
#65=APPROVAL_ROLE('version_approval');
#66=APPROVAL_ROLE('security_approval');
#67=APPROVAL_DATE_TIME(#85,#93);
#68=APPROVAL_DATE_TIME(#87,#94);
#69=APPROVAL_DATE_TIME(#88,#95);
#70=COORDINATED_UNIVERSAL_TIME_OFFSET(1,0,.AHEAD.);
#71=COORDINATED_UNIVERSAL_TIME_OFFSET(1,0,.AHEAD.);
#72=COORDINATED_UNIVERSAL_TIME_OFFSET(1,0,.AHEAD.);
#73=COORDINATED_UNIVERSAL_TIME_OFFSET(1,0,.AHEAD.);
#74=COORDINATED_UNIVERSAL_TIME_OFFSET(1,0,.AHEAD.);
#75=LOCAL_TIME(14,40,41.,#70);
#76=LOCAL_TIME(14,40,41.,#71);
#77=LOCAL_TIME(14,40,41.,#72);
#78=LOCAL_TIME(14,40,41.,#73);
#79=LOCAL_TIME(14,40,41.,#74);
#80=CALENDAR_DATE(2021,12,1);
#81=CALENDAR_DATE(2021,12,1);
#82=CALENDAR_DATE(2021,12,1);
#83=CALENDAR_DATE(2021,12,1);
#84=CALENDAR_DATE(2021,12,1);
#85=DATE_AND_TIME(#80,#75);
#86=DATE_AND_TIME(#81,#76);
#87=DATE_AND_TIME(#82,#77);
#88=DATE_AND_TIME(#83,#78);
#89=DATE_AND_TIME(#84,#79);
#90=APPROVAL_STATUS('not_yet_approved');
#91=APPROVAL_STATUS('not_yet_approved');
#92=APPROVAL_STATUS('not_yet_approved');
#93=APPROVAL(#90,'Concept valid\X\E9');
#94=APPROVAL(#91,'version approuv\X\E9e');
#95=APPROVAL(#92,'security approval');
#96=PRODUCT_DEFINITION('ID D\X\E9finition','Desc. D\X\E9finition',#97,#19);
#97=PRODUCT_DEFINITION_FORMATION_WITH_SPECIFIED_SOURCE(
'REFERENCE_PRODUIT','DESCR_VERSION_PRODUIT',#98,.NOT_KNOWN.);
#98=PRODUCT('ID_1','ADAPTATEUR REDUCTEUR V2','',(#10));
#99=(
LENGTH_UNIT()
NAMED_UNIT(*)
SI_UNIT(.CENTI.,.METRE.)
);
#100=(
NAMED_UNIT(*)
PLANE_ANGLE_UNIT()
SI_UNIT($,.RADIAN.)
);
#101=(
NAMED_UNIT(*)
SI_UNIT($,.STERADIAN.)
SOLID_ANGLE_UNIT()
);
#102=UNCERTAINTY_MEASURE_WITH_UNIT(LENGTH_MEASURE(1.E-006),#99,
'DISTANCE_ACCURACY_VALUE',
'Maximum model space distance between geometric entities at asserted co
nnectivities');
#103=(
GEOMETRIC_REPRESENTATION_CONTEXT(3)
GLOBAL_UNCERTAINTY_ASSIGNED_CONTEXT((#102))
GLOBAL_UNIT_ASSIGNED_CONTEXT((#101,#100,#99))
REPRESENTATION_CONTEXT('ID1','3D')
);
#104=B_SPLINE_CURVE_WITH_KNOTS('',3,(#334,#335,#336,#337,#338,#339,#340,
#341,#342,#343,#344,#345,#346,#347,#348,#349,#350,#351,#352,#353,#354,#355,
#356,#357,#358,#359,#360,#361,#362,#363,#364,#365,#366,#367),
 .UNSPECIFIED.,.T.,.U.,(4,2,2,2,2,2,2,2,2,2,2,2,2,2,2,2,4),(0.,0.0618742078368844,
0.123748415673769,0.185556382934796,0.247364350195823,0.30917231745685,0.370980284717878,
0.432854492554762,0.494728700391646,0.556602908228531,0.618477116065415,
0.680285083326442,0.74209305058747,0.803901017848497,0.865708985109524,0.927583192946408,
0.989457400783293),.UNSPECIFIED.);
#105=B_SPLINE_CURVE_WITH_KNOTS('',3,(#369,#370,#371,#372,#373,#374,#375,
#376,#377,#378,#379,#380,#381,#382,#383,#384,#385,#386,#387,#388,#389,#390,
#391,#392,#393,#394,#395,#396,#397,#398,#399,#400,#401,#402),
 .UNSPECIFIED.,.T.,.U.,(4,2,2,2,2,2,2,2,2,2,2,2,2,2,2,2,4),(0.,0.0612058368263163,
0.122411673652633,0.183615271002291,0.24481886835195,0.306022465701609,0.367226063051268,
0.428431899877584,0.4896377367039,0.550843573530217,0.612049410356533,0.673253007706192,
0.734456605055851,0.795660202405509,0.856863799755168,0.918069636581484,
0.979275473407801),.UNSPECIFIED.);
#106=B_SPLINE_CURVE_WITH_KNOTS('',3,(#405,#406,#407,#408,#409,#410,#411,
#412,#413,#414,#415,#416,#417,#418,#419,#420,#421,#422,#423,#424,#425,#426,
#427,#428,#429,#430,#431,#432,#433,#434,#435,#436,#437,#438),
 .UNSPECIFIED.,.T.,.U.,(4,2,2,2,2,2,2,2,2,2,2,2,2,2,2,2,4),(0.,0.0612058368263163,
0.122411673652633,0.183615271002291,0.24481886835195,0.306022465701609,0.367226063051268,
0.428431899877584,0.4896377367039,0.550843573530217,0.612049410356533,0.673253007706192,
0.734456605055851,0.795660202405509,0.856863799755168,0.918069636581484,
0.979275473407801),.UNSPECIFIED.);
#107=CYLINDRICAL_SURFACE('',#262,0.1621);
#108=CYLINDRICAL_SURFACE('',#263,0.4);
#109=CYLINDRICAL_SURFACE('',#267,0.9);
#110=VECTOR('',#275,1.);
#111=VECTOR('',#276,1.);
#112=VECTOR('',#277,1.);
#113=VECTOR('',#279,1.);
#114=VECTOR('',#280,1.);
#115=VECTOR('',#281,1.);
#116=VECTOR('',#283,1.);
#117=VECTOR('',#284,1.);
#118=VECTOR('',#285,1.);
#119=VECTOR('',#289,1.);
#120=LINE('',#312,#110);
#121=LINE('',#314,#111);
#122=LINE('',#316,#112);
#123=LINE('',#318,#113);
#124=LINE('',#320,#114);
#125=LINE('',#322,#115);
#126=LINE('',#324,#116);
#127=LINE('',#326,#117);
#128=LINE('',#328,#118);
#129=LINE('',#331,#119);
#130=VERTEX_POINT('',#310);
#131=VERTEX_POINT('',#311);
#132=VERTEX_POINT('',#313);
#133=VERTEX_POINT('',#315);
#134=VERTEX_POINT('',#319);
#135=VERTEX_POINT('',#321);
#136=VERTEX_POINT('',#325);
#137=VERTEX_POINT('',#327);
#138=VERTEX_POINT('',#368);
#139=VERTEX_POINT('',#403);
#140=VERTEX_POINT('',#404);
#141=VERTEX_POINT('',#441);
#142=VERTEX_POINT('',#443);
#143=VERTEX_POINT('',#447);
#144=VERTEX_POINT('',#449);
#145=CIRCLE('',#256,0.9);
#146=CIRCLE('',#260,0.9);
#147=CIRCLE('',#264,0.4);
#148=CIRCLE('',#265,0.4);
#149=CIRCLE('',#268,0.9);
#150=CIRCLE('',#269,0.9);
#151=EDGE_CURVE('',#130,#131,#145,.T.);
#152=EDGE_CURVE('',#130,#132,#120,.T.);
#153=EDGE_CURVE('',#133,#132,#121,.T.);
#154=EDGE_CURVE('',#131,#133,#122,.T.);
#155=EDGE_CURVE('',#131,#134,#123,.T.);
#156=EDGE_CURVE('',#135,#133,#124,.T.);
#157=EDGE_CURVE('',#134,#135,#125,.T.);
#158=EDGE_CURVE('',#136,#130,#126,.T.);
#159=EDGE_CURVE('',#136,#137,#127,.T.);
#160=EDGE_CURVE('',#132,#137,#128,.T.);
#161=EDGE_CURVE('',#134,#136,#146,.T.);
#162=EDGE_CURVE('',#137,#135,#129,.T.);
#163=EDGE_CURVE('',#138,#138,#104,.T.);
#164=EDGE_CURVE('',#139,#140,#105,.T.);
#165=EDGE_CURVE('',#140,#139,#106,.T.);
#166=EDGE_CURVE('',#141,#141,#147,.T.);
#167=EDGE_CURVE('',#142,#142,#148,.T.);
#168=EDGE_CURVE('',#143,#143,#149,.T.);
#169=EDGE_CURVE('',#144,#144,#150,.T.);
#170=ORIENTED_EDGE('',*,*,#151,.F.);
#171=ORIENTED_EDGE('',*,*,#152,.T.);
#172=ORIENTED_EDGE('',*,*,#153,.F.);
#173=ORIENTED_EDGE('',*,*,#154,.F.);
#174=ORIENTED_EDGE('',*,*,#155,.F.);
#175=ORIENTED_EDGE('',*,*,#154,.T.);
#176=ORIENTED_EDGE('',*,*,#156,.F.);
#177=ORIENTED_EDGE('',*,*,#157,.F.);
#178=ORIENTED_EDGE('',*,*,#158,.F.);
#179=ORIENTED_EDGE('',*,*,#159,.T.);
#180=ORIENTED_EDGE('',*,*,#160,.F.);
#181=ORIENTED_EDGE('',*,*,#152,.F.);
#182=ORIENTED_EDGE('',*,*,#161,.F.);
#183=ORIENTED_EDGE('',*,*,#157,.T.);
#184=ORIENTED_EDGE('',*,*,#162,.F.);
#185=ORIENTED_EDGE('',*,*,#159,.F.);
#186=ORIENTED_EDGE('',*,*,#153,.T.);
#187=ORIENTED_EDGE('',*,*,#160,.T.);
#188=ORIENTED_EDGE('',*,*,#162,.T.);
#189=ORIENTED_EDGE('',*,*,#156,.T.);
#190=ORIENTED_EDGE('',*,*,#163,.F.);
#191=ORIENTED_EDGE('',*,*,#164,.F.);
#192=ORIENTED_EDGE('',*,*,#165,.F.);
#193=ORIENTED_EDGE('',*,*,#163,.T.);
#194=ORIENTED_EDGE('',*,*,#166,.F.);
#195=ORIENTED_EDGE('',*,*,#167,.F.);
#196=ORIENTED_EDGE('',*,*,#166,.T.);
#197=ORIENTED_EDGE('',*,*,#161,.T.);
#198=ORIENTED_EDGE('',*,*,#158,.T.);
#199=ORIENTED_EDGE('',*,*,#151,.T.);
#200=ORIENTED_EDGE('',*,*,#155,.T.);
#201=ORIENTED_EDGE('',*,*,#164,.T.);
#202=ORIENTED_EDGE('',*,*,#165,.T.);
#203=ORIENTED_EDGE('',*,*,#168,.T.);
#204=ORIENTED_EDGE('',*,*,#169,.T.);
#205=ORIENTED_EDGE('',*,*,#167,.T.);
#206=ORIENTED_EDGE('',*,*,#168,.F.);
#207=ORIENTED_EDGE('',*,*,#169,.F.);
#208=EDGE_LOOP('',(#170,#171,#172,#173));
#209=EDGE_LOOP('',(#174,#175,#176,#177));
#210=EDGE_LOOP('',(#178,#179,#180,#181));
#211=EDGE_LOOP('',(#182,#183,#184,#185));
#212=EDGE_LOOP('',(#186,#187,#188,#189));
#213=EDGE_LOOP('',(#190));
#214=EDGE_LOOP('',(#191,#192));
#215=EDGE_LOOP('',(#193));
#216=EDGE_LOOP('',(#194));
#217=EDGE_LOOP('',(#195));
#218=EDGE_LOOP('',(#196));
#219=EDGE_LOOP('',(#197,#198,#199,#200));
#220=EDGE_LOOP('',(#201,#202));
#221=EDGE_LOOP('',(#203));
#222=EDGE_LOOP('',(#204));
#223=EDGE_LOOP('',(#205));
#224=EDGE_LOOP('',(#206));
#225=EDGE_LOOP('',(#207));
#226=FACE_BOUND('',#208,.T.);
#227=FACE_BOUND('',#209,.T.);
#228=FACE_BOUND('',#210,.T.);
#229=FACE_BOUND('',#211,.T.);
#230=FACE_BOUND('',#212,.T.);
#231=FACE_BOUND('',#213,.T.);
#232=FACE_BOUND('',#214,.T.);
#233=FACE_BOUND('',#215,.T.);
#234=FACE_BOUND('',#216,.T.);
#235=FACE_BOUND('',#217,.T.);
#236=FACE_BOUND('',#218,.T.);
#237=FACE_BOUND('',#219,.T.);
#238=FACE_BOUND('',#220,.T.);
#239=FACE_BOUND('',#221,.T.);
#240=FACE_BOUND('',#222,.T.);
#241=FACE_BOUND('',#223,.T.);
#242=FACE_BOUND('',#224,.T.);
#243=FACE_BOUND('',#225,.T.);
#244=ADVANCED_FACE('',(#226),#452,.F.);
#245=ADVANCED_FACE('',(#227),#453,.F.);
#246=ADVANCED_FACE('',(#228),#454,.F.);
#247=ADVANCED_FACE('',(#229),#455,.F.);
#248=ADVANCED_FACE('',(#230),#456,.T.);
#249=ADVANCED_FACE('',(#231,#232),#107,.F.);
#250=ADVANCED_FACE('',(#233,#234,#235),#108,.F.);
#251=ADVANCED_FACE('',(#236),#457,.T.);
#252=ADVANCED_FACE('',(#237,#238,#239,#240),#109,.T.);
#253=ADVANCED_FACE('',(#241,#242),#458,.T.);
#254=ADVANCED_FACE('',(#243),#459,.F.);
#255=AXIS2_PLACEMENT_3D('',#308,#272,$);
#256=AXIS2_PLACEMENT_3D('',#309,#273,#274);
#257=AXIS2_PLACEMENT_3D('',#317,#278,$);
#258=AXIS2_PLACEMENT_3D('',#323,#282,$);
#259=AXIS2_PLACEMENT_3D('',#329,#286,$);
#260=AXIS2_PLACEMENT_3D('',#330,#287,#288);
#261=AXIS2_PLACEMENT_3D('',#332,#290,$);
#262=AXIS2_PLACEMENT_3D('',#333,#291,#292);
#263=AXIS2_PLACEMENT_3D('',#439,#293,#294);
#264=AXIS2_PLACEMENT_3D('',#440,#295,#296);
#265=AXIS2_PLACEMENT_3D('',#442,#297,#298);
#266=AXIS2_PLACEMENT_3D('',#444,#299,$);
#267=AXIS2_PLACEMENT_3D('',#445,#300,#301);
#268=AXIS2_PLACEMENT_3D('',#446,#302,#303);
#269=AXIS2_PLACEMENT_3D('',#448,#304,#305);
#270=AXIS2_PLACEMENT_3D('',#450,#306,$);
#271=AXIS2_PLACEMENT_3D('',#451,#307,$);
#272=DIRECTION('',(0.,0.,1.));
#273=DIRECTION('',(0.,0.,1.));
#274=DIRECTION('',(0.9,0.,0.));
#275=DIRECTION('',(0.,-1.,0.));
#276=DIRECTION('',(1.,0.,0.));
#277=DIRECTION('',(0.,-1.,0.));
#278=DIRECTION('',(-1.,0.,0.));
#279=DIRECTION('',(0.,0.,-1.));
#280=DIRECTION('',(0.,0.,1.));
#281=DIRECTION('',(0.,-1.,0.));
#282=DIRECTION('',(1.,0.,0.));
#283=DIRECTION('',(0.,0.,1.));
#284=DIRECTION('',(0.,-1.,0.));
#285=DIRECTION('',(0.,0.,-1.));
#286=DIRECTION('',(0.,0.,-1.));
#287=DIRECTION('',(0.,0.,-1.));
#288=DIRECTION('',(0.9,0.,0.));
#289=DIRECTION('',(-1.,0.,0.));
#290=DIRECTION('',(-1.02205237513087E-031,1.,1.88176795894381E-048));
#291=DIRECTION('',(0.,-1.,0.));
#292=DIRECTION('',(0.1621,0.,0.));
#293=DIRECTION('',(0.,0.,-1.));
#294=DIRECTION('',(0.4,0.,0.));
#295=DIRECTION('',(0.,0.,1.));
#296=DIRECTION('',(0.4,0.,0.));
#297=DIRECTION('',(0.,0.,-1.));
#298=DIRECTION('',(0.4,0.,0.));
#299=DIRECTION('',(0.,0.,1.));
#300=DIRECTION('',(0.,0.,1.));
#301=DIRECTION('',(0.9,0.,0.));
#302=DIRECTION('',(0.,0.,-1.));
#303=DIRECTION('',(0.9,0.,0.));
#304=DIRECTION('',(0.,0.,1.));
#305=DIRECTION('',(0.9,0.,0.));
#306=DIRECTION('',(0.,0.,1.));
#307=DIRECTION('',(0.,0.,1.));
#308=CARTESIAN_POINT('',(0.,0.9,3.5));
#309=CARTESIAN_POINT('',(0.,0.,3.5));
#310=CARTESIAN_POINT('',(0.3,0.848528137423857,3.5));
#311=CARTESIAN_POINT('',(-0.3,0.848528137423857,3.5));
#312=CARTESIAN_POINT('',(0.3,0.9,3.5));
#313=CARTESIAN_POINT('',(0.3,0.545,3.5));
#314=CARTESIAN_POINT('',(-0.3,0.545,3.5));
#315=CARTESIAN_POINT('',(-0.3,0.545,3.5));
#316=CARTESIAN_POINT('',(-0.3,0.9,3.5));
#317=CARTESIAN_POINT('',(-0.3,0.9,2.));
#318=CARTESIAN_POINT('',(-0.3,0.848528137423857,2.));
#319=CARTESIAN_POINT('',(-0.3,0.848528137423857,0.5));
#320=CARTESIAN_POINT('',(-0.3,0.545,0.5));
#321=CARTESIAN_POINT('',(-0.3,0.545,0.5));
#322=CARTESIAN_POINT('',(-0.3,0.9,0.5));
#323=CARTESIAN_POINT('',(0.3,0.9,2.));
#324=CARTESIAN_POINT('',(0.3,0.848528137423857,2.));
#325=CARTESIAN_POINT('',(0.3,0.848528137423857,0.5));
#326=CARTESIAN_POINT('',(0.3,0.9,0.5));
#327=CARTESIAN_POINT('',(0.3,0.545,0.5));
#328=CARTESIAN_POINT('',(0.3,0.545,3.5));
#329=CARTESIAN_POINT('',(0.,0.9,0.5));
#330=CARTESIAN_POINT('',(0.,0.,0.5));
#331=CARTESIAN_POINT('',(0.3,0.545,0.5));
#332=CARTESIAN_POINT('',(-1.6821560979169E-018,0.545,2.));
#333=CARTESIAN_POINT('',(0.,0.9,5.5));
#334=CARTESIAN_POINT('',(-0.1621,0.36568236216695,5.5));
#335=CARTESIAN_POINT('',(-0.1621,0.36568236216695,5.52062473594563));
#336=CARTESIAN_POINT('',(-0.157929350229258,0.367611907848588,5.54243520062584));
#337=CARTESIAN_POINT('',(-0.141319587398117,0.37431131818561,5.58228734476557));
#338=CARTESIAN_POINT('',(-0.128890281975843,0.378957901801605,5.60035373648484));
#339=CARTESIAN_POINT('',(-0.100369011647722,0.387488558521247,5.62887500681296));
#340=CARTESIAN_POINT('',(-0.0822968656145221,0.391962530523637,5.64131588058457));
#341=CARTESIAN_POINT('',(-0.0424221700651265,0.398255896330064,5.65793451981473));
#342=CARTESIAN_POINT('',(-0.0206026557536757,0.4,5.6621));
#343=CARTESIAN_POINT('',(0.0206026557536758,0.4,5.6621));
#344=CARTESIAN_POINT('',(0.0424221700651266,0.398255896330064,5.65793451981473));
#345=CARTESIAN_POINT('',(0.082296865614522,0.391962530523637,5.64131588058457));
#346=CARTESIAN_POINT('',(0.100369011647722,0.387488558521247,5.62887500681296));
#347=CARTESIAN_POINT('',(0.128890281975843,0.378957901801605,5.60035373648484));
#348=CARTESIAN_POINT('',(0.141319587398117,0.37431131818561,5.58228734476557));
#349=CARTESIAN_POINT('',(0.157929350229258,0.367611907848588,5.54243520062584));
#350=CARTESIAN_POINT('',(0.1621,0.36568236216695,5.52062473594563));
#351=CARTESIAN_POINT('',(0.1621,0.36568236216695,5.47937526405437));
#352=CARTESIAN_POINT('',(0.157929350229258,0.367611907848588,5.45756479937416));
#353=CARTESIAN_POINT('',(0.141319587398117,0.37431131818561,5.41771265523443));
#354=CARTESIAN_POINT('',(0.128890281975843,0.378957901801605,5.39964626351516));
#355=CARTESIAN_POINT('',(0.100369011647722,0.387488558521247,5.37112499318704));
#356=CARTESIAN_POINT('',(0.082296865614522,0.391962530523637,5.35868411941543));
#357=CARTESIAN_POINT('',(0.0424221700651266,0.398255896330064,5.34206548018527));
#358=CARTESIAN_POINT('',(0.0206026557536758,0.4,5.3379));
#359=CARTESIAN_POINT('',(-0.0206026557536757,0.4,5.3379));
#360=CARTESIAN_POINT('',(-0.0424221700651266,0.398255896330064,5.34206548018527));
#361=CARTESIAN_POINT('',(-0.082296865614522,0.391962530523637,5.35868411941543));
#362=CARTESIAN_POINT('',(-0.100369011647722,0.387488558521247,5.37112499318704));
#363=CARTESIAN_POINT('',(-0.128890281975843,0.378957901801605,5.39964626351516));
#364=CARTESIAN_POINT('',(-0.141319587398117,0.37431131818561,5.41771265523443));
#365=CARTESIAN_POINT('',(-0.157929350229258,0.367611907848588,5.45756479937416));
#366=CARTESIAN_POINT('',(-0.1621,0.36568236216695,5.47937526405437));
#367=CARTESIAN_POINT('',(-0.1621,0.36568236216695,5.5));
#368=CARTESIAN_POINT('',(-0.1621,0.36568236216695,5.5));
#369=CARTESIAN_POINT('',(0.1621,0.885281644449946,5.5));
#370=CARTESIAN_POINT('',(0.1621,0.885281644449946,5.52040194560877));
#371=CARTESIAN_POINT('',(0.158013530728274,0.886059933263278,5.54213257162876));
#372=CARTESIAN_POINT('',(0.141456980806352,0.888853420318016,5.58205701215825));
#373=CARTESIAN_POINT('',(0.128989265077011,0.890826352797756,5.60025475338367));
#374=CARTESIAN_POINT('',(0.100255279071017,0.894515894217825,5.62898873938966));
#375=CARTESIAN_POINT('',(0.0820573131104851,0.896474767704527,5.64145686728924));
#376=CARTESIAN_POINT('',(0.0421320970052416,0.89923595243252,5.65801371626632));
#377=CARTESIAN_POINT('',(0.0204011991165529,0.9,5.6621));
#378=CARTESIAN_POINT('',(-0.0204011991165529,0.9,5.6621));
#379=CARTESIAN_POINT('',(-0.0421320970052416,0.89923595243252,5.65801371626632));
#380=CARTESIAN_POINT('',(-0.0820573131104851,0.896474767704527,5.64145686728924));
#381=CARTESIAN_POINT('',(-0.100255279071016,0.894515894217825,5.62898873938966));
#382=CARTESIAN_POINT('',(-0.128989265077011,0.890826352797756,5.60025475338367));
#383=CARTESIAN_POINT('',(-0.141456980806352,0.888853420318016,5.58205701215825));
#384=CARTESIAN_POINT('',(-0.158013530728274,0.886059933263278,5.54213257162876));
#385=CARTESIAN_POINT('',(-0.1621,0.885281644449946,5.52040194560877));
#386=CARTESIAN_POINT('',(-0.1621,0.885281644449946,5.47959805439123));
#387=CARTESIAN_POINT('',(-0.158013530728274,0.886059933263278,5.45786742837124));
#388=CARTESIAN_POINT('',(-0.141456980806352,0.888853420318016,5.41794298784175));
#389=CARTESIAN_POINT('',(-0.128989265077011,0.890826352797756,5.39974524661633));
#390=CARTESIAN_POINT('',(-0.100255279071016,0.894515894217825,5.37101126061034));
#391=CARTESIAN_POINT('',(-0.0820573131104851,0.896474767704527,5.35854313271076));
#392=CARTESIAN_POINT('',(-0.0421320970052416,0.89923595243252,5.34198628373368));
#393=CARTESIAN_POINT('',(-0.0204011991165529,0.9,5.3379));
#394=CARTESIAN_POINT('',(0.0204011991165529,0.9,5.3379));
#395=CARTESIAN_POINT('',(0.0421320970052416,0.89923595243252,5.34198628373368));
#396=CARTESIAN_POINT('',(0.0820573131104851,0.896474767704527,5.35854313271076));
#397=CARTESIAN_POINT('',(0.100255279071017,0.894515894217825,5.37101126061034));
#398=CARTESIAN_POINT('',(0.128989265077011,0.890826352797756,5.39974524661633));
#399=CARTESIAN_POINT('',(0.141456980806352,0.888853420318016,5.41794298784175));
#400=CARTESIAN_POINT('',(0.158013530728274,0.886059933263278,5.45786742837124));
#401=CARTESIAN_POINT('',(0.1621,0.885281644449946,5.47959805439123));
#402=CARTESIAN_POINT('',(0.1621,0.885281644449946,5.5));
#403=CARTESIAN_POINT('',(9.9257623070893E-018,0.9,5.6621));
#404=CARTESIAN_POINT('',(-2.97772869212679E-017,0.9,5.3379));
#405=CARTESIAN_POINT('',(0.1621,0.885281644449946,5.5));
#406=CARTESIAN_POINT('',(0.1621,0.885281644449946,5.52040194560877));
#407=CARTESIAN_POINT('',(0.158013530728274,0.886059933263278,5.54213257162876));
#408=CARTESIAN_POINT('',(0.141456980806352,0.888853420318016,5.58205701215825));
#409=CARTESIAN_POINT('',(0.128989265077011,0.890826352797756,5.60025475338367));
#410=CARTESIAN_POINT('',(0.100255279071017,0.894515894217825,5.62898873938966));
#411=CARTESIAN_POINT('',(0.0820573131104851,0.896474767704527,5.64145686728924));
#412=CARTESIAN_POINT('',(0.0421320970052416,0.89923595243252,5.65801371626632));
#413=CARTESIAN_POINT('',(0.0204011991165529,0.9,5.6621));
#414=CARTESIAN_POINT('',(-0.0204011991165529,0.9,5.6621));
#415=CARTESIAN_POINT('',(-0.0421320970052416,0.89923595243252,5.65801371626632));
#416=CARTESIAN_POINT('',(-0.0820573131104851,0.896474767704527,5.64145686728924));
#417=CARTESIAN_POINT('',(-0.100255279071016,0.894515894217825,5.62898873938966));
#418=CARTESIAN_POINT('',(-0.128989265077011,0.890826352797756,5.60025475338367));
#419=CARTESIAN_POINT('',(-0.141456980806352,0.888853420318016,5.58205701215825));
#420=CARTESIAN_POINT('',(-0.158013530728274,0.886059933263278,5.54213257162876));
#421=CARTESIAN_POINT('',(-0.1621,0.885281644449946,5.52040194560877));
#422=CARTESIAN_POINT('',(-0.1621,0.885281644449946,5.47959805439123));
#423=CARTESIAN_POINT('',(-0.158013530728274,0.886059933263278,5.45786742837124));
#424=CARTESIAN_POINT('',(-0.141456980806352,0.888853420318016,5.41794298784175));
#425=CARTESIAN_POINT('',(-0.128989265077011,0.890826352797756,5.39974524661633));
#426=CARTESIAN_POINT('',(-0.100255279071016,0.894515894217825,5.37101126061034));
#427=CARTESIAN_POINT('',(-0.0820573131104851,0.896474767704527,5.35854313271076));
#428=CARTESIAN_POINT('',(-0.0421320970052416,0.89923595243252,5.34198628373368));
#429=CARTESIAN_POINT('',(-0.0204011991165529,0.9,5.3379));
#430=CARTESIAN_POINT('',(0.0204011991165529,0.9,5.3379));
#431=CARTESIAN_POINT('',(0.0421320970052416,0.89923595243252,5.34198628373368));
#432=CARTESIAN_POINT('',(0.0820573131104851,0.896474767704527,5.35854313271076));
#433=CARTESIAN_POINT('',(0.100255279071017,0.894515894217825,5.37101126061034));
#434=CARTESIAN_POINT('',(0.128989265077011,0.890826352797756,5.39974524661633));
#435=CARTESIAN_POINT('',(0.141456980806352,0.888853420318016,5.41794298784175));
#436=CARTESIAN_POINT('',(0.158013530728274,0.886059933263278,5.45786742837124));
#437=CARTESIAN_POINT('',(0.1621,0.885281644449946,5.47959805439123));
#438=CARTESIAN_POINT('',(0.1621,0.885281644449946,5.5));
#439=CARTESIAN_POINT('',(0.,0.,6.5));
#440=CARTESIAN_POINT('',(0.,0.,4.5));
#441=CARTESIAN_POINT('',(0.4,0.,4.5));
#442=CARTESIAN_POINT('',(0.,0.,6.5));
#443=CARTESIAN_POINT('',(0.4,0.,6.5));
#444=CARTESIAN_POINT('',(0.,0.,4.5));
#445=CARTESIAN_POINT('',(0.,0.,0.));
#446=CARTESIAN_POINT('',(0.,0.,6.5));
#447=CARTESIAN_POINT('',(0.9,0.,6.5));
#448=CARTESIAN_POINT('',(0.,0.,0.));
#449=CARTESIAN_POINT('',(0.9,0.,0.));
#450=CARTESIAN_POINT('',(0.,0.,6.5));
#451=CARTESIAN_POINT('',(0.,0.,0.));
#452=PLANE('',#255);
#453=PLANE('',#257);
#454=PLANE('',#258);
#455=PLANE('',#259);
#456=PLANE('',#261);
#457=PLANE('',#266);
#458=PLANE('',#270);
#459=PLANE('',#271);
#460=CLOSED_SHELL('',(#244,#245,#246,#247,#248,#249,#250,#251,#252,#253,
#254));
#461=MANIFOLD_SOLID_BREP('',#460);
#462=ADVANCED_BREP_SHAPE_REPRESENTATION('',(#461),#103);
ENDSEC;
END-ISO-10303-21;
