ISO-10303-21;
HEADER;
/* Generated by software containing ST-Developer
 * from STEP Tools, Inc. (www.steptools.com) 
 */

FILE_DESCRIPTION(
/* description */ (''),
/* implementation_level */ '2;1');

FILE_NAME(
/* name */ 
'//homeserver-1/Documents Benoit/Moto/Bricolage/Shock Brace/Soudure/Re
nfort suspension v1.step',
/* time_stamp */ '2021-01-11T23:03:12+01:00',
/* author */ (''),
/* organization */ (''),
/* preprocessor_version */ 'ST-DEVELOPER v18.1',
/* originating_system */ 'Autodesk Translation Framework v9.3.0.1241',
/* authorisation */ '');

FILE_SCHEMA (('AUTOMOTIVE_DESIGN { 1 0 10303 214 3 1 1 }'));
ENDSEC;

DATA;
#10=MECHANICAL_DESIGN_GEOMETRIC_PRESENTATION_REPRESENTATION('',(#17),#347);
#11=ITEM_DEFINED_TRANSFORMATION($,$,#199,#224);
#12=(
REPRESENTATION_RELATIONSHIP($,$,#358,#357)
REPRESENTATION_RELATIONSHIP_WITH_TRANSFORMATION(#11)
SHAPE_REPRESENTATION_RELATIONSHIP()
);
#13=CONTEXT_DEPENDENT_SHAPE_REPRESENTATION(#12,#356);
#14=NEXT_ASSEMBLY_USAGE_OCCURRENCE('Renfort:1','Renfort:1','Renfort:1',
#360,#361,'Renfort:1');
#15=SHAPE_REPRESENTATION_RELATIONSHIP('SRR','None',#358,#16);
#16=ADVANCED_BREP_SHAPE_REPRESENTATION('',(#18),#346);
#17=STYLED_ITEM('',(#371),#18);
#18=MANIFOLD_SOLID_BREP('Corps1',#185);
#19=FACE_BOUND('',#43,.T.);
#20=FACE_BOUND('',#45,.T.);
#21=PLANE('',#209);
#22=PLANE('',#222);
#23=PLANE('',#223);
#24=FACE_OUTER_BOUND('',#34,.T.);
#25=FACE_OUTER_BOUND('',#35,.T.);
#26=FACE_OUTER_BOUND('',#36,.T.);
#27=FACE_OUTER_BOUND('',#37,.T.);
#28=FACE_OUTER_BOUND('',#38,.T.);
#29=FACE_OUTER_BOUND('',#39,.T.);
#30=FACE_OUTER_BOUND('',#40,.T.);
#31=FACE_OUTER_BOUND('',#41,.T.);
#32=FACE_OUTER_BOUND('',#42,.T.);
#33=FACE_OUTER_BOUND('',#44,.T.);
#34=EDGE_LOOP('',(#120,#121,#122,#123));
#35=EDGE_LOOP('',(#124,#125,#126,#127));
#36=EDGE_LOOP('',(#128,#129,#130,#131));
#37=EDGE_LOOP('',(#132,#133,#134,#135));
#38=EDGE_LOOP('',(#136,#137,#138,#139));
#39=EDGE_LOOP('',(#140,#141,#142,#143));
#40=EDGE_LOOP('',(#144,#145,#146,#147));
#41=EDGE_LOOP('',(#148,#149,#150,#151));
#42=EDGE_LOOP('',(#152,#153,#154,#155,#156,#157,#158));
#43=EDGE_LOOP('',(#159));
#44=EDGE_LOOP('',(#160,#161,#162,#163,#164,#165,#166));
#45=EDGE_LOOP('',(#167));
#46=LINE('',#295,#56);
#47=LINE('',#302,#57);
#48=LINE('',#305,#58);
#49=LINE('',#311,#59);
#50=LINE('',#314,#60);
#51=LINE('',#316,#61);
#52=LINE('',#317,#62);
#53=LINE('',#323,#63);
#54=LINE('',#329,#64);
#55=LINE('',#335,#65);
#56=VECTOR('',#233,10.);
#57=VECTOR('',#240,10.);
#58=VECTOR('',#243,10.);
#59=VECTOR('',#250,10.);
#60=VECTOR('',#253,10.);
#61=VECTOR('',#254,10.);
#62=VECTOR('',#255,10.);
#63=VECTOR('',#262,10.);
#64=VECTOR('',#269,10.);
#65=VECTOR('',#276,10.);
#66=CIRCLE('',#201,10.);
#67=CIRCLE('',#202,10.);
#68=CIRCLE('',#204,20.);
#69=CIRCLE('',#205,20.);
#70=CIRCLE('',#207,6.);
#71=CIRCLE('',#208,6.);
#72=CIRCLE('',#211,38.);
#73=CIRCLE('',#212,38.);
#74=CIRCLE('',#214,18.);
#75=CIRCLE('',#215,18.);
#76=CIRCLE('',#217,54.9169639808444);
#77=CIRCLE('',#218,54.9169639808444);
#78=CIRCLE('',#220,6.00000000000001);
#79=CIRCLE('',#221,6.00000000000001);
#80=VERTEX_POINT('',#292);
#81=VERTEX_POINT('',#294);
#82=VERTEX_POINT('',#298);
#83=VERTEX_POINT('',#299);
#84=VERTEX_POINT('',#301);
#85=VERTEX_POINT('',#303);
#86=VERTEX_POINT('',#307);
#87=VERTEX_POINT('',#309);
#88=VERTEX_POINT('',#313);
#89=VERTEX_POINT('',#315);
#90=VERTEX_POINT('',#319);
#91=VERTEX_POINT('',#321);
#92=VERTEX_POINT('',#325);
#93=VERTEX_POINT('',#327);
#94=VERTEX_POINT('',#331);
#95=VERTEX_POINT('',#333);
#96=EDGE_CURVE('',#80,#80,#66,.T.);
#97=EDGE_CURVE('',#80,#81,#46,.T.);
#98=EDGE_CURVE('',#81,#81,#67,.T.);
#99=EDGE_CURVE('',#82,#83,#68,.T.);
#100=EDGE_CURVE('',#82,#84,#47,.T.);
#101=EDGE_CURVE('',#85,#84,#69,.T.);
#102=EDGE_CURVE('',#83,#85,#48,.T.);
#103=EDGE_CURVE('',#86,#83,#70,.T.);
#104=EDGE_CURVE('',#87,#85,#71,.T.);
#105=EDGE_CURVE('',#86,#87,#49,.T.);
#106=EDGE_CURVE('',#88,#86,#50,.T.);
#107=EDGE_CURVE('',#89,#87,#51,.T.);
#108=EDGE_CURVE('',#88,#89,#52,.T.);
#109=EDGE_CURVE('',#88,#90,#72,.T.);
#110=EDGE_CURVE('',#91,#89,#73,.T.);
#111=EDGE_CURVE('',#90,#91,#53,.T.);
#112=EDGE_CURVE('',#92,#90,#74,.T.);
#113=EDGE_CURVE('',#93,#91,#75,.T.);
#114=EDGE_CURVE('',#92,#93,#54,.T.);
#115=EDGE_CURVE('',#94,#92,#76,.T.);
#116=EDGE_CURVE('',#95,#93,#77,.T.);
#117=EDGE_CURVE('',#94,#95,#55,.T.);
#118=EDGE_CURVE('',#82,#94,#78,.T.);
#119=EDGE_CURVE('',#84,#95,#79,.T.);
#120=ORIENTED_EDGE('',*,*,#96,.F.);
#121=ORIENTED_EDGE('',*,*,#97,.T.);
#122=ORIENTED_EDGE('',*,*,#98,.T.);
#123=ORIENTED_EDGE('',*,*,#97,.F.);
#124=ORIENTED_EDGE('',*,*,#99,.F.);
#125=ORIENTED_EDGE('',*,*,#100,.T.);
#126=ORIENTED_EDGE('',*,*,#101,.F.);
#127=ORIENTED_EDGE('',*,*,#102,.F.);
#128=ORIENTED_EDGE('',*,*,#103,.T.);
#129=ORIENTED_EDGE('',*,*,#102,.T.);
#130=ORIENTED_EDGE('',*,*,#104,.F.);
#131=ORIENTED_EDGE('',*,*,#105,.F.);
#132=ORIENTED_EDGE('',*,*,#106,.T.);
#133=ORIENTED_EDGE('',*,*,#105,.T.);
#134=ORIENTED_EDGE('',*,*,#107,.F.);
#135=ORIENTED_EDGE('',*,*,#108,.F.);
#136=ORIENTED_EDGE('',*,*,#109,.F.);
#137=ORIENTED_EDGE('',*,*,#108,.T.);
#138=ORIENTED_EDGE('',*,*,#110,.F.);
#139=ORIENTED_EDGE('',*,*,#111,.F.);
#140=ORIENTED_EDGE('',*,*,#112,.T.);
#141=ORIENTED_EDGE('',*,*,#111,.T.);
#142=ORIENTED_EDGE('',*,*,#113,.F.);
#143=ORIENTED_EDGE('',*,*,#114,.F.);
#144=ORIENTED_EDGE('',*,*,#115,.T.);
#145=ORIENTED_EDGE('',*,*,#114,.T.);
#146=ORIENTED_EDGE('',*,*,#116,.F.);
#147=ORIENTED_EDGE('',*,*,#117,.F.);
#148=ORIENTED_EDGE('',*,*,#118,.T.);
#149=ORIENTED_EDGE('',*,*,#117,.T.);
#150=ORIENTED_EDGE('',*,*,#119,.F.);
#151=ORIENTED_EDGE('',*,*,#100,.F.);
#152=ORIENTED_EDGE('',*,*,#119,.T.);
#153=ORIENTED_EDGE('',*,*,#116,.T.);
#154=ORIENTED_EDGE('',*,*,#113,.T.);
#155=ORIENTED_EDGE('',*,*,#110,.T.);
#156=ORIENTED_EDGE('',*,*,#107,.T.);
#157=ORIENTED_EDGE('',*,*,#104,.T.);
#158=ORIENTED_EDGE('',*,*,#101,.T.);
#159=ORIENTED_EDGE('',*,*,#96,.T.);
#160=ORIENTED_EDGE('',*,*,#118,.F.);
#161=ORIENTED_EDGE('',*,*,#99,.T.);
#162=ORIENTED_EDGE('',*,*,#103,.F.);
#163=ORIENTED_EDGE('',*,*,#106,.F.);
#164=ORIENTED_EDGE('',*,*,#109,.T.);
#165=ORIENTED_EDGE('',*,*,#112,.F.);
#166=ORIENTED_EDGE('',*,*,#115,.F.);
#167=ORIENTED_EDGE('',*,*,#98,.F.);
#168=CYLINDRICAL_SURFACE('',#200,10.);
#169=CYLINDRICAL_SURFACE('',#203,20.);
#170=CYLINDRICAL_SURFACE('',#206,6.);
#171=CYLINDRICAL_SURFACE('',#210,38.);
#172=CYLINDRICAL_SURFACE('',#213,18.);
#173=CYLINDRICAL_SURFACE('',#216,54.9169639808444);
#174=CYLINDRICAL_SURFACE('',#219,6.00000000000001);
#175=ADVANCED_FACE('',(#24),#168,.F.);
#176=ADVANCED_FACE('',(#25),#169,.F.);
#177=ADVANCED_FACE('',(#26),#170,.T.);
#178=ADVANCED_FACE('',(#27),#21,.T.);
#179=ADVANCED_FACE('',(#28),#171,.F.);
#180=ADVANCED_FACE('',(#29),#172,.T.);
#181=ADVANCED_FACE('',(#30),#173,.T.);
#182=ADVANCED_FACE('',(#31),#174,.T.);
#183=ADVANCED_FACE('',(#32,#19),#22,.T.);
#184=ADVANCED_FACE('',(#33,#20),#23,.F.);
#185=CLOSED_SHELL('',(#175,#176,#177,#178,#179,#180,#181,#182,#183,#184));
#186=DERIVED_UNIT_ELEMENT(#188,1.);
#187=DERIVED_UNIT_ELEMENT(#349,3.);
#188=(
MASS_UNIT()
NAMED_UNIT(*)
SI_UNIT(.KILO.,.GRAM.)
);
#189=DERIVED_UNIT((#186,#187));
#190=MEASURE_REPRESENTATION_ITEM('density measure',
POSITIVE_RATIO_MEASURE(7850.),#189);
#191=PROPERTY_DEFINITION_REPRESENTATION(#196,#193);
#192=PROPERTY_DEFINITION_REPRESENTATION(#197,#194);
#193=REPRESENTATION('material name',(#195),#346);
#194=REPRESENTATION('density',(#190),#346);
#195=DESCRIPTIVE_REPRESENTATION_ITEM('Acier','Acier');
#196=PROPERTY_DEFINITION('material property','material name',#361);
#197=PROPERTY_DEFINITION('material property','density of part',#361);
#198=AXIS2_PLACEMENT_3D('placement',#289,#225,#226);
#199=AXIS2_PLACEMENT_3D('placement',#290,#227,#228);
#200=AXIS2_PLACEMENT_3D('',#291,#229,#230);
#201=AXIS2_PLACEMENT_3D('',#293,#231,#232);
#202=AXIS2_PLACEMENT_3D('',#296,#234,#235);
#203=AXIS2_PLACEMENT_3D('',#297,#236,#237);
#204=AXIS2_PLACEMENT_3D('',#300,#238,#239);
#205=AXIS2_PLACEMENT_3D('',#304,#241,#242);
#206=AXIS2_PLACEMENT_3D('',#306,#244,#245);
#207=AXIS2_PLACEMENT_3D('',#308,#246,#247);
#208=AXIS2_PLACEMENT_3D('',#310,#248,#249);
#209=AXIS2_PLACEMENT_3D('',#312,#251,#252);
#210=AXIS2_PLACEMENT_3D('',#318,#256,#257);
#211=AXIS2_PLACEMENT_3D('',#320,#258,#259);
#212=AXIS2_PLACEMENT_3D('',#322,#260,#261);
#213=AXIS2_PLACEMENT_3D('',#324,#263,#264);
#214=AXIS2_PLACEMENT_3D('',#326,#265,#266);
#215=AXIS2_PLACEMENT_3D('',#328,#267,#268);
#216=AXIS2_PLACEMENT_3D('',#330,#270,#271);
#217=AXIS2_PLACEMENT_3D('',#332,#272,#273);
#218=AXIS2_PLACEMENT_3D('',#334,#274,#275);
#219=AXIS2_PLACEMENT_3D('',#336,#277,#278);
#220=AXIS2_PLACEMENT_3D('',#337,#279,#280);
#221=AXIS2_PLACEMENT_3D('',#338,#281,#282);
#222=AXIS2_PLACEMENT_3D('',#339,#283,#284);
#223=AXIS2_PLACEMENT_3D('',#340,#285,#286);
#224=AXIS2_PLACEMENT_3D('',#341,#287,#288);
#225=DIRECTION('axis',(0.,0.,1.));
#226=DIRECTION('refdir',(1.,0.,0.));
#227=DIRECTION('axis',(0.,0.,1.));
#228=DIRECTION('refdir',(1.,0.,0.));
#229=DIRECTION('center_axis',(0.,0.,1.));
#230=DIRECTION('ref_axis',(1.,0.,0.));
#231=DIRECTION('center_axis',(0.,0.,-1.));
#232=DIRECTION('ref_axis',(1.,0.,0.));
#233=DIRECTION('',(0.,0.,-1.));
#234=DIRECTION('center_axis',(0.,0.,-1.));
#235=DIRECTION('ref_axis',(1.,0.,0.));
#236=DIRECTION('center_axis',(0.,0.,1.));
#237=DIRECTION('ref_axis',(0.308602805893359,-0.951190994592961,0.));
#238=DIRECTION('center_axis',(0.,0.,1.));
#239=DIRECTION('ref_axis',(0.308602805893359,-0.951190994592961,0.));
#240=DIRECTION('',(0.,0.,1.));
#241=DIRECTION('center_axis',(0.,0.,-1.));
#242=DIRECTION('ref_axis',(0.308602805893359,-0.951190994592961,0.));
#243=DIRECTION('',(0.,0.,1.));
#244=DIRECTION('center_axis',(0.,0.,1.));
#245=DIRECTION('ref_axis',(0.171807534764066,0.985130535004521,0.));
#246=DIRECTION('center_axis',(0.,0.,1.));
#247=DIRECTION('ref_axis',(0.171807534764066,0.985130535004521,0.));
#248=DIRECTION('center_axis',(0.,0.,1.));
#249=DIRECTION('ref_axis',(0.171807534764066,0.985130535004521,0.));
#250=DIRECTION('',(0.,0.,1.));
#251=DIRECTION('center_axis',(-0.969664085108222,-0.244441326398045,0.));
#252=DIRECTION('ref_axis',(0.244441326398045,-0.969664085108221,0.));
#253=DIRECTION('',(0.244441326398045,-0.969664085108221,0.));
#254=DIRECTION('',(0.244441326398045,-0.969664085108221,0.));
#255=DIRECTION('',(0.,0.,1.));
#256=DIRECTION('center_axis',(0.,0.,1.));
#257=DIRECTION('ref_axis',(0.,-1.,0.));
#258=DIRECTION('center_axis',(0.,0.,1.));
#259=DIRECTION('ref_axis',(0.,-1.,0.));
#260=DIRECTION('center_axis',(0.,0.,-1.));
#261=DIRECTION('ref_axis',(0.,-1.,0.));
#262=DIRECTION('',(0.,0.,1.));
#263=DIRECTION('center_axis',(0.,0.,1.));
#264=DIRECTION('ref_axis',(0.969758431857078,-0.24406676103497,0.));
#265=DIRECTION('center_axis',(0.,0.,1.));
#266=DIRECTION('ref_axis',(0.969758431857078,-0.24406676103497,0.));
#267=DIRECTION('center_axis',(0.,0.,1.));
#268=DIRECTION('ref_axis',(0.969758431857078,-0.24406676103497,0.));
#269=DIRECTION('',(0.,0.,1.));
#270=DIRECTION('center_axis',(0.,0.,1.));
#271=DIRECTION('ref_axis',(0.244441326398058,-0.969664085108218,0.));
#272=DIRECTION('center_axis',(0.,0.,1.));
#273=DIRECTION('ref_axis',(0.244441326398058,-0.969664085108218,0.));
#274=DIRECTION('center_axis',(0.,0.,1.));
#275=DIRECTION('ref_axis',(0.244441326398058,-0.969664085108218,0.));
#276=DIRECTION('',(0.,0.,1.));
#277=DIRECTION('center_axis',(0.,0.,1.));
#278=DIRECTION('ref_axis',(-0.964211906829407,-0.265132794517011,0.));
#279=DIRECTION('center_axis',(0.,0.,1.));
#280=DIRECTION('ref_axis',(-0.964211906829407,-0.265132794517011,0.));
#281=DIRECTION('center_axis',(0.,0.,1.));
#282=DIRECTION('ref_axis',(-0.964211906829407,-0.265132794517011,0.));
#283=DIRECTION('center_axis',(0.,0.,1.));
#284=DIRECTION('ref_axis',(1.,0.,0.));
#285=DIRECTION('center_axis',(0.,0.,1.));
#286=DIRECTION('ref_axis',(1.,0.,0.));
#287=DIRECTION('',(0.,0.,1.));
#288=DIRECTION('',(1.,0.,0.));
#289=CARTESIAN_POINT('',(0.,0.,0.));
#290=CARTESIAN_POINT('',(0.,0.,0.));
#291=CARTESIAN_POINT('Origin',(35.8005370989879,20.9897961739507,0.));
#292=CARTESIAN_POINT('',(25.8005370989879,20.9897961739507,10.));
#293=CARTESIAN_POINT('Origin',(35.8005370989879,20.9897961739507,10.));
#294=CARTESIAN_POINT('',(25.8005370989879,20.9897961739507,0.));
#295=CARTESIAN_POINT('',(25.8005370989879,20.9897961739507,0.));
#296=CARTESIAN_POINT('Origin',(35.8005370989879,20.9897961739507,0.));
#297=CARTESIAN_POINT('Origin',(0.,0.,0.));
#298=CARTESIAN_POINT('',(6.17205611786718,-19.0238198918592,0.));
#299=CARTESIAN_POINT('',(-5.93211597998561,19.1,0.));
#300=CARTESIAN_POINT('Origin',(0.,0.,0.));
#301=CARTESIAN_POINT('',(6.17205611786718,-19.0238198918592,10.));
#302=CARTESIAN_POINT('',(6.17205611786718,-19.0238198918592,0.));
#303=CARTESIAN_POINT('',(-5.93211597998561,19.1,10.));
#304=CARTESIAN_POINT('Origin',(0.,0.,10.));
#305=CARTESIAN_POINT('',(-5.93211597998561,19.1,0.));
#306=CARTESIAN_POINT('Origin',(0.,20.,0.));
#307=CARTESIAN_POINT('',(1.03084520858439,25.9107832100271,0.));
#308=CARTESIAN_POINT('Origin',(0.,20.,0.));
#309=CARTESIAN_POINT('',(1.03084520858439,25.9107832100271,10.));
#310=CARTESIAN_POINT('Origin',(0.,20.,10.));
#311=CARTESIAN_POINT('',(1.03084520858439,25.9107832100271,0.));
#312=CARTESIAN_POINT('Origin',(1.00500384662619,26.0132922291459,0.));
#313=CARTESIAN_POINT('',(1.00500384662618,26.0132922291459,0.));
#314=CARTESIAN_POINT('',(1.00500384662618,26.0132922291459,0.));
#315=CARTESIAN_POINT('',(1.00500384662618,26.0132922291459,10.));
#316=CARTESIAN_POINT('',(1.00500384662618,26.0132922291459,10.));
#317=CARTESIAN_POINT('',(1.00500384662618,26.0132922291459,0.));
#318=CARTESIAN_POINT('Origin',(0.,64.,0.));
#319=CARTESIAN_POINT('',(25.058898337508,35.4333828724779,0.));
#320=CARTESIAN_POINT('Origin',(0.,64.,0.));
#321=CARTESIAN_POINT('',(25.058898337508,35.4333828724779,10.));
#322=CARTESIAN_POINT('Origin',(0.,64.,10.));
#323=CARTESIAN_POINT('',(25.058898337508,35.4333828724779,0.));
#324=CARTESIAN_POINT('Origin',(35.8005370989879,20.9897961739507,0.));
#325=CARTESIAN_POINT('',(53.2561888724153,16.5965944753212,0.));
#326=CARTESIAN_POINT('Origin',(35.8005370989879,20.9897961739507,0.));
#327=CARTESIAN_POINT('',(53.2561888724153,16.5965944753212,10.));
#328=CARTESIAN_POINT('Origin',(35.8005370989879,20.9897961739507,10.));
#329=CARTESIAN_POINT('',(53.2561888724153,16.5965944753212,0.));
#330=CARTESIAN_POINT('Origin',(0.,30.,0.));
#331=CARTESIAN_POINT('',(13.423975517232,-23.2510076354065,0.));
#332=CARTESIAN_POINT('Origin',(0.,30.,0.));
#333=CARTESIAN_POINT('',(13.423975517232,-23.2510076354065,10.));
#334=CARTESIAN_POINT('Origin',(0.,30.,10.));
#335=CARTESIAN_POINT('',(13.423975517232,-23.2510076354065,0.));
#336=CARTESIAN_POINT('Origin',(11.9573275588436,-17.4330231247571,0.));
#337=CARTESIAN_POINT('Origin',(11.9573275588436,-17.4330231247571,0.));
#338=CARTESIAN_POINT('Origin',(11.9573275588436,-17.4330231247571,10.));
#339=CARTESIAN_POINT('Origin',(23.9002685494939,7.77838652459675,10.));
#340=CARTESIAN_POINT('Origin',(23.9002685494939,7.77838652459675,0.));
#341=CARTESIAN_POINT('',(0.,0.,0.));
#342=UNCERTAINTY_MEASURE_WITH_UNIT(LENGTH_MEASURE(0.01),#348,
'DISTANCE_ACCURACY_VALUE',
'Maximum model space distance between geometric entities at asserted c
onnectivities');
#343=UNCERTAINTY_MEASURE_WITH_UNIT(LENGTH_MEASURE(0.01),#348,
'DISTANCE_ACCURACY_VALUE',
'Maximum model space distance between geometric entities at asserted c
onnectivities');
#344=UNCERTAINTY_MEASURE_WITH_UNIT(LENGTH_MEASURE(0.01),#348,
'DISTANCE_ACCURACY_VALUE',
'Maximum model space distance between geometric entities at asserted c
onnectivities');
#345=(
GEOMETRIC_REPRESENTATION_CONTEXT(3)
GLOBAL_UNCERTAINTY_ASSIGNED_CONTEXT((#342))
GLOBAL_UNIT_ASSIGNED_CONTEXT((#348,#350,#351))
REPRESENTATION_CONTEXT('','3D')
);
#346=(
GEOMETRIC_REPRESENTATION_CONTEXT(3)
GLOBAL_UNCERTAINTY_ASSIGNED_CONTEXT((#343))
GLOBAL_UNIT_ASSIGNED_CONTEXT((#348,#350,#351))
REPRESENTATION_CONTEXT('','3D')
);
#347=(
GEOMETRIC_REPRESENTATION_CONTEXT(3)
GLOBAL_UNCERTAINTY_ASSIGNED_CONTEXT((#344))
GLOBAL_UNIT_ASSIGNED_CONTEXT((#348,#350,#351))
REPRESENTATION_CONTEXT('','3D')
);
#348=(
LENGTH_UNIT()
NAMED_UNIT(*)
SI_UNIT(.MILLI.,.METRE.)
);
#349=(
LENGTH_UNIT()
NAMED_UNIT(*)
SI_UNIT($,.METRE.)
);
#350=(
NAMED_UNIT(*)
PLANE_ANGLE_UNIT()
SI_UNIT($,.RADIAN.)
);
#351=(
NAMED_UNIT(*)
SI_UNIT($,.STERADIAN.)
SOLID_ANGLE_UNIT()
);
#352=SHAPE_DEFINITION_REPRESENTATION(#354,#357);
#353=SHAPE_DEFINITION_REPRESENTATION(#355,#358);
#354=PRODUCT_DEFINITION_SHAPE('',$,#360);
#355=PRODUCT_DEFINITION_SHAPE('',$,#361);
#356=PRODUCT_DEFINITION_SHAPE($,$,#14);
#357=SHAPE_REPRESENTATION('',(#198,#224),#345);
#358=SHAPE_REPRESENTATION('',(#199),#346);
#359=PRODUCT_DEFINITION_CONTEXT('part definition',#367,'design');
#360=PRODUCT_DEFINITION('Renfort suspension','Renfort suspension v4',#362,
#359);
#361=PRODUCT_DEFINITION('Renfort','Renfort',#363,#359);
#362=PRODUCT_DEFINITION_FORMATION('',$,#369);
#363=PRODUCT_DEFINITION_FORMATION('',$,#370);
#364=PRODUCT_RELATED_PRODUCT_CATEGORY('Renfort suspension v4',
'Renfort suspension v4',(#369));
#365=PRODUCT_RELATED_PRODUCT_CATEGORY('Renfort','Renfort',(#370));
#366=APPLICATION_PROTOCOL_DEFINITION('international standard',
'automotive_design',2009,#367);
#367=APPLICATION_CONTEXT(
'Core Data for Automotive Mechanical Design Process');
#368=PRODUCT_CONTEXT('part definition',#367,'mechanical');
#369=PRODUCT('Renfort suspension','Renfort suspension v4',$,(#368));
#370=PRODUCT('Renfort','Renfort',$,(#368));
#371=PRESENTATION_STYLE_ASSIGNMENT((#372));
#372=SURFACE_STYLE_USAGE(.BOTH.,#373);
#373=SURFACE_SIDE_STYLE('',(#374));
#374=SURFACE_STYLE_FILL_AREA(#375);
#375=FILL_AREA_STYLE('Acier - Satin\X\E9',(#376));
#376=FILL_AREA_STYLE_COLOUR('Acier - Satin\X\E9',#377);
#377=COLOUR_RGB('Acier - Satin\X\E9',0.627450980392157,0.627450980392157,
0.627450980392157);
ENDSEC;
END-ISO-10303-21;
