  0
SECTION
  2
HEADER
  9
$ACADVER
  1
AC1015
  9
$ACADMAINTVER
 70
     6
  9
$DWGCODEPAGE
  3
ANSI_1252
  9
$INSBASE
 10
0.0
 20
0.0
 30
0.0
  9
$EXTMIN
 10
-72.2688256624
 20
-2.316328224
 30
0.0
  9
$EXTMAX
 10
27.389100646
 20
280.9712200592
 30
0.0
  9
$LIMMIN
 10
0.0
 20
0.0
  9
$LIMMAX
 10
420.0
 20
297.0
  9
$ORTHOMODE
 70
     0
  9
$REGENMODE
 70
     1
  9
$FILLMODE
 70
     1
  9
$QTEXTMODE
 70
     0
  9
$MIRRTEXT
 70
     1
  9
$LTSCALE
 40
1.0
  9
$ATTMODE
 70
     1
  9
$TEXTSIZE
 40
3.5
  9
$TRACEWID
 40
1.0
  9
$TEXTSTYLE
  7
Standard
  9
$CLAYER
  8
0
  9
$CELTYPE
  6
ByLayer
  9
$CECOLOR
 62
   256
  9
$CELTSCALE
 40
1.0
  9
$DISPSILH
 70
     0
  9
$DIMSCALE
 40
1.0
  9
$DIMASZ
 40
3.302
  9
$DIMEXO
 40
1.0
  9
$DIMDLI
 40
3.75
  9
$DIMRND
 40
0.0
  9
$DIMDLE
 40
0.0
  9
$DIMEXE
 40
1.0
  9
$DIMTP
 40
0.0
  9
$DIMTM
 40
0.0
  9
$DIMTXT
 40
3.5
  9
$DIMCEN
 40
2.5
  9
$DIMTSZ
 40
0.0
  9
$DIMTOL
 70
     0
  9
$DIMLIM
 70
     0
  9
$DIMTIH
 70
     1
  9
$DIMTOH
 70
     1
  9
$DIMSE1
 70
     0
  9
$DIMSE2
 70
     0
  9
$DIMTAD
 70
     1
  9
$DIMZIN
 70
     0
  9
$DIMBLK
  1

  9
$DIMASO
 70
     1
  9
$DIMSHO
 70
     1
  9
$DIMPOST
  1

  9
$DIMAPOST
  1

  9
$DIMALT
 70
     0
  9
$DIMALTD
 70
     3
  9
$DIMALTF
 40
0.0393700787
  9
$DIMLFAC
 40
1.0
  9
$DIMTOFL
 70
     1
  9
$DIMTVP
 40
0.0
  9
$DIMTIX
 70
     0
  9
$DIMSOXD
 70
     0
  9
$DIMSAH
 70
     0
  9
$DIMBLK1
  1

  9
$DIMBLK2
  1

  9
$DIMSTYLE
  2
ISO-25
  9
$DIMCLRD
 70
     0
  9
$DIMCLRE
 70
     0
  9
$DIMCLRT
 70
     0
  9
$DIMTFAC
 40
1.0
  9
$DIMGAP
 40
1.524
  9
$DIMJUST
 70
     0
  9
$DIMSD1
 70
     0
  9
$DIMSD2
 70
     0
  9
$DIMTOLJ
 70
     0
  9
$DIMTZIN
 70
     0
  9
$DIMALTZ
 70
     0
  9
$DIMALTTZ
 70
     0
  9
$DIMUPT
 70
     0
  9
$DIMDEC
 70
     2
  9
$DIMTDEC
 70
     2
  9
$DIMALTU
 70
     2
  9
$DIMALTTD
 70
     3
  9
$DIMTXSTY
  7
Standard
  9
$DIMAUNIT
 70
     0
  9
$DIMADEC
 70
     2
  9
$DIMALTRND
 40
0.0
  9
$DIMAZIN
 70
     0
  9
$DIMDSEP
 70
    44
  9
$DIMATFIT
 70
     3
  9
$DIMFRAC
 70
     0
  9
$DIMLDRBLK
  1

  9
$DIMLUNIT
 70
     2
  9
$DIMLWD
 70
    -2
  9
$DIMLWE
 70
    -2
  9
$DIMTMOVE
 70
     0
  9
$LUNITS
 70
     2
  9
$LUPREC
 70
     2
  9
$SKETCHINC
 40
1.0
  9
$FILLETRAD
 40
10.0
  9
$AUNITS
 70
     0
  9
$AUPREC
 70
     2
  9
$MENU
  1
.
  9
$ELEVATION
 40
0.0
  9
$PELEVATION
 40
0.0
  9
$THICKNESS
 40
0.0
  9
$LIMCHECK
 70
     0
  9
$CHAMFERA
 40
0.0
  9
$CHAMFERB
 40
0.0
  9
$CHAMFERC
 40
0.0
  9
$CHAMFERD
 40
0.0
  9
$SKPOLY
 70
     0
  9
$TDCREATE
 40
2459223.496735822
  9
$TDUCREATE
 40
2459223.455069155
  9
$TDUPDATE
 40
2459223.496800336
  9
$TDUUPDATE
 40
2459223.455133669
  9
$TDINDWG
 40
0.0000000116
  9
$TDUSRTIMER
 40
0.0000000116
  9
$USRTIMER
 70
     1
  9
$ANGBASE
 50
0.0
  9
$ANGDIR
 70
     0
  9
$PDMODE
 70
     0
  9
$PDSIZE
 40
-1.0
  9
$PLINEWID
 40
0.0
  9
$SPLFRAME
 70
     0
  9
$SPLINETYPE
 70
     6
  9
$SPLINESEGS
 70
     8
  9
$HANDSEED
  5
25C
  9
$SURFTAB1
 70
     6
  9
$SURFTAB2
 70
     6
  9
$SURFTYPE
 70
     6
  9
$SURFU
 70
     6
  9
$SURFV
 70
     6
  9
$UCSBASE
  2

  9
$UCSNAME
  2

  9
$UCSORG
 10
0.0
 20
0.0
 30
0.0
  9
$UCSXDIR
 10
1.0
 20
0.0
 30
0.0
  9
$UCSYDIR
 10
0.0
 20
1.0
 30
0.0
  9
$UCSORTHOREF
  2

  9
$UCSORTHOVIEW
 70
     0
  9
$UCSORGTOP
 10
0.0
 20
0.0
 30
0.0
  9
$UCSORGBOTTOM
 10
0.0
 20
0.0
 30
0.0
  9
$UCSORGLEFT
 10
0.0
 20
0.0
 30
0.0
  9
$UCSORGRIGHT
 10
0.0
 20
0.0
 30
0.0
  9
$UCSORGFRONT
 10
0.0
 20
0.0
 30
0.0
  9
$UCSORGBACK
 10
0.0
 20
0.0
 30
0.0
  9
$PUCSBASE
  2

  9
$PUCSNAME
  2

  9
$PUCSORG
 10
0.0
 20
0.0
 30
0.0
  9
$PUCSXDIR
 10
1.0
 20
0.0
 30
0.0
  9
$PUCSYDIR
 10
0.0
 20
1.0
 30
0.0
  9
$PUCSORTHOREF
  2

  9
$PUCSORTHOVIEW
 70
     0
  9
$PUCSORGTOP
 10
0.0
 20
0.0
 30
0.0
  9
$PUCSORGBOTTOM
 10
0.0
 20
0.0
 30
0.0
  9
$PUCSORGLEFT
 10
0.0
 20
0.0
 30
0.0
  9
$PUCSORGRIGHT
 10
0.0
 20
0.0
 30
0.0
  9
$PUCSORGFRONT
 10
0.0
 20
0.0
 30
0.0
  9
$PUCSORGBACK
 10
0.0
 20
0.0
 30
0.0
  9
$USERI1
 70
     0
  9
$USERI2
 70
     0
  9
$USERI3
 70
     0
  9
$USERI4
 70
     0
  9
$USERI5
 70
     0
  9
$USERR1
 40
0.0
  9
$USERR2
 40
0.0
  9
$USERR3
 40
0.0
  9
$USERR4
 40
0.0
  9
$USERR5
 40
0.0
  9
$WORLDVIEW
 70
     1
  9
$SHADEDGE
 70
     3
  9
$SHADEDIF
 70
    70
  9
$TILEMODE
 70
     1
  9
$MAXACTVP
 70
    64
  9
$PINSBASE
 10
0.0
 20
0.0
 30
0.0
  9
$PLIMCHECK
 70
     0
  9
$PEXTMIN
 10
0.0
 20
-3.0
 30
0.0
  9
$PEXTMAX
 10
30.0
 20
175.0
 30
0.0
  9
$PLIMMIN
 10
-18.2564102564
 20
-9.8461538462
  9
$PLIMMAX
 10
252.8512820513
 20
181.8461538462
  9
$UNITMODE
 70
     0
  9
$VISRETAIN
 70
     1
  9
$PLINEGEN
 70
     0
  9
$PSLTSCALE
 70
     1
  9
$TREEDEPTH
 70
  3020
  9
$CMLSTYLE
  2
Standard
  9
$CMLJUST
 70
     0
  9
$CMLSCALE
 40
20.0
  9
$PROXYGRAPHICS
 70
     1
  9
$MEASUREMENT
 70
     1
  9
$CELWEIGHT
370
    -1
  9
$ENDCAPS
280
     0
  9
$JOINSTYLE
280
     0
  9
$LWDISPLAY
290
     1
  9
$INSUNITS
 70
     4
  9
$HYPERLINKBASE
  1

  9
$STYLESHEET
  1

  9
$XEDIT
290
     1
  9
$CEPSNTYPE
380
     0
  9
$PSTYLEMODE
290
     1
  9
$FINGERPRINTGUID
  2
{2658FB32-66A9-4EF2-989B-9A3D43EEBD6C}
  9
$VERSIONGUID
  2
{FAEB1C32-E019-11D5-929B-00C0DF256EC4}
  9
$EXTNAMES
290
     1
  9
$PSVPSCALE
 40
0.0
  9
$OLESTARTUP
290
     0
  0
ENDSEC
  0
SECTION
  2
CLASSES
  0
CLASS
  1
ACDBDICTIONARYWDFLT
  2
AcDbDictionaryWithDefault
  3
ObjectDBX Classes
 90
        0
280
     0
281
     0
  0
CLASS
  1
VISUALSTYLE
  2
AcDbVisualStyle
  3
ObjectDBX Classes
 90
     4095
280
     0
281
     0
  0
CLASS
  1
MATERIAL
  2
AcDbMaterial
  3
ObjectDBX Classes
 90
     1153
280
     0
281
     0
  0
CLASS
  1
SCALE
  2
AcDbScale
  3
ObjectDBX Classes
 90
     1153
280
     0
281
     0
  0
CLASS
  1
TABLESTYLE
  2
AcDbTableStyle
  3
ObjectDBX Classes
 90
     4095
280
     0
281
     0
  0
CLASS
  1
MLEADERSTYLE
  2
AcDbMLeaderStyle
  3
ACDB_MLEADERSTYLE_CLASS
 90
     4095
280
     0
281
     0
  0
CLASS
  1
SUN
  2
AcDbSun
  3
SCENEOE
 90
     1153
280
     0
281
     0
  0
CLASS
  1
ACDBPLACEHOLDER
  2
AcDbPlaceHolder
  3
ObjectDBX Classes
 90
        0
280
     0
281
     0
  0
CLASS
  1
LAYOUT
  2
AcDbLayout
  3
ObjectDBX Classes
 90
        0
280
     0
281
     0
  0
ENDSEC
  0
SECTION
  2
TABLES
  0
TABLE
  2
VPORT
  5
8
330
0
100
AcDbSymbolTable
 70
     1
  0
VPORT
  5
29
330
8
100
AcDbSymbolTableRecord
100
AcDbViewportTableRecord
  2
*Active
 70
     0
 10
0.0
 20
0.0
 11
1.0
 21
1.0
 12
-22.4398625082
 22
139.3274459176
 13
0.0
 23
0.0
 14
10.0
 24
10.0
 15
10.0
 25
10.0
 16
0.0
 26
0.0
 36
1.0
 17
0.0
 27
0.0
 37
0.0
 40
288.9532992489
 41
0.3517907049
 42
50.0
 43
0.0
 44
0.0
 50
0.0
 51
0.0
 71
     0
 72
   100
 73
     1
 74
     3
 75
     0
 76
     0
 77
     0
 78
     0
281
     0
 65
     1
110
0.0
120
0.0
130
0.0
111
1.0
121
0.0
131
0.0
112
0.0
122
1.0
132
0.0
 79
     0
146
0.0
  0
ENDTAB
  0
TABLE
  2
LTYPE
  5
5
330
0
100
AcDbSymbolTable
 70
     6
  0
LTYPE
  5
14
330
5
100
AcDbSymbolTableRecord
100
AcDbLinetypeTableRecord
  2
ByBlock
 70
     0
  3

 72
    65
 73
     0
 40
0.0
  0
LTYPE
  5
15
330
5
100
AcDbSymbolTableRecord
100
AcDbLinetypeTableRecord
  2
ByLayer
 70
     0
  3

 72
    65
 73
     0
 40
0.0
  0
LTYPE
  5
16
330
5
100
AcDbSymbolTableRecord
100
AcDbLinetypeTableRecord
  2
Continuous
 70
     0
  3
Solid line
 72
    65
 73
     0
 40
0.0
  0
LTYPE
  5
6E
330
5
100
AcDbSymbolTableRecord
100
AcDbLinetypeTableRecord
  2
HIDDEN
 70
     0
  3
Hidden __ __ __ __ __ __ __ __ __ __ __ __ __ __
 72
    65
 73
     2
 40
1.905
 49
1.27
 74
     0
 49
-0.635
 74
     0
  0
LTYPE
  5
6F
330
5
100
AcDbSymbolTableRecord
100
AcDbLinetypeTableRecord
  2
PHANTOM
 70
     0
  3
Phantom ______  __  __  ______  __  __  ______
 72
    65
 73
     6
 40
12.7
 49
6.35
 74
     0
 49
-1.27
 74
     0
 49
1.27
 74
     0
 49
-1.27
 74
     0
 49
1.27
 74
     0
 49
-1.27
 74
     0
  0
LTYPE
  5
70
330
5
100
AcDbSymbolTableRecord
100
AcDbLinetypeTableRecord
  2
CENTER
 70
     0
  3
Center ____ _ ____ _ ____ _ ____ _ ____ _ ____
 72
    65
 73
     4
 40
10.16
 49
6.35
 74
     0
 49
-1.27
 74
     0
 49
1.27
 74
     0
 49
-1.27
 74
     0
  0
LTYPE
  5
71
330
5
100
AcDbSymbolTableRecord
100
AcDbLinetypeTableRecord
  2
CENTERX2
 70
     0
  3
Center (2x) ________  __  ________  __  _____
 72
    65
 73
     4
 40
20.32
 49
12.7
 74
     0
 49
-2.54
 74
     0
 49
2.54
 74
     0
 49
-2.54
 74
     0
  0
LTYPE
  5
72
330
5
100
AcDbSymbolTableRecord
100
AcDbLinetypeTableRecord
  2
DOT2
 70
     0
  3
Dot (.5x) ........................................
 72
    65
 73
     2
 40
0.635
 49
0.0
 74
     0
 49
-0.635
 74
     0
  0
ENDTAB
  0
TABLE
  2
LAYER
  5
2
330
0
100
AcDbSymbolTable
 70
     1
  0
LAYER
  5
10
330
2
100
AcDbSymbolTableRecord
100
AcDbLayerTableRecord
  2
0
 70
     0
 62
     7
  6
Continuous
370
    -3
390
F
  0
ENDTAB
  0
TABLE
  2
STYLE
  5
3
330
0
100
AcDbSymbolTable
 70
     1
  0
STYLE
  5
11
330
3
100
AcDbSymbolTableRecord
100
AcDbTextStyleTableRecord
  2
Standard
 70
     0
 40
0.0
 41
1.0
 50
0.0
 71
     0
 42
3.5
  3
txt
  4

  0
ENDTAB
  0
TABLE
  2
VIEW
  5
6
330
0
100
AcDbSymbolTable
 70
     0
  0
ENDTAB
  0
TABLE
  2
UCS
  5
7
330
0
100
AcDbSymbolTable
 70
     0
  0
ENDTAB
  0
TABLE
  2
APPID
  5
9
330
0
100
AcDbSymbolTable
 70
     1
  0
APPID
  5
12
330
9
100
AcDbSymbolTableRecord
100
AcDbRegAppTableRecord
  2
ACAD
 70
     0
  0
ENDTAB
  0
TABLE
  2
DIMSTYLE
  5
A
330
0
100
AcDbSymbolTable
 70
     1
100
AcDbDimStyleTable
  0
DIMSTYLE
105
27
330
A
100
AcDbSymbolTableRecord
100
AcDbDimStyleTableRecord
  2
ISO-25
 70
     0
 41
2.5
 42
0.625
 43
3.75
 44
1.25
 73
     0
 74
     0
 77
     1
 78
     8
140
2.5
141
2.5
143
0.0393700787
147
0.625
171
     3
172
     1
178
     0
271
     2
272
     2
274
     3
278
    44
283
     0
284
     8
340
11
  0
ENDTAB
  0
TABLE
  2
BLOCK_RECORD
  5
1
330
0
100
AcDbSymbolTable
 70
    10
  0
BLOCK_RECORD
  5
1F
330
1
100
AcDbSymbolTableRecord
100
AcDbBlockTableRecord
  2
*Model_Space
340
22
  0
BLOCK_RECORD
  5
1B
330
1
100
AcDbSymbolTableRecord
100
AcDbBlockTableRecord
  2
*Paper_Space
340
1E
  0
BLOCK_RECORD
  5
23
330
1
100
AcDbSymbolTableRecord
100
AcDbBlockTableRecord
  2
*Paper_Space0
340
26
  0
BLOCK_RECORD
  5
E7
330
1
100
AcDbSymbolTableRecord
100
AcDbBlockTableRecord
  2
*Paper_Space1
340
E8
  0
BLOCK_RECORD
  5
FE
330
1
100
AcDbSymbolTableRecord
100
AcDbBlockTableRecord
  2
*Paper_Space2
340
FF
  0
BLOCK_RECORD
  5
117
330
1
100
AcDbSymbolTableRecord
100
AcDbBlockTableRecord
  2
*Paper_Space3
340
118
  0
BLOCK_RECORD
  5
130
330
1
100
AcDbSymbolTableRecord
100
AcDbBlockTableRecord
  2
*Paper_Space4
340
131
  0
BLOCK_RECORD
  5
145
330
1
100
AcDbSymbolTableRecord
100
AcDbBlockTableRecord
  2
*Paper_Space5
340
146
  0
BLOCK_RECORD
  5
15D
330
1
100
AcDbSymbolTableRecord
100
AcDbBlockTableRecord
  2
*Paper_Space6
340
15E
  0
BLOCK_RECORD
  5
170
330
1
100
AcDbSymbolTableRecord
100
AcDbBlockTableRecord
  2
*Paper_Space7
340
171
  0
BLOCK_RECORD
  5
1BA
330
1
100
AcDbSymbolTableRecord
100
AcDbBlockTableRecord
  2
*Paper_Space8
340
1BB
  0
BLOCK_RECORD
  5
1FF
330
1
100
AcDbSymbolTableRecord
100
AcDbBlockTableRecord
  2
*Paper_Space9
340
200
  0
ENDTAB
  0
ENDSEC
  0
SECTION
  2
BLOCKS
  0
BLOCK
  5
20
330
1F
100
AcDbEntity
  8
0
100
AcDbBlockBegin
  2
*Model_Space
 70
     0
 10
0.0
 20
0.0
 30
0.0
  3
*Model_Space
  1

  0
ENDBLK
  5
21
330
1F
100
AcDbEntity
  8
0
100
AcDbBlockEnd
  0
BLOCK
  5
1C
330
1B
100
AcDbEntity
 67
     1
  8
0
100
AcDbBlockBegin
  2
*Paper_Space
 70
     0
 10
0.0
 20
0.0
 30
0.0
  3
*Paper_Space
  1

  0
ENDBLK
  5
1D
330
1B
100
AcDbEntity
 67
     1
  8
0
100
AcDbBlockEnd
  0
BLOCK
  5
24
330
23
100
AcDbEntity
  8
0
100
AcDbBlockBegin
  2
*Paper_Space0
 70
     0
 10
0.0
 20
0.0
 30
0.0
  3
*Paper_Space0
  1

  0
LINE
  5
DD
330
23
100
AcDbEntity
  8
0
  6
Continuous
 62
     7
370
    15
100
AcDbLine
 10
203.0
 20
22.0
 30
0.0
 11
228.0
 21
22.0
 31
0.0
  0
LINE
  5
DE
330
23
100
AcDbEntity
  8
0
  6
Continuous
 62
     7
370
    15
100
AcDbLine
 10
203.0
 20
-3.0
 30
0.0
 11
203.0
 21
22.0
 31
0.0
  0
LINE
  5
DF
330
23
100
AcDbEntity
  8
0
  6
Continuous
 62
     7
370
    15
100
AcDbLine
 10
0.0
 20
-3.0
 30
0.0
 11
203.0
 21
-3.0
 31
0.0
  0
LINE
  5
E0
330
23
100
AcDbEntity
  8
0
  6
Continuous
 62
     7
370
    15
100
AcDbLine
 10
0.0
 20
-3.0
 30
0.0
 11
0.0
 21
0.0
 31
0.0
  0
LINE
  5
E1
330
23
100
AcDbEntity
  8
0
  6
Continuous
 62
     7
370
    15
100
AcDbLine
 10
0.0
 20
0.0
 30
0.0
 11
200.0
 21
0.0
 31
0.0
  0
LINE
  5
E2
330
23
100
AcDbEntity
  8
0
  6
Continuous
 62
     7
370
    15
100
AcDbLine
 10
200.0
 20
0.0
 30
0.0
 11
200.0
 21
25.0
 31
0.0
  0
LINE
  5
E3
330
23
100
AcDbEntity
  8
0
  6
Continuous
 62
     7
370
    15
100
AcDbLine
 10
200.0
 20
25.0
 30
0.0
 11
225.0
 21
25.0
 31
0.0
  0
LINE
  5
E4
330
23
100
AcDbEntity
  8
0
  6
Continuous
 62
     7
370
    15
100
AcDbLine
 10
225.0
 20
25.0
 30
0.0
 11
225.0
 21
175.0
 31
0.0
  0
LINE
  5
E5
330
23
100
AcDbEntity
  8
0
  6
Continuous
 62
     7
370
    15
100
AcDbLine
 10
225.0
 20
175.0
 30
0.0
 11
228.0
 21
175.0
 31
0.0
  0
LINE
  5
E6
330
23
100
AcDbEntity
  8
0
  6
Continuous
 62
     7
370
    15
100
AcDbLine
 10
228.0
 20
22.0
 30
0.0
 11
228.0
 21
175.0
 31
0.0
  0
VIEWPORT
  5
248
330
23
100
AcDbEntity
  8
0
100
AcDbViewport
 10
0.0
 20
0.0
 30
0.0
 40
205.6
 41
156.0
 68
     1
 69
     1
 12
-22.4398625082
 22
139.3274459176
 13
0.0
 23
0.0
 14
10.0
 24
10.0
 15
10.0
 25
10.0
 16
0.0
 26
0.0
 36
1.0
 17
0.0
 27
0.0
 37
0.0
 42
50.0
 43
0.0
 44
0.0
 45
288.9532992489
 50
0.0
 51
0.0
 72
   100
 90
   557152
  1

281
     0
 71
     1
 74
     0
110
0.0
120
0.0
130
0.0
111
1.0
121
0.0
131
0.0
112
0.0
122
1.0
132
0.0
 79
     0
146
0.0
  0
ENDBLK
  5
25
330
23
100
AcDbEntity
  8
0
100
AcDbBlockEnd
  0
BLOCK
  5
E9
330
E7
100
AcDbEntity
  8
0
100
AcDbBlockBegin
  2
*Paper_Space1
 70
     0
 10
0.0
 20
0.0
 30
0.0
  3
*Paper_Space1
  1

  0
CIRCLE
  5
F0
330
E7
100
AcDbEntity
  8
0
  6
Continuous
 62
     7
370
    15
100
AcDbCircle
 10
15.0
 20
215.0
 30
0.0
 40
4.249999999999972
  0
CIRCLE
  5
F3
330
E7
100
AcDbEntity
  8
0
  6
Continuous
 62
     7
370
    15
100
AcDbCircle
 10
15.0
 20
100.0
 30
0.0
 40
4.250000000000043
  0
CIRCLE
  5
F5
330
E7
100
AcDbEntity
  8
0
  6
Continuous
 62
     7
370
    15
100
AcDbCircle
 10
15.0
 20
15.0
 30
0.0
 40
4.249999999999998
  0
LINE
  5
F8
330
E7
100
AcDbEntity
  8
0
  6
Continuous
 62
     7
370
    15
100
AcDbLine
 10
30.0
 20
0.0
 30
0.0
 11
30.0
 21
228.0
 31
0.0
  0
LINE
  5
F9
330
E7
100
AcDbEntity
  8
0
  6
Continuous
 62
     7
370
    15
100
AcDbLine
 10
30.0
 20
225.0
 30
0.0
 11
0.0
 21
225.0
 31
0.0
  0
LINE
  5
FA
330
E7
100
AcDbEntity
  8
0
  6
Continuous
 62
     7
370
    15
100
AcDbLine
 10
0.0
 20
0.0
 30
0.0
 11
0.0
 21
228.0
 31
0.0
  0
LINE
  5
FB
330
E7
100
AcDbEntity
  8
0
  6
Continuous
 62
     7
370
    15
100
AcDbLine
 10
30.0
 20
228.0
 30
0.0
 11
0.0
 21
228.0
 31
0.0
  0
LINE
  5
FC
330
E7
100
AcDbEntity
  8
0
  6
Continuous
 62
     7
370
    15
100
AcDbLine
 10
30.0
 20
200.0
 30
0.0
 11
0.0
 21
200.0
 31
0.0
  0
LINE
  5
FD
330
E7
100
AcDbEntity
  8
0
  6
Continuous
 62
     7
370
    15
100
AcDbLine
 10
30.0
 20
0.0
 30
0.0
 11
0.0
 21
0.0
 31
0.0
  0
VIEWPORT
  5
24A
330
E7
100
AcDbEntity
  8
0
100
AcDbViewport
 10
0.0
 20
0.0
 30
0.0
 40
205.6
 41
156.0
 68
     1
 69
     1
 12
-22.4398625082
 22
139.3274459176
 13
0.0
 23
0.0
 14
10.0
 24
10.0
 15
10.0
 25
10.0
 16
0.0
 26
0.0
 36
1.0
 17
0.0
 27
0.0
 37
0.0
 42
50.0
 43
0.0
 44
0.0
 45
288.9532992489
 50
0.0
 51
0.0
 72
   100
 90
   557152
  1

281
     0
 71
     1
 74
     0
110
0.0
120
0.0
130
0.0
111
1.0
121
0.0
131
0.0
112
0.0
122
1.0
132
0.0
 79
     0
146
0.0
  0
ENDBLK
  5
EA
330
E7
100
AcDbEntity
  8
0
100
AcDbBlockEnd
  0
BLOCK
  5
100
330
FE
100
AcDbEntity
  8
0
100
AcDbBlockBegin
  2
*Paper_Space2
 70
     0
 10
0.0
 20
0.0
 30
0.0
  3
*Paper_Space2
  1

  0
CIRCLE
  5
109
330
FE
100
AcDbEntity
  8
0
  6
Continuous
 62
     7
370
    15
100
AcDbCircle
 10
15.0
 20
125.0
 30
0.0
 40
4.250000000000007
  0
CIRCLE
  5
10A
330
FE
100
AcDbEntity
  8
0
  6
Continuous
 62
     7
370
    15
100
AcDbCircle
 10
15.0
 20
85.0
 30
0.0
 40
4.250000000000007
  0
CIRCLE
  5
10B
330
FE
100
AcDbEntity
  8
0
  6
Continuous
 62
     7
370
    15
100
AcDbCircle
 10
15.0
 20
65.0
 30
0.0
 40
4.25
  0
CIRCLE
  5
10C
330
FE
100
AcDbEntity
  8
0
  6
Continuous
 62
     7
370
    15
100
AcDbCircle
 10
15.0
 20
145.0
 30
0.0
 40
4.250000000000005
  0
CIRCLE
  5
10E
330
FE
100
AcDbEntity
  8
0
  6
Continuous
 62
     7
370
    15
100
AcDbCircle
 10
15.0
 20
105.0
 30
0.0
 40
4.249999999999998
  0
LINE
  5
111
330
FE
100
AcDbEntity
  8
0
  6
Continuous
 62
     7
370
    15
100
AcDbLine
 10
30.0
 20
0.0
 30
0.0
 11
0.0
 21
0.0
 31
0.0
  0
LINE
  5
112
330
FE
100
AcDbEntity
  8
0
  6
Continuous
 62
     7
370
    15
100
AcDbLine
 10
30.0
 20
-3.0
 30
0.0
 11
0.0
 21
-3.0
 31
0.0
  0
LINE
  5
113
330
FE
100
AcDbEntity
  8
0
  6
Continuous
 62
     7
370
    15
100
AcDbLine
 10
0.0
 20
-3.0
 30
0.0
 11
0.0
 21
175.0
 31
0.0
  0
LINE
  5
114
330
FE
100
AcDbEntity
  8
0
  6
Continuous
 62
     7
370
    15
100
AcDbLine
 10
30.0
 20
-3.0
 30
0.0
 11
30.0
 21
175.0
 31
0.0
  0
LINE
  5
115
330
FE
100
AcDbEntity
  8
0
  6
Continuous
 62
     7
370
    15
100
AcDbLine
 10
30.0
 20
25.0
 30
0.0
 11
0.0
 21
25.0
 31
0.0
  0
LINE
  5
116
330
FE
100
AcDbEntity
  8
0
  6
Continuous
 62
     7
370
    15
100
AcDbLine
 10
30.0
 20
175.0
 30
0.0
 11
0.0
 21
175.0
 31
0.0
  0
VIEWPORT
  5
24C
330
FE
100
AcDbEntity
  8
0
100
AcDbViewport
 10
0.0
 20
0.0
 30
0.0
 40
205.6
 41
156.0
 68
     1
 69
     1
 12
-22.4398625082
 22
139.3274459176
 13
0.0
 23
0.0
 14
10.0
 24
10.0
 15
10.0
 25
10.0
 16
0.0
 26
0.0
 36
1.0
 17
0.0
 27
0.0
 37
0.0
 42
50.0
 43
0.0
 44
0.0
 45
288.9532992489
 50
0.0
 51
0.0
 72
   100
 90
   557152
  1

281
     0
 71
     1
 74
     0
110
0.0
120
0.0
130
0.0
111
1.0
121
0.0
131
0.0
112
0.0
122
1.0
132
0.0
 79
     0
146
0.0
  0
ENDBLK
  5
101
330
FE
100
AcDbEntity
  8
0
100
AcDbBlockEnd
  0
BLOCK
  5
119
330
117
100
AcDbEntity
  8
0
100
AcDbBlockBegin
  2
*Paper_Space3
 70
     0
 10
0.0
 20
0.0
 30
0.0
  3
*Paper_Space3
  1

  0
CIRCLE
  5
122
330
117
100
AcDbEntity
  8
0
  6
Continuous
 62
     7
370
    15
100
AcDbCircle
 10
15.0
 20
125.0
 30
0.0
 40
4.250000000000007
  0
CIRCLE
  5
123
330
117
100
AcDbEntity
  8
0
  6
Continuous
 62
     7
370
    15
100
AcDbCircle
 10
15.0
 20
85.0
 30
0.0
 40
4.250000000000007
  0
CIRCLE
  5
124
330
117
100
AcDbEntity
  8
0
  6
Continuous
 62
     7
370
    15
100
AcDbCircle
 10
15.0
 20
65.0
 30
0.0
 40
4.25
  0
CIRCLE
  5
125
330
117
100
AcDbEntity
  8
0
  6
Continuous
 62
     7
370
    15
100
AcDbCircle
 10
15.0
 20
145.0
 30
0.0
 40
4.250000000000005
  0
CIRCLE
  5
127
330
117
100
AcDbEntity
  8
0
  6
Continuous
 62
     7
370
    15
100
AcDbCircle
 10
15.0
 20
105.0
 30
0.0
 40
4.249999999999998
  0
LINE
  5
12A
330
117
100
AcDbEntity
  8
0
  6
Continuous
 62
     7
370
    15
100
AcDbLine
 10
30.0
 20
0.0
 30
0.0
 11
0.0
 21
0.0
 31
0.0
  0
LINE
  5
12B
330
117
100
AcDbEntity
  8
0
  6
Continuous
 62
     7
370
    15
100
AcDbLine
 10
30.0
 20
-3.0
 30
0.0
 11
0.0
 21
-3.0
 31
0.0
  0
LINE
  5
12C
330
117
100
AcDbEntity
  8
0
  6
Continuous
 62
     7
370
    15
100
AcDbLine
 10
0.0
 20
-3.0
 30
0.0
 11
0.0
 21
175.0
 31
0.0
  0
LINE
  5
12D
330
117
100
AcDbEntity
  8
0
  6
Continuous
 62
     7
370
    15
100
AcDbLine
 10
30.0
 20
-3.0
 30
0.0
 11
30.0
 21
175.0
 31
0.0
  0
LINE
  5
12E
330
117
100
AcDbEntity
  8
0
  6
Continuous
 62
     7
370
    15
100
AcDbLine
 10
30.0
 20
25.0
 30
0.0
 11
0.0
 21
25.0
 31
0.0
  0
LINE
  5
12F
330
117
100
AcDbEntity
  8
0
  6
Continuous
 62
     7
370
    15
100
AcDbLine
 10
30.0
 20
175.0
 30
0.0
 11
0.0
 21
175.0
 31
0.0
  0
VIEWPORT
  5
24E
330
117
100
AcDbEntity
  8
0
100
AcDbViewport
 10
0.0
 20
0.0
 30
0.0
 40
205.6
 41
156.0
 68
     1
 69
     1
 12
-22.4398625082
 22
139.3274459176
 13
0.0
 23
0.0
 14
10.0
 24
10.0
 15
10.0
 25
10.0
 16
0.0
 26
0.0
 36
1.0
 17
0.0
 27
0.0
 37
0.0
 42
50.0
 43
0.0
 44
0.0
 45
288.9532992489
 50
0.0
 51
0.0
 72
   100
 90
   557152
  1

281
     0
 71
     1
 74
     0
110
0.0
120
0.0
130
0.0
111
1.0
121
0.0
131
0.0
112
0.0
122
1.0
132
0.0
 79
     0
146
0.0
  0
ENDBLK
  5
11A
330
117
100
AcDbEntity
  8
0
100
AcDbBlockEnd
  0
BLOCK
  5
132
330
130
100
AcDbEntity
  8
0
100
AcDbBlockBegin
  2
*Paper_Space4
 70
     0
 10
0.0
 20
0.0
 30
0.0
  3
*Paper_Space4
  1

  0
CIRCLE
  5
138
330
130
100
AcDbEntity
  8
0
  6
Continuous
 62
     7
370
    15
100
AcDbCircle
 10
-15.0
 20
125.0
 30
0.0
 40
4.250000000000007
  0
CIRCLE
  5
139
330
130
100
AcDbEntity
  8
0
  6
Continuous
 62
     7
370
    15
100
AcDbCircle
 10
-15.0
 20
105.0
 30
0.0
 40
4.249999999999998
  0
CIRCLE
  5
13A
330
130
100
AcDbEntity
  8
0
  6
Continuous
 62
     7
370
    15
100
AcDbCircle
 10
-15.0
 20
85.0
 30
0.0
 40
4.250000000000007
  0
CIRCLE
  5
13B
330
130
100
AcDbEntity
  8
0
  6
Continuous
 62
     7
370
    15
100
AcDbCircle
 10
-15.0
 20
65.0
 30
0.0
 40
4.25
  0
CIRCLE
  5
13C
330
130
100
AcDbEntity
  8
0
  6
Continuous
 62
     7
370
    15
100
AcDbCircle
 10
-15.0
 20
145.0
 30
0.0
 40
4.250000000000005
  0
LINE
  5
140
330
130
100
AcDbEntity
  8
0
  6
Continuous
 62
     7
370
    15
100
AcDbLine
 10
-30.0
 20
22.0
 30
0.0
 11
0.0
 21
22.0
 31
0.0
  0
LINE
  5
141
330
130
100
AcDbEntity
  8
0
  6
Continuous
 62
     7
370
    15
100
AcDbLine
 10
-30.0
 20
-3.0
 30
0.0
 11
-30.0
 21
175.0
 31
0.0
  0
LINE
  5
142
330
130
100
AcDbEntity
  8
0
  6
Continuous
 62
     7
370
    15
100
AcDbLine
 10
-30.0
 20
175.0
 30
0.0
 11
0.0
 21
175.0
 31
0.0
  0
LINE
  5
143
330
130
100
AcDbEntity
  8
0
  6
Continuous
 62
     7
370
    15
100
AcDbLine
 10
0.0
 20
-3.0
 30
0.0
 11
0.0
 21
175.0
 31
0.0
  0
LINE
  5
144
330
130
100
AcDbEntity
  8
0
  6
Continuous
 62
     7
370
    15
100
AcDbLine
 10
-30.0
 20
-3.0
 30
0.0
 11
0.0
 21
-3.0
 31
0.0
  0
VIEWPORT
  5
250
330
130
100
AcDbEntity
  8
0
100
AcDbViewport
 10
0.0
 20
0.0
 30
0.0
 40
205.6
 41
156.0
 68
     1
 69
     1
 12
-22.4398625082
 22
139.3274459176
 13
0.0
 23
0.0
 14
10.0
 24
10.0
 15
10.0
 25
10.0
 16
0.0
 26
0.0
 36
1.0
 17
0.0
 27
0.0
 37
0.0
 42
50.0
 43
0.0
 44
0.0
 45
288.9532992489
 50
0.0
 51
0.0
 72
   100
 90
   557152
  1

281
     0
 71
     1
 74
     0
110
0.0
120
0.0
130
0.0
111
1.0
121
0.0
131
0.0
112
0.0
122
1.0
132
0.0
 79
     0
146
0.0
  0
ENDBLK
  5
133
330
130
100
AcDbEntity
  8
0
100
AcDbBlockEnd
  0
BLOCK
  5
147
330
145
100
AcDbEntity
  8
0
100
AcDbBlockBegin
  2
*Paper_Space5
 70
     0
 10
0.0
 20
0.0
 30
0.0
  3
*Paper_Space5
  1

  0
LINE
  5
153
330
145
100
AcDbEntity
  8
0
  6
Continuous
 62
     7
370
    15
100
AcDbLine
 10
-203.0
 20
22.0
 30
0.0
 11
-228.0
 21
22.0
 31
0.0
  0
LINE
  5
154
330
145
100
AcDbEntity
  8
0
  6
Continuous
 62
     7
370
    15
100
AcDbLine
 10
-203.0
 20
-3.0
 30
0.0
 11
-203.0
 21
22.0
 31
0.0
  0
LINE
  5
155
330
145
100
AcDbEntity
  8
0
  6
Continuous
 62
     7
370
    15
100
AcDbLine
 10
0.0
 20
-3.0
 30
0.0
 11
-203.0
 21
-3.0
 31
0.0
  0
LINE
  5
156
330
145
100
AcDbEntity
  8
0
  6
Continuous
 62
     7
370
    15
100
AcDbLine
 10
0.0
 20
-3.0
 30
0.0
 11
0.0
 21
0.0
 31
0.0
  0
LINE
  5
157
330
145
100
AcDbEntity
  8
0
  6
Continuous
 62
     7
370
    15
100
AcDbLine
 10
0.0
 20
0.0
 30
0.0
 11
-200.0
 21
0.0
 31
0.0
  0
LINE
  5
158
330
145
100
AcDbEntity
  8
0
  6
Continuous
 62
     7
370
    15
100
AcDbLine
 10
-200.0
 20
0.0
 30
0.0
 11
-200.0
 21
25.0
 31
0.0
  0
LINE
  5
159
330
145
100
AcDbEntity
  8
0
  6
Continuous
 62
     7
370
    15
100
AcDbLine
 10
-200.0
 20
25.0
 30
0.0
 11
-225.0
 21
25.0
 31
0.0
  0
LINE
  5
15A
330
145
100
AcDbEntity
  8
0
  6
Continuous
 62
     7
370
    15
100
AcDbLine
 10
-225.0
 20
25.0
 30
0.0
 11
-225.0
 21
175.0
 31
0.0
  0
LINE
  5
15B
330
145
100
AcDbEntity
  8
0
  6
Continuous
 62
     7
370
    15
100
AcDbLine
 10
-225.0
 20
175.0
 30
0.0
 11
-228.0
 21
175.0
 31
0.0
  0
LINE
  5
15C
330
145
100
AcDbEntity
  8
0
  6
Continuous
 62
     7
370
    15
100
AcDbLine
 10
-228.0
 20
22.0
 30
0.0
 11
-228.0
 21
175.0
 31
0.0
  0
VIEWPORT
  5
252
330
145
100
AcDbEntity
  8
0
100
AcDbViewport
 10
0.0
 20
0.0
 30
0.0
 40
205.6
 41
156.0
 68
     1
 69
     1
 12
-22.4398625082
 22
139.3274459176
 13
0.0
 23
0.0
 14
10.0
 24
10.0
 15
10.0
 25
10.0
 16
0.0
 26
0.0
 36
1.0
 17
0.0
 27
0.0
 37
0.0
 42
50.0
 43
0.0
 44
0.0
 45
288.9532992489
 50
0.0
 51
0.0
 72
   100
 90
   557152
  1

281
     0
 71
     1
 74
     0
110
0.0
120
0.0
130
0.0
111
1.0
121
0.0
131
0.0
112
0.0
122
1.0
132
0.0
 79
     0
146
0.0
  0
ENDBLK
  5
148
330
145
100
AcDbEntity
  8
0
100
AcDbBlockEnd
  0
BLOCK
  5
15F
330
15D
100
AcDbEntity
  8
0
100
AcDbBlockBegin
  2
*Paper_Space6
 70
     0
 10
0.0
 20
0.0
 30
0.0
  3
*Paper_Space6
  1

  0
CIRCLE
  5
163
330
15D
100
AcDbEntity
  8
0
  6
Continuous
 62
     7
370
    15
100
AcDbCircle
 10
15.0
 20
-100.0
 30
0.0
 40
4.250000000000043
  0
CIRCLE
  5
164
330
15D
100
AcDbEntity
  8
0
  6
Continuous
 62
     7
370
    15
100
AcDbCircle
 10
15.0
 20
-15.0
 30
0.0
 40
4.249999999999998
  0
CIRCLE
  5
168
330
15D
100
AcDbEntity
  8
0
  6
Continuous
 62
     7
370
    15
100
AcDbCircle
 10
15.0
 20
-215.0
 30
0.0
 40
4.249999999999972
  0
LINE
  5
16B
330
15D
100
AcDbEntity
  8
0
  6
Continuous
 62
     7
370
    15
100
AcDbLine
 10
30.0
 20
-203.0
 30
0.0
 11
0.0
 21
-203.0
 31
0.0
  0
LINE
  5
16C
330
15D
100
AcDbEntity
  8
0
  6
Continuous
 62
     7
370
    15
100
AcDbLine
 10
30.0
 20
0.0
 30
0.0
 11
0.0
 21
0.0
 31
0.0
  0
LINE
  5
16D
330
15D
100
AcDbEntity
  8
0
  6
Continuous
 62
     7
370
    15
100
AcDbLine
 10
0.0
 20
0.0
 30
0.0
 11
0.0
 21
-228.0
 31
0.0
  0
LINE
  5
16E
330
15D
100
AcDbEntity
  8
0
  6
Continuous
 62
     7
370
    15
100
AcDbLine
 10
30.0
 20
0.0
 30
0.0
 11
30.0
 21
-228.0
 31
0.0
  0
LINE
  5
16F
330
15D
100
AcDbEntity
  8
0
  6
Continuous
 62
     7
370
    15
100
AcDbLine
 10
30.0
 20
-228.0
 30
0.0
 11
0.0
 21
-228.0
 31
0.0
  0
VIEWPORT
  5
254
330
15D
100
AcDbEntity
  8
0
100
AcDbViewport
 10
0.0
 20
0.0
 30
0.0
 40
205.6
 41
156.0
 68
     1
 69
     1
 12
-22.4398625082
 22
139.3274459176
 13
0.0
 23
0.0
 14
10.0
 24
10.0
 15
10.0
 25
10.0
 16
0.0
 26
0.0
 36
1.0
 17
0.0
 27
0.0
 37
0.0
 42
50.0
 43
0.0
 44
0.0
 45
288.9532992489
 50
0.0
 51
0.0
 72
   100
 90
   557152
  1

281
     0
 71
     1
 74
     0
110
0.0
120
0.0
130
0.0
111
1.0
121
0.0
131
0.0
112
0.0
122
1.0
132
0.0
 79
     0
146
0.0
  0
ENDBLK
  5
160
330
15D
100
AcDbEntity
  8
0
100
AcDbBlockEnd
  0
BLOCK
  5
172
330
170
100
AcDbEntity
  8
0
100
AcDbBlockBegin
  2
*Paper_Space7
 70
     0
 10
0.0
 20
0.0
 30
0.0
  3
*Paper_Space7
  1

  0
LWPOLYLINE
  5
182
330
170
100
AcDbEntity
  8
0
  6
Continuous
 62
     7
370
    15
100
AcDbPolyline
 90
       30
 70
   128
 43
0.0
 10
18.2079996156
 20
-1.7348672376
 10
18.924289599
 20
-2.0672521795
 10
19.7476066494
 20
-2.302974707
 10
20.6394533767
 20
-2.4310126968
 10
21.5581280191
 20
-2.4453792348
 10
22.4606743713
 20
-2.3454025576
 10
23.304890369
 20
-2.1357574635
 10
24.0513014104
 20
-1.8262467241
 10
24.6650061449
 20
-1.4313427177
 10
25.1173084211
 20
-0.9695107166
 10
25.3870590873
 20
-0.462345472
 10
25.461644902
 20
0.0664385331
 10
25.3375783157
 20
0.5921159462
 10
25.0206605438
 20
1.0901066758
 10
24.5257103093
 20
1.5371252287
 10
23.8758709349
 20
1.9122695144
 10
23.1015281876
 20
2.1979982029
 10
22.2388894736
 20
2.3809509383
 10
21.3282908205
 20
2.4525730541
 10
20.4123108091
 20
2.4095155797
 10
19.5337796468
 20
2.2537918348
 10
18.7337764744
 20
1.9926832886
 10
18.049708551
 20
1.6383990866
 10
17.5135621324
 20
1.2075051642
 10
17.1504068292
 20
0.7201496424
 10
16.97722338
 20
0.1991207236
 10
17.0021096501
 20
-0.3312188588
 10
17.2239019854
 20
-0.8460710155
 10
17.6322296227
 20
-1.3213618319
 10
18.2079996156
 20
-1.7348672376
  0
LWPOLYLINE
  5
183
330
170
100
AcDbEntity
  8
0
  6
Continuous
 62
     7
370
    15
100
AcDbPolyline
 90
       30
 70
   128
 43
0.0
 10
78.3120760164
 20
32.9624775148
 10
79.0283659998
 20
32.630092573
 10
79.8516830503
 20
32.3943700455
 10
80.7435297776
 20
32.2663320557
 10
81.6622044199
 20
32.2519655177
 10
82.5647507721
 20
32.3519421949
 10
83.4089667699
 20
32.561587289
 10
84.1553778113
 20
32.8710980283
 10
84.7690825458
 20
33.2660020347
 10
85.2213848219
 20
33.7278340358
 10
85.4911354881
 20
34.2349992805
 10
85.5657213029
 20
34.7637832856
 10
85.4416547165
 20
35.2894606987
 10
85.1247369447
 20
35.7874514282
 10
84.6297867101
 20
36.2344699812
 10
83.9799473358
 20
36.6096142668
 10
83.2056045885
 20
36.8953429553
 10
82.3429658745
 20
37.0782956908
 10
81.4323672213
 20
37.1499178066
 10
80.51638721
 20
37.1068603322
 10
79.6378560477
 20
36.9511365873
 10
78.8378528752
 20
36.6900280411
 10
78.1537849518
 20
36.335743839
 10
77.6176385332
 20
35.9048499166
 10
77.2544832301
 20
35.4174943948
 10
77.0812997808
 20
34.8964654761
 10
77.106186051
 20
34.3661258937
 10
77.3279783863
 20
33.8512737369
 10
77.7363060236
 20
33.3759829206
 10
78.3120760164
 20
32.9624775148
  0
LWPOLYLINE
  5
188
330
170
100
AcDbEntity
  8
0
  6
Continuous
 62
     7
370
    15
100
AcDbPolyline
 90
       30
 70
   128
 43
0.0
 10
172.7108313048
 20
186.0555859895
 10
172.6405713095
 20
186.842157807
 10
172.4330766029
 20
187.6730708644
 10
172.0980494069
 20
188.5094725906
 10
171.6511552208
 20
189.3122537705
 10
171.1132903201
 20
190.0438772484
 10
170.5096046697
 20
190.6701331235
 10
169.8683259397
 20
191.1617383672
 10
169.2194396107
 20
191.4957060647
 10
168.5932868864
 20
191.6564202575
 10
168.0191459722
 20
191.6363661288
 10
167.5238630591
 20
191.4364813872
 10
167.1305970257
 20
191.0661124211
 10
166.8577365547
 20
190.5425772717
 10
166.7180402983
 20
189.8903558608
 10
166.7180402983
 20
189.1399453365
 10
166.8577365547
 20
188.3264340611
 10
167.1305970257
 20
187.4878609176
 10
167.5238630591
 20
186.6634366542
 10
168.0191459722
 20
185.8917104332
 10
168.5932868864
 20
185.2087673149
 10
169.2194396107
 20
184.6465409605
 10
169.8683259397
 20
184.2313204494
 10
170.5096046697
 20
183.9825210314
 10
171.1132903201
 20
183.9117762907
 10
171.6511552208
 20
184.0223941726
 10
172.0980494069
 20
184.309202308
 10
172.4330766029
 20
184.7587898673
 10
172.6405713095
 20
185.3501346358
 10
172.7108313048
 20
186.0555859895
  0
LWPOLYLINE
  5
189
330
170
100
AcDbEntity
  8
0
  6
Continuous
 62
     7
370
    15
100
AcDbPolyline
 90
       30
 70
   128
 43
0.0
 10
172.7108313048
 20
169.7247697518
 10
172.6405713095
 20
170.5113415693
 10
172.4330766029
 20
171.3422546267
 10
172.0980494069
 20
172.1786563529
 10
171.6511552208
 20
172.9814375328
 10
171.1132903201
 20
173.7130610106
 10
170.5096046697
 20
174.3393168858
 10
169.8683259397
 20
174.8309221295
 10
169.2194396107
 20
175.1648898269
 10
168.5932868864
 20
175.3256040198
 10
168.0191459722
 20
175.3055498911
 10
167.5238630591
 20
175.1056651495
 10
167.1305970257
 20
174.7352961834
 10
166.8577365547
 20
174.211761034
 10
166.7180402983
 20
173.559539623
 10
166.7180402983
 20
172.8091290988
 10
166.8577365547
 20
171.9956178234
 10
167.1305970257
 20
171.1570446799
 10
167.5238630591
 20
170.3326204165
 10
168.0191459722
 20
169.5608941955
 10
168.5932868864
 20
168.8779510771
 10
169.2194396107
 20
168.3157247227
 10
169.8683259397
 20
167.9005042117
 10
170.5096046697
 20
167.6517047937
 10
171.1132903201
 20
167.5809600529
 10
171.6511552208
 20
167.6915779349
 10
172.0980494069
 20
167.9783860703
 10
172.4330766029
 20
168.4279736296
 10
172.6405713095
 20
169.0193183981
 10
172.7108313048
 20
169.7247697518
  0
LWPOLYLINE
  5
18A
330
170
100
AcDbEntity
  8
0
  6
Continuous
 62
     7
370
    15
100
AcDbPolyline
 90
       30
 70
   128
 43
0.0
 10
172.7108313048
 20
153.393953514
 10
172.6405713095
 20
154.1805253316
 10
172.4330766029
 20
155.0114383889
 10
172.0980494069
 20
155.8478401152
 10
171.6511552208
 20
156.6506212951
 10
171.1132903201
 20
157.3822447729
 10
170.5096046697
 20
158.0085006481
 10
169.8683259397
 20
158.5001058918
 10
169.2194396107
 20
158.8340735892
 10
168.5932868864
 20
158.9947877821
 10
168.0191459722
 20
158.9747336534
 10
167.5238630591
 20
158.7748489118
 10
167.1305970257
 20
158.4044799456
 10
166.8577365547
 20
157.8809447963
 10
166.7180402983
 20
157.2287233853
 10
166.7180402983
 20
156.4783128611
 10
166.8577365547
 20
155.6648015857
 10
167.1305970257
 20
154.8262284422
 10
167.5238630591
 20
154.0018041788
 10
168.0191459722
 20
153.2300779577
 10
168.5932868864
 20
152.5471348394
 10
169.2194396107
 20
151.984908485
 10
169.8683259397
 20
151.569687974
 10
170.5096046697
 20
151.320888556
 10
171.1132903201
 20
151.2501438152
 10
171.6511552208
 20
151.3607616972
 10
172.0980494069
 20
151.6475698326
 10
172.4330766029
 20
152.0971573919
 10
172.6405713095
 20
152.6885021604
 10
172.7108313048
 20
153.393953514
  0
LWPOLYLINE
  5
18B
330
170
100
AcDbEntity
  8
0
  6
Continuous
 62
     7
370
    15
100
AcDbPolyline
 90
       30
 70
   128
 43
0.0
 10
172.7108313048
 20
137.0631372763
 10
172.6405713095
 20
137.8497090938
 10
172.4330766029
 20
138.6806221512
 10
172.0980494069
 20
139.5170238774
 10
171.6511552208
 20
140.3198050574
 10
171.1132903201
 20
141.0514285352
 10
170.5096046697
 20
141.6776844103
 10
169.8683259397
 20
142.169289654
 10
169.2194396107
 20
142.5032573515
 10
168.5932868864
 20
142.6639715444
 10
168.0191459722
 20
142.6439174156
 10
167.5238630591
 20
142.444032674
 10
167.1305970257
 20
142.0736637079
 10
166.8577365547
 20
141.5501285586
 10
166.7180402983
 20
140.8979071476
 10
166.7180402983
 20
140.1474966234
 10
166.8577365547
 20
139.333985348
 10
167.1305970257
 20
138.4954122045
 10
167.5238630591
 20
137.6709879411
 10
168.0191459722
 20
136.89926172
 10
168.5932868864
 20
136.2163186017
 10
169.2194396107
 20
135.6540922473
 10
169.8683259397
 20
135.2388717363
 10
170.5096046697
 20
134.9900723183
 10
171.1132903201
 20
134.9193275775
 10
171.6511552208
 20
135.0299454595
 10
172.0980494069
 20
135.3167535949
 10
172.4330766029
 20
135.7663411542
 10
172.6405713095
 20
136.3576859227
 10
172.7108313048
 20
137.0631372763
  0
LWPOLYLINE
  5
18C
330
170
100
AcDbEntity
  8
0
  6
Continuous
 62
     7
370
    15
100
AcDbPolyline
 90
       30
 70
   128
 43
0.0
 10
172.7108313048
 20
202.3864022272
 10
172.6405713095
 20
203.1729740447
 10
172.4330766029
 20
204.0038871021
 10
172.0980494069
 20
204.8402888283
 10
171.6511552208
 20
205.6430700082
 10
171.1132903201
 20
206.3746934861
 10
170.5096046697
 20
207.0009493612
 10
169.8683259397
 20
207.4925546049
 10
169.2194396107
 20
207.8265223024
 10
168.5932868864
 20
207.9872364953
 10
168.0191459722
 20
207.9671823665
 10
167.5238630591
 20
207.7672976249
 10
167.1305970257
 20
207.3969286588
 10
166.8577365547
 20
206.8733935094
 10
166.7180402983
 20
206.2211720985
 10
166.7180402983
 20
205.4707615743
 10
166.8577365547
 20
204.6572502989
 10
167.1305970257
 20
203.8186771554
 10
167.5238630591
 20
202.9942528919
 10
168.0191459722
 20
202.2225266709
 10
168.5932868864
 20
201.5395835526
 10
169.2194396107
 20
200.9773571982
 10
169.8683259397
 20
200.5621366872
 10
170.5096046697
 20
200.3133372691
 10
171.1132903201
 20
200.2425925284
 10
171.6511552208
 20
200.3532104103
 10
172.0980494069
 20
200.6400185457
 10
172.4330766029
 20
201.089606105
 10
172.6405713095
 20
201.6809508736
 10
172.7108313048
 20
202.3864022272
  0
LWPOLYLINE
  5
198
330
170
100
AcDbEntity
  8
0
  6
Continuous
 62
     7
370
    15
100
AcDbPolyline
 90
       30
 70
   128
 43
0.0
 10
159.6293558529
 20
100.3194642418
 10
160.3456458363
 20
99.9870792999
 10
161.1689628867
 20
99.7513567724
 10
162.060809614
 20
99.6233187826
 10
162.9794842564
 20
99.6089522447
 10
163.8820306086
 20
99.7089289219
 10
164.7262466063
 20
99.9185740159
 10
165.4726576478
 20
100.2280847553
 10
166.0863623822
 20
100.6229887617
 10
166.5386646584
 20
101.0848207628
 10
166.8084153246
 20
101.5919860074
 10
166.8830011394
 20
102.1207700125
 10
166.758934553
 20
102.6464474256
 10
166.4420167811
 20
103.1444381552
 10
165.9470665466
 20
103.5914567081
 10
165.2972271722
 20
103.9666009938
 10
164.5228844249
 20
104.2523296823
 10
163.6602457109
 20
104.4352824177
 10
162.7496470578
 20
104.5069045335
 10
161.8336670464
 20
104.4638470591
 10
160.9551358842
 20
104.3081233142
 10
160.1551327117
 20
104.047014768
 10
159.4710647883
 20
103.692730566
 10
158.9349183697
 20
103.2618366436
 10
158.5717630666
 20
102.7744811218
 10
158.3985796173
 20
102.2534522031
 10
158.4234658874
 20
101.7231126206
 10
158.6452582227
 20
101.2082604639
 10
159.05358586
 20
100.7329696475
 10
159.6293558529
 20
100.3194642418
  0
LINE
  5
19B
330
170
100
AcDbEntity
  8
0
  6
Continuous
 62
     7
370
    15
100
AcDbLine
 10
164.7558800165
 20
88.5831995342
 30
0.0
 11
182.4335495461
 21
98.7883009319
 31
0.0
  0
LINE
  5
19C
330
170
100
AcDbEntity
  8
0
  6
Continuous
 62
     7
370
    15
100
AcDbLine
 10
164.7558800165
 20
68.169679237
 30
0.0
 11
164.7558800165
 21
88.5831995342
 31
0.0
  0
LINE
  5
19D
330
170
100
AcDbEntity
  8
0
  6
Continuous
 62
     7
370
    15
100
AcDbLine
 10
21.2132034356
 20
-14.695744113
 30
0.0
 11
164.7558800165
 21
68.169679237
 31
0.0
  0
LINE
  5
19E
330
170
100
AcDbEntity
  8
0
  6
Continuous
 62
     7
370
    15
100
AcDbLine
 10
21.2132034356
 20
-14.695744113
 30
0.0
 11
21.2132034356
 21
-12.2461216773
 31
0.0
  0
LINE
  5
19F
330
170
100
AcDbEntity
  8
0
  6
Continuous
 62
     7
370
    15
100
AcDbLine
 10
21.2132034356
 20
-12.2461216773
 30
0.0
 11
162.6345596729
 21
69.3946895049
 31
0.0
  0
LINE
  5
1A0
330
170
100
AcDbEntity
  8
0
  6
Continuous
 62
     7
370
    15
100
AcDbLine
 10
162.6345596729
 20
69.3946895049
 30
0.0
 11
162.6345596729
 21
89.8082098021
 31
0.0
  0
LINE
  5
1A1
330
170
100
AcDbEntity
  8
0
  6
Continuous
 62
     7
370
    15
100
AcDbLine
 10
162.6345596729
 20
89.8082098021
 30
0.0
 11
180.3122292026
 21
100.0133111999
 31
0.0
  0
LINE
  5
1A2
330
170
100
AcDbEntity
  8
0
  6
Continuous
 62
     7
370
    15
100
AcDbLine
 10
180.3122292026
 20
100.0133111999
 30
0.0
 11
180.3122292026
 21
222.4944329827
 31
0.0
  0
LINE
  5
1A3
330
170
100
AcDbEntity
  8
0
  6
Continuous
 62
     7
370
    15
100
AcDbLine
 10
180.3122292026
 20
222.4944329827
 30
0.0
 11
182.4335495461
 21
223.7190451505
 31
0.0
  0
LINE
  5
1A4
330
170
100
AcDbEntity
  8
0
  6
Continuous
 62
     7
370
    15
100
AcDbLine
 10
182.4335495461
 20
98.7883009319
 30
0.0
 11
182.4335495461
 21
223.7190451505
 31
0.0
  0
LINE
  5
1A5
330
170
100
AcDbEntity
  8
0
  6
Continuous
 62
     7
370
    15
100
AcDbLine
 10
21.2132034356
 20
-12.2461216773
 30
0.0
 11
0.0
 21
0.0
 31
0.0
  0
LINE
  5
1A6
330
170
100
AcDbEntity
  8
0
  6
Continuous
 62
     7
370
    15
100
AcDbLine
 10
21.2132034356
 20
-14.695744113
 30
0.0
 11
0.0
 21
-2.4496224357
 31
0.0
  0
LINE
  5
1A7
330
170
100
AcDbEntity
  8
0
  6
Continuous
 62
     7
370
    15
100
AcDbLine
 10
0.0
 20
-2.4496224357
 30
0.0
 11
0.0
 21
0.0
 31
0.0
  0
LINE
  5
1A8
330
170
100
AcDbEntity
  8
0
  6
Continuous
 62
     7
370
    15
100
AcDbLine
 10
162.6345596729
 20
69.3946895049
 30
0.0
 11
141.4213562373
 21
81.6408111823
 31
0.0
  0
LINE
  5
1A9
330
170
100
AcDbEntity
  8
0
  6
Continuous
 62
     7
370
    15
100
AcDbLine
 10
0.0
 20
0.0
 30
0.0
 11
141.4213562373
 21
81.6408111823
 31
0.0
  0
LINE
  5
1AA
330
170
100
AcDbEntity
  8
0
  6
Continuous
 62
     7
370
    15
100
AcDbLine
 10
180.3122292026
 20
222.4944329827
 30
0.0
 11
159.099025767
 21
234.7405546601
 31
0.0
  0
LINE
  5
1AB
330
170
100
AcDbEntity
  8
0
  6
Continuous
 62
     7
370
    15
100
AcDbLine
 10
180.3122292026
 20
100.0133111999
 30
0.0
 11
159.099025767
 21
112.2594328772
 31
0.0
  0
LINE
  5
1AC
330
170
100
AcDbEntity
  8
0
  6
Continuous
 62
     7
370
    15
100
AcDbLine
 10
159.099025767
 20
112.2594328772
 30
0.0
 11
159.099025767
 21
234.7405546601
 31
0.0
  0
LINE
  5
1AD
330
170
100
AcDbEntity
  8
0
  6
Continuous
 62
     7
370
    15
100
AcDbLine
 10
182.4335495461
 20
223.7190451505
 30
0.0
 11
161.2203461105
 21
235.9651668278
 31
0.0
  0
LINE
  5
1AE
330
170
100
AcDbEntity
  8
0
  6
Continuous
 62
     7
370
    15
100
AcDbLine
 10
159.099025767
 20
234.7405546601
 30
0.0
 11
161.2203461105
 21
235.9651668278
 31
0.0
  0
LINE
  5
1AF
330
170
100
AcDbEntity
  8
0
  6
Continuous
 62
     7
370
    15
100
AcDbLine
 10
162.6345596729
 20
89.8082098021
 30
0.0
 11
141.4213562373
 21
102.0543314794
 31
0.0
  0
LINE
  5
1B0
330
170
100
AcDbEntity
  8
0
  6
Continuous
 62
     7
370
    15
100
AcDbLine
 10
141.4213562373
 20
81.6408111823
 30
0.0
 11
141.4213562373
 21
102.0543314794
 31
0.0
  0
LINE
  5
1B1
330
170
100
AcDbEntity
  8
0
  6
Continuous
 62
     7
370
    15
100
AcDbLine
 10
141.4213562373
 20
102.0543314794
 30
0.0
 11
159.099025767
 21
112.2594328772
 31
0.0
  0
ARC
  5
1B2
330
170
100
AcDbEntity
  8
0
  6
Continuous
 62
     7
370
    15
100
AcDbCircle
 10
21.2132034356
 20
-5.7946960996
 30
0.0
 40
5.868976473082554
100
AcDbArc
 50
51.1372351385
 51
128.8627648615
  0
ARC
  5
1B3
330
170
100
AcDbEntity
  8
0
  6
Continuous
 62
     7
370
    15
100
AcDbCircle
 10
174.7227490448
 20
207.0175920915
 30
0.0
 40
5.868010697159463
100
AcDbArc
 50
171.123211319
 51
248.8714121483
  0
ARC
  5
1B4
330
170
100
AcDbEntity
  8
0
  6
Continuous
 62
     7
370
    15
100
AcDbCircle
 10
81.3172798365
 20
28.9026486529
 30
0.0
 40
5.868976473082911
100
AcDbArc
 50
51.1372351386
 51
128.8627648614
  0
ARC
  5
1B5
330
170
100
AcDbEntity
  8
0
  6
Continuous
 62
     7
370
    15
100
AcDbCircle
 10
174.7227490448
 20
190.6867758537
 30
0.0
 40
5.868010697160163
100
AcDbArc
 50
171.123211319
 51
248.8714121483
  0
ARC
  5
1B6
330
170
100
AcDbEntity
  8
0
  6
Continuous
 62
     7
370
    15
100
AcDbCircle
 10
174.7227490448
 20
174.355959616
 30
0.0
 40
5.868010697158768
100
AcDbArc
 50
171.1232113189
 51
248.8714121484
  0
ARC
  5
1B7
330
170
100
AcDbEntity
  8
0
  6
Continuous
 62
     7
370
    15
100
AcDbCircle
 10
174.7227490448
 20
158.0251433783
 30
0.0
 40
5.868010697159429
100
AcDbArc
 50
171.123211319
 51
248.8714121483
  0
ARC
  5
1B8
330
170
100
AcDbEntity
  8
0
  6
Continuous
 62
     7
370
    15
100
AcDbCircle
 10
174.7227490448
 20
141.6943271406
 30
0.0
 40
5.868010697161095
100
AcDbArc
 50
171.123211319
 51
248.8714121483
  0
ARC
  5
1B9
330
170
100
AcDbEntity
  8
0
  6
Continuous
 62
     7
370
    15
100
AcDbCircle
 10
162.6345596729
 20
96.2596353798
 30
0.0
 40
5.868976473083173
100
AcDbArc
 50
51.1372351386
 51
128.8627648614
  0
VIEWPORT
  5
256
330
170
100
AcDbEntity
  8
0
100
AcDbViewport
 10
0.0
 20
0.0
 30
0.0
 40
205.6
 41
156.0
 68
     1
 69
     1
 12
-22.4398625082
 22
139.3274459176
 13
0.0
 23
0.0
 14
10.0
 24
10.0
 15
10.0
 25
10.0
 16
0.0
 26
0.0
 36
1.0
 17
0.0
 27
0.0
 37
0.0
 42
50.0
 43
0.0
 44
0.0
 45
288.9532992489
 50
0.0
 51
0.0
 72
   100
 90
   557152
  1

281
     0
 71
     1
 74
     0
110
0.0
120
0.0
130
0.0
111
1.0
121
0.0
131
0.0
112
0.0
122
1.0
132
0.0
 79
     0
146
0.0
  0
ENDBLK
  5
173
330
170
100
AcDbEntity
  8
0
100
AcDbBlockEnd
  0
BLOCK
  5
1BC
330
1BA
100
AcDbEntity
  8
0
100
AcDbBlockBegin
  2
*Paper_Space8
 70
     0
 10
0.0
 20
0.0
 30
0.0
  3
*Paper_Space8
  1

  0
LWPOLYLINE
  5
1CC
330
1BA
100
AcDbEntity
  8
0
  6
Continuous
 62
     7
370
    15
100
AcDbPolyline
 90
       30
 70
   128
 43
0.0
 10
18.2832472562
 20
1.2912334029
 10
19.1376452913
 20
1.1168898402
 10
20.0448367941
 20
1.0412195421
 10
20.9624024981
 20
1.0677607675
 10
21.8474380509
 20
1.1952724783
 10
22.6585601736
 20
1.4177923686
 10
23.3578416973
 20
1.7249156557
 10
23.9125849952
 20
2.1022815959
 10
24.2968508871
 20
2.5322449773
 10
24.4926715271
 20
2.9947011901
 10
24.4908905596
 20
3.4680262957
 10
24.2915912607
 20
3.9300881383
 10
23.9040926442
 20
4.3592812197
 10
23.3465137146
 20
4.7355369484
 10
22.6449262431
 20
5.0412620246
 10
21.8321356799
 20
5.2621610837
 10
20.9461472086
 20
5.3879051311
 10
20.0283886653
 20
5.4126145149
 10
19.1217734195
 20
5.3351338518
 10
18.2686937924
 20
5.1590860515
 10
17.5090388393
 20
4.8927029135
 10
16.8783291815
 20
4.5484402172
 10
16.4060561015
 20
4.1423953037
 10
16.1143025639
 20
3.6935543819
 10
16.0167106396
 20
3.2229047544
 10
16.1178436186
 20
2.7524534747
 10
16.4129726353
 20
2.3041983218
 10
16.8882977847
 20
1.8990992084
 10
17.5215933912
 20
1.5560981189
 10
18.2832472562
 20
1.2912334029
  0
LWPOLYLINE
  5
1CD
330
1BA
100
AcDbEntity
  8
0
  6
Continuous
 62
     7
370
    15
100
AcDbPolyline
 90
       30
 70
   128
 43
0.0
 10
57.9523553152
 20
40.0094989813
 10
58.8067533503
 20
39.8351554186
 10
59.7139448531
 20
39.7594851205
 10
60.6315105572
 20
39.7860263459
 10
61.51654611
 20
39.9135380567
 10
62.3276682327
 20
40.136057947
 10
63.0269497564
 20
40.443181234
 10
63.5816930542
 20
40.8205471742
 10
63.9659589462
 20
41.2505105556
 10
64.1617795861
 20
41.7129667684
 10
64.1599986186
 20
42.1862918741
 10
63.9606993198
 20
42.6483537167
 10
63.5732007032
 20
43.0775467981
 10
63.0156217737
 20
43.4538025267
 10
62.3140343021
 20
43.759527603
 10
61.501243739
 20
43.980426662
 10
60.6152552677
 20
44.1061707094
 10
59.6974967243
 20
44.1308800932
 10
58.7908814785
 20
44.0533994301
 10
57.9378018514
 20
43.8773516298
 10
57.1781468983
 20
43.6109684918
 10
56.5474372405
 20
43.2667057955
 10
56.0751641606
 20
42.860660882
 10
55.7834106229
 20
42.4118199602
 10
55.6858186987
 20
41.9411703327
 10
55.7869516777
 20
41.470719053
 10
56.0820806943
 20
41.0224639001
 10
56.5574058437
 20
40.6173647868
 10
57.1907014503
 20
40.2743636972
 10
57.9523553152
 20
40.0094989813
  0
LWPOLYLINE
  5
1D3
330
1BA
100
AcDbEntity
  8
0
  6
Continuous
 62
     7
370
    15
100
AcDbPolyline
 90
       30
 70
   128
 43
0.0
 10
122.0315113516
 20
205.0083956461
 10
121.9436332337
 20
205.8154079714
 10
121.6841079632
 20
206.6324520761
 10
121.2650706533
 20
207.4213238861
 10
120.7061150229
 20
208.1451366322
 10
120.033377216
 20
208.770045635
 10
119.2783137047
 20
209.2668308438
 10
118.4762304197
 20
209.6122631347
 10
117.664631884
 20
209.7901904774
 10
116.881467543
 20
209.7922931873
 10
116.1633572908
 20
209.618472944
 10
115.5438791648
 20
209.2768573888
 10
115.0519992737
 20
208.7834200855
 10
114.7107173744
 20
208.1612336139
 10
114.5359914292
 20
207.4393907219
 10
114.5359914292
 20
206.6516439809
 10
114.7107173744
 20
205.834827553
 10
115.0519992737
 20
205.0271348665
 10
115.5438791648
 20
204.2663327337
 10
116.1633572908
 20
203.5879954169
 10
116.881467543
 20
203.0238412149
 10
117.664631884
 20
202.6002493514
 10
118.4762304197
 20
202.3370265111
 10
119.2783137047
 20
202.2464807013
 10
120.033377216
 20
202.3328457436
 10
120.7061150229
 20
202.5920833046
 10
121.2650706533
 20
203.0120717239
 10
121.6841079632
 20
203.57317281
 10
121.9436332337
 20
204.2491500996
 10
122.0315113516
 20
205.0083956461
  0
LWPOLYLINE
  5
1D4
330
1BA
100
AcDbEntity
  8
0
  6
Continuous
 62
     7
370
    15
100
AcDbPolyline
 90
       30
 70
   128
 43
0.0
 10
122.0315113516
 20
187.865049632
 10
121.9436332337
 20
188.6720619573
 10
121.6841079632
 20
189.4891060621
 10
121.2650706533
 20
190.2779778721
 10
120.7061150229
 20
191.0017906182
 10
120.033377216
 20
191.6266996209
 10
119.2783137047
 20
192.1234848298
 10
118.4762304197
 20
192.4689171206
 10
117.664631884
 20
192.6468444634
 10
116.881467543
 20
192.6489471733
 10
116.1633572908
 20
192.47512693
 10
115.5438791648
 20
192.1335113748
 10
115.0519992737
 20
191.6400740715
 10
114.7107173744
 20
191.0178875998
 10
114.5359914292
 20
190.2960447078
 10
114.5359914292
 20
189.5082979668
 10
114.7107173744
 20
188.6914815389
 10
115.0519992737
 20
187.8837888524
 10
115.5438791648
 20
187.1229867197
 10
116.1633572908
 20
186.4446494028
 10
116.881467543
 20
185.8804952009
 10
117.664631884
 20
185.4569033374
 10
118.4762304197
 20
185.193680497
 10
119.2783137047
 20
185.1031346873
 10
120.033377216
 20
185.1894997296
 10
120.7061150229
 20
185.4487372905
 10
121.2650706533
 20
185.8687257099
 10
121.6841079632
 20
186.429826796
 10
121.9436332337
 20
187.1058040856
 10
122.0315113516
 20
187.865049632
  0
LWPOLYLINE
  5
1D5
330
1BA
100
AcDbEntity
  8
0
  6
Continuous
 62
     7
370
    15
100
AcDbPolyline
 90
       30
 70
   128
 43
0.0
 10
122.0315113516
 20
170.721703618
 10
121.9436332337
 20
171.5287159433
 10
121.6841079632
 20
172.345760048
 10
121.2650706533
 20
173.134631858
 10
120.7061150229
 20
173.8584446041
 10
120.033377216
 20
174.4833536069
 10
119.2783137047
 20
174.9801388158
 10
118.4762304197
 20
175.3255711066
 10
117.664631884
 20
175.5034984494
 10
116.881467543
 20
175.5056011593
 10
116.1633572908
 20
175.3317809159
 10
115.5438791648
 20
174.9901653608
 10
115.0519992737
 20
174.4967280574
 10
114.7107173744
 20
173.8745415858
 10
114.5359914292
 20
173.1526986938
 10
114.5359914292
 20
172.3649519528
 10
114.7107173744
 20
171.5481355249
 10
115.0519992737
 20
170.7404428384
 10
115.5438791648
 20
169.9796407056
 10
116.1633572908
 20
169.3013033888
 10
116.881467543
 20
168.7371491869
 10
117.664631884
 20
168.3135573234
 10
118.4762304197
 20
168.050334483
 10
119.2783137047
 20
167.9597886732
 10
120.033377216
 20
168.0461537155
 10
120.7061150229
 20
168.3053912765
 10
121.2650706533
 20
168.7253796958
 10
121.6841079632
 20
169.2864807819
 10
121.9436332337
 20
169.9624580716
 10
122.0315113516
 20
170.721703618
  0
LWPOLYLINE
  5
1D6
330
1BA
100
AcDbEntity
  8
0
  6
Continuous
 62
     7
370
    15
100
AcDbPolyline
 90
       30
 70
   128
 43
0.0
 10
122.0315113516
 20
153.5783576039
 10
121.9436332337
 20
154.3853699292
 10
121.6841079632
 20
155.202414034
 10
121.2650706533
 20
155.991285844
 10
120.7061150229
 20
156.7150985901
 10
120.033377216
 20
157.3400075928
 10
119.2783137047
 20
157.8367928017
 10
118.4762304197
 20
158.1822250925
 10
117.664631884
 20
158.3601524353
 10
116.881467543
 20
158.3622551452
 10
116.1633572908
 20
158.1884349019
 10
115.5438791648
 20
157.8468193467
 10
115.0519992737
 20
157.3533820434
 10
114.7107173744
 20
156.7311955718
 10
114.5359914292
 20
156.0093526798
 10
114.5359914292
 20
155.2216059388
 10
114.7107173744
 20
154.4047895108
 10
115.0519992737
 20
153.5970968243
 10
115.5438791648
 20
152.8362946916
 10
116.1633572908
 20
152.1579573747
 10
116.881467543
 20
151.5938031728
 10
117.664631884
 20
151.1702113093
 10
118.4762304197
 20
150.9069884689
 10
119.2783137047
 20
150.8164426592
 10
120.033377216
 20
150.9028077015
 10
120.7061150229
 20
151.1620452624
 10
121.2650706533
 20
151.5820336818
 10
121.6841079632
 20
152.1431347679
 10
121.9436332337
 20
152.8191120575
 10
122.0315113516
 20
153.5783576039
  0
LWPOLYLINE
  5
1D7
330
1BA
100
AcDbEntity
  8
0
  6
Continuous
 62
     7
370
    15
100
AcDbPolyline
 90
       30
 70
   128
 43
0.0
 10
122.0315113516
 20
222.1517416601
 10
121.9436332337
 20
222.9587539854
 10
121.6841079632
 20
223.7757980902
 10
121.2650706533
 20
224.5646699001
 10
120.7061150229
 20
225.2884826463
 10
120.033377216
 20
225.913391649
 10
119.2783137047
 20
226.4101768579
 10
118.4762304197
 20
226.7556091487
 10
117.664631884
 20
226.9335364915
 10
116.881467543
 20
226.9356392014
 10
116.1633572908
 20
226.7618189581
 10
115.5438791648
 20
226.4202034029
 10
115.0519992737
 20
225.9267660995
 10
114.7107173744
 20
225.3045796279
 10
114.5359914292
 20
224.5827367359
 10
114.5359914292
 20
223.7949899949
 10
114.7107173744
 20
222.978173567
 10
115.0519992737
 20
222.1704808805
 10
115.5438791648
 20
221.4096787477
 10
116.1633572908
 20
220.7313414309
 10
116.881467543
 20
220.167187229
 10
117.664631884
 20
219.7435953655
 10
118.4762304197
 20
219.4803725251
 10
119.2783137047
 20
219.3898267154
 10
120.033377216
 20
219.4761917577
 10
120.7061150229
 20
219.7354293186
 10
121.2650706533
 20
220.155417738
 10
121.6841079632
 20
220.716518824
 10
121.9436332337
 20
221.3924961137
 10
122.0315113516
 20
222.1517416601
  0
LWPOLYLINE
  5
1DB
330
1BA
100
AcDbEntity
  8
0
  6
Continuous
 62
     7
370
    15
100
AcDbPolyline
 90
       14
 70
   128
 43
0.0
 10
116.1443754075
 20
226.7544220795
 10
116.1108035412
 20
226.6711066483
 10
115.936077596
 20
225.9492637563
 10
115.936077596
 20
225.1615170153
 10
116.1108035412
 20
224.3447005874
 10
116.4520854405
 20
223.5370079009
 10
116.9439653316
 20
222.7762057682
 10
117.5634434576
 20
222.0978684513
 10
118.2815537098
 20
221.5337142494
 10
119.0647180508
 20
221.1101223859
 10
119.8763165865
 20
220.8468995455
 10
120.6783998715
 20
220.7563537358
 10
121.4334633827
 20
220.8427187781
 10
121.8011794281
 20
220.9586983659
  0
LWPOLYLINE
  5
1DC
330
1BA
100
AcDbEntity
  8
0
  6
Continuous
 62
     7
370
    15
100
AcDbPolyline
 90
       14
 70
   128
 43
0.0
 10
116.1443754075
 20
209.6110760655
 10
116.1108035412
 20
209.5277606343
 10
115.936077596
 20
208.8059177423
 10
115.936077596
 20
208.0181710013
 10
116.1108035412
 20
207.2013545734
 10
116.4520854405
 20
206.3936618869
 10
116.9439653316
 20
205.6328597541
 10
117.5634434576
 20
204.9545224373
 10
118.2815537098
 20
204.3903682354
 10
119.0647180508
 20
203.9667763718
 10
119.8763165865
 20
203.7035535315
 10
120.6783998715
 20
203.6130077217
 10
121.4334633827
 20
203.699372764
 10
121.8011794281
 20
203.8153523519
  0
LWPOLYLINE
  5
1DD
330
1BA
100
AcDbEntity
  8
0
  6
Continuous
 62
     7
370
    15
100
AcDbPolyline
 90
       14
 70
   128
 43
0.0
 10
116.1443754075
 20
192.4677300514
 10
116.1108035412
 20
192.3844146203
 10
115.936077596
 20
191.6625717283
 10
115.936077596
 20
190.8748249873
 10
116.1108035412
 20
190.0580085593
 10
116.4520854405
 20
189.2503158728
 10
116.9439653316
 20
188.4895137401
 10
117.5634434576
 20
187.8111764232
 10
118.2815537098
 20
187.2470222213
 10
119.0647180508
 20
186.8234303578
 10
119.8763165865
 20
186.5602075174
 10
120.6783998715
 20
186.4696617077
 10
121.4334633827
 20
186.55602675
 10
121.8011794281
 20
186.6720063378
  0
LWPOLYLINE
  5
1DE
330
1BA
100
AcDbEntity
  8
0
  6
Continuous
 62
     7
370
    15
100
AcDbPolyline
 90
       14
 70
   128
 43
0.0
 10
116.1443754075
 20
175.3243840374
 10
116.1108035412
 20
175.2410686062
 10
115.936077596
 20
174.5192257142
 10
115.936077596
 20
173.7314789732
 10
116.1108035412
 20
172.9146625453
 10
116.4520854405
 20
172.1069698588
 10
116.9439653316
 20
171.346167726
 10
117.5634434576
 20
170.6678304092
 10
118.2815537098
 20
170.1036762073
 10
119.0647180508
 20
169.6800843438
 10
119.8763165865
 20
169.4168615034
 10
120.6783998715
 20
169.3263156936
 10
121.4334633827
 20
169.4126807359
 10
121.8011794281
 20
169.5286603238
  0
LWPOLYLINE
  5
1E1
330
1BA
100
AcDbEntity
  8
0
  6
Continuous
 62
     7
370
    15
100
AcDbPolyline
 90
       30
 70
   128
 43
0.0
 10
111.6223250422
 20
113.8222172813
 10
112.4767230773
 20
113.6478737186
 10
113.3839145801
 20
113.5722034205
 10
114.3014802841
 20
113.5987446459
 10
115.1865158369
 20
113.7262563567
 10
115.9976379597
 20
113.948776247
 10
116.6969194834
 20
114.2558995341
 10
117.2516627812
 20
114.6332654743
 10
117.6359286731
 20
115.0632288557
 10
117.8317493131
 20
115.5256850685
 10
117.8299683456
 20
115.9990101741
 10
117.6306690467
 20
116.4610720167
 10
117.2431704302
 20
116.8902650981
 10
116.6855915006
 20
117.2665208268
 10
115.9840040291
 20
117.572245903
 10
115.171213466
 20
117.7931449621
 10
114.2852249946
 20
117.9188890095
 10
113.3674664513
 20
117.9435983933
 10
112.4608512055
 20
117.8661177302
 10
111.6077715784
 20
117.6900699299
 10
110.8481166253
 20
117.4236867919
 10
110.2174069675
 20
117.0794240956
 10
109.7451338876
 20
116.6733791821
 10
109.4533803499
 20
116.2245382603
 10
109.3557884256
 20
115.7538886328
 10
109.4569214046
 20
115.2834373531
 10
109.7520504213
 20
114.8351822002
 10
110.2273755707
 20
114.4300830868
 10
110.8606711772
 20
114.0870819973
 10
111.6223250422
 20
113.8222172813
  0
LWPOLYLINE
  5
1E3
330
1BA
100
AcDbEntity
  8
0
  6
Continuous
 62
     7
370
    15
100
AcDbPolyline
 90
       14
 70
   128
 43
0.0
 10
116.1443754075
 20
158.1810380233
 10
116.1108035412
 20
158.0977225922
 10
115.936077596
 20
157.3758797002
 10
115.936077596
 20
156.5881329592
 10
116.1108035412
 20
155.7713165312
 10
116.4520854405
 20
154.9636238447
 10
116.9439653316
 20
154.202821712
 10
117.5634434576
 20
153.5244843951
 10
118.2815537098
 20
152.9603301932
 10
119.0647180508
 20
152.5367383297
 10
119.8763165865
 20
152.2735154894
 10
120.6783998715
 20
152.1829696796
 10
121.4334633827
 20
152.2693347219
 10
121.8011794281
 20
152.3853143098
  0
LINE
  5
1E5
330
1BA
100
AcDbEntity
  8
0
  6
Continuous
 62
     7
370
    15
100
AcDbLine
 10
121.2717076031
 20
104.1150321562
 30
0.0
 11
132.9390923264
 21
115.5027573263
 31
0.0
  0
LINE
  5
1E6
330
1BA
100
AcDbEntity
  8
0
  6
Continuous
 62
     7
370
    15
100
AcDbLine
 10
121.2717076031
 20
82.6858496386
 30
0.0
 11
121.2717076031
 21
104.1150321562
 31
0.0
  0
LINE
  5
1E7
330
1BA
100
AcDbEntity
  8
0
  6
Continuous
 62
     7
370
    15
100
AcDbLine
 10
26.5325436503
 20
-9.7824787426
 30
0.0
 11
121.2717076031
 21
82.6858496386
 31
0.0
  0
LINE
  5
1E8
330
1BA
100
AcDbEntity
  8
0
  6
Continuous
 62
     7
370
    15
100
AcDbLine
 10
26.5325436503
 20
-9.7824787426
 30
0.0
 11
26.5325436503
 21
-7.2109768405
 31
0.0
  0
LINE
  5
1E9
330
1BA
100
AcDbEntity
  8
0
  6
Continuous
 62
     7
370
    15
100
AcDbLine
 10
26.5325436503
 20
-7.2109768405
 30
0.0
 11
119.8716214363
 21
83.8908245203
 31
0.0
  0
LINE
  5
1EA
330
1BA
100
AcDbEntity
  8
0
  6
Continuous
 62
     7
370
    15
100
AcDbLine
 10
119.8716214363
 20
83.8908245203
 30
0.0
 11
119.8716214363
 21
105.3200070379
 31
0.0
  0
LINE
  5
1EB
330
1BA
100
AcDbEntity
  8
0
  6
Continuous
 62
     7
370
    15
100
AcDbLine
 10
119.8716214363
 20
105.3200070379
 30
0.0
 11
131.5390061596
 21
116.707732208
 31
0.0
  0
LINE
  5
1EC
330
1BA
100
AcDbEntity
  8
0
  6
Continuous
 62
     7
370
    15
100
AcDbLine
 10
131.5390061596
 20
116.707732208
 30
0.0
 11
131.5390061596
 21
245.2828273133
 31
0.0
  0
LINE
  5
1ED
330
1BA
100
AcDbEntity
  8
0
  6
Continuous
 62
     7
370
    15
100
AcDbLine
 10
131.5390061596
 20
245.2828273133
 30
0.0
 11
132.9390923264
 21
246.6493543337
 31
0.0
  0
LINE
  5
1EE
330
1BA
100
AcDbEntity
  8
0
  6
Continuous
 62
     7
370
    15
100
AcDbLine
 10
132.9390923264
 20
115.5027573263
 30
0.0
 11
132.9390923264
 21
246.6493543337
 31
0.0
  0
LINE
  5
1EF
330
1BA
100
AcDbEntity
  8
0
  6
Continuous
 62
     7
370
    15
100
AcDbLine
 10
26.5325436503
 20
-7.2109768405
 30
0.0
 11
0.0
 21
0.0
 31
0.0
  0
LINE
  5
1F0
330
1BA
100
AcDbEntity
  8
0
  6
Continuous
 62
     7
370
    15
100
AcDbLine
 10
26.5325436503
 20
-9.7824787426
 30
0.0
 11
0.0
 21
-2.5715019021
 31
0.0
  0
LINE
  5
1F1
330
1BA
100
AcDbEntity
  8
0
  6
Continuous
 62
     7
370
    15
100
AcDbLine
 10
0.0
 20
-2.5715019021
 30
0.0
 11
0.0
 21
0.0
 31
0.0
  0
LINE
  5
1F2
330
1BA
100
AcDbEntity
  8
0
  6
Continuous
 62
     7
370
    15
100
AcDbLine
 10
119.8716214363
 20
83.8908245203
 30
0.0
 11
93.339077786
 21
91.1018013609
 31
0.0
  0
LINE
  5
1F3
330
1BA
100
AcDbEntity
  8
0
  6
Continuous
 62
     7
370
    15
100
AcDbLine
 10
0.0
 20
0.0
 30
0.0
 11
93.339077786
 21
91.1018013609
 31
0.0
  0
LINE
  5
1F4
330
1BA
100
AcDbEntity
  8
0
  6
Continuous
 62
     7
370
    15
100
AcDbLine
 10
131.5390061596
 20
245.2828273133
 30
0.0
 11
105.0064625093
 21
252.4938041538
 31
0.0
  0
LINE
  5
1F5
330
1BA
100
AcDbEntity
  8
0
  6
Continuous
 62
     7
370
    15
100
AcDbLine
 10
131.5390061596
 20
116.707732208
 30
0.0
 11
105.0064625093
 21
123.9187090485
 31
0.0
  0
LINE
  5
1F6
330
1BA
100
AcDbEntity
  8
0
  6
Continuous
 62
     7
370
    15
100
AcDbLine
 10
105.0064625093
 20
123.9187090485
 30
0.0
 11
105.0064625093
 21
252.4938041538
 31
0.0
  0
LINE
  5
1F7
330
1BA
100
AcDbEntity
  8
0
  6
Continuous
 62
     7
370
    15
100
AcDbLine
 10
132.9390923264
 20
246.6493543337
 30
0.0
 11
106.4065486761
 21
253.8603311742
 31
0.0
  0
LINE
  5
1F8
330
1BA
100
AcDbEntity
  8
0
  6
Continuous
 62
     7
370
    15
100
AcDbLine
 10
105.0064625093
 20
252.4938041538
 30
0.0
 11
106.4065486761
 21
253.8603311742
 31
0.0
  0
LINE
  5
1F9
330
1BA
100
AcDbEntity
  8
0
  6
Continuous
 62
     7
370
    15
100
AcDbLine
 10
119.8716214363
 20
105.3200070379
 30
0.0
 11
93.339077786
 21
112.5309838784
 31
0.0
  0
LINE
  5
1FA
330
1BA
100
AcDbEntity
  8
0
  6
Continuous
 62
     7
370
    15
100
AcDbLine
 10
93.339077786
 20
91.1018013609
 30
0.0
 11
93.339077786
 21
112.5309838784
 31
0.0
  0
LINE
  5
1FB
330
1BA
100
AcDbEntity
  8
0
  6
Continuous
 62
     7
370
    15
100
AcDbLine
 10
93.339077786
 20
112.5309838784
 30
0.0
 11
105.0064625093
 21
123.9187090485
 31
0.0
  0
ARC
  5
1FC
330
1BA
100
AcDbEntity
  8
0
  6
Continuous
 62
     7
370
    15
100
AcDbCircle
 10
20.2667026591
 20
-3.7402504747
 30
0.0
 40
6.641648489950929
100
AcDbArc
 50
58.8102841057
 51
121.1897158943
  0
ARC
  5
1FD
330
1BA
100
AcDbEntity
  8
0
  6
Continuous
 62
     7
370
    15
100
AcDbCircle
 10
59.9358107182
 20
34.9780151037
 30
0.0
 40
6.641648489950781
100
AcDbArc
 50
58.8102841057
 51
121.1897158943
  0
ARC
  5
1FE
330
1BA
100
AcDbEntity
  8
0
  6
Continuous
 62
     7
370
    15
100
AcDbCircle
 10
113.6057804451
 20
108.7907334037
 30
0.0
 40
6.641648489951013
100
AcDbArc
 50
58.8102841057
 51
121.1897158943
  0
VIEWPORT
  5
258
330
1BA
100
AcDbEntity
  8
0
100
AcDbViewport
 10
0.0
 20
0.0
 30
0.0
 40
205.6
 41
156.0
 68
     1
 69
     1
 12
-22.4398625082
 22
139.3274459176
 13
0.0
 23
0.0
 14
10.0
 24
10.0
 15
10.0
 25
10.0
 16
0.0
 26
0.0
 36
1.0
 17
0.0
 27
0.0
 37
0.0
 42
50.0
 43
0.0
 44
0.0
 45
288.9532992489
 50
0.0
 51
0.0
 72
   100
 90
   557152
  1

281
     0
 71
     1
 74
     0
110
0.0
120
0.0
130
0.0
111
1.0
121
0.0
131
0.0
112
0.0
122
1.0
132
0.0
 79
     0
146
0.0
  0
ENDBLK
  5
1BD
330
1BA
100
AcDbEntity
  8
0
100
AcDbBlockEnd
  0
BLOCK
  5
201
330
1FF
100
AcDbEntity
  8
0
100
AcDbBlockBegin
  2
*Paper_Space9
 70
     0
 10
0.0
 20
0.0
 30
0.0
  3
*Paper_Space9
  1

  0
LWPOLYLINE
  5
211
330
1FF
100
AcDbEntity
  8
0
  6
Continuous
 62
     7
370
    15
100
AcDbPolyline
 90
       30
 70
   128
 43
0.0
 10
17.8319141489
 20
1.5841344562
 10
18.7216614906
 20
1.5074445373
 10
19.6400652307
 20
1.4963040453
 10
20.5441818312
 20
1.5512338973
 10
21.3917358045
 20
1.6696656344
 10
22.143096469
 20
1.8460615202
 10
22.763131035
 20
2.0721734791
 10
23.2228473754
 20
2.3374287673
 10
23.5007496649
 20
2.6294243422
 10
23.5838435014
 20
2.9345068154
 10
23.4682435095
 20
3.2384108694
 10
23.1593550163
 20
3.5269262885
 10
22.6716213045
 20
3.7865624123
 10
22.0278482602
 20
4.0051789442
 10
21.2581379956
 20
4.1725536182
 10
20.3984813072
 20
4.2808601805
 10
19.4890747863
 20
4.3250343367
 10
18.5724412711
 20
4.3030105524
 10
17.6914415259
 20
4.2158186351
 10
16.8872701198
 20
4.067535582
 10
16.1975292138
 20
3.865094944
 10
15.6544703261
 20
3.6179626202
 10
15.2834862869
 20
3.3376942434
 10
15.1019238973
 20
3.0373948514
 10
15.1182728131
 20
2.7311061101
 10
15.3317685769
 20
2.4331497406
 10
15.7324283643
 20
2.1574578515
 10
16.3015177688
 20
1.9169214891
 10
17.0124268025
 20
1.7227878666
 10
17.8319141489
 20
1.5841344562
  0
LWPOLYLINE
  5
212
330
1FF
100
AcDbEntity
  8
0
  6
Continuous
 62
     7
370
    15
100
AcDbPolyline
 90
       30
 70
   128
 43
0.0
 10
47.8839523424
 20
28.0875409404
 10
48.7736996841
 20
28.0108510215
 10
49.6921034242
 20
27.9997105295
 10
50.5962200247
 20
28.0546403815
 10
51.4437739981
 20
28.1730721186
 10
52.1951346626
 20
28.3494680044
 10
52.8151692286
 20
28.5755799633
 10
53.2748855689
 20
28.8408352515
 10
53.5527878584
 20
29.1328308264
 10
53.635881695
 20
29.4379132996
 10
53.5202817031
 20
29.7418173536
 10
53.2113932099
 20
30.0303327727
 10
52.723659498
 20
30.2899688965
 10
52.0798864537
 20
30.5085854284
 10
51.3101761892
 20
30.6759601024
 10
50.4505195008
 20
30.7842666647
 10
49.5411129799
 20
30.828440821
 10
48.6244794646
 20
30.8064170366
 10
47.7434797195
 20
30.7192251193
 10
46.9393083133
 20
30.5709420662
 10
46.2495674073
 20
30.3685014282
 10
45.7065085197
 20
30.1213691044
 10
45.3355244804
 20
29.8411007276
 10
45.1539620909
 20
29.5408013356
 10
45.1703110066
 20
29.2345125943
 10
45.3838067705
 20
28.9365562248
 10
45.7844665578
 20
28.6608643357
 10
46.3535559624
 20
28.4203279734
 10
47.064464996
 20
28.2261943508
 10
47.8839523424
 20
28.0875409404
  0
LWPOLYLINE
  5
214
330
1FF
100
AcDbEntity
  8
0
  6
Continuous
 62
     7
370
    15
100
AcDbPolyline
 90
        3
 70
   128
 43
0.0
 10
19.5845160393
 20
1.495091218
 10
19.4890747863
 20
1.4966072119
 10
19.0845160778
 20
1.495091218
  0
LWPOLYLINE
  5
215
330
1FF
100
AcDbEntity
  8
0
  6
Continuous
 62
     7
370
    15
100
AcDbPolyline
 90
        3
 70
   128
 43
0.0
 10
49.6365542328
 20
27.9984977022
 10
49.5411129799
 20
28.0000136961
 10
49.1365542714
 20
27.9984977022
  0
LWPOLYLINE
  5
218
330
1FF
100
AcDbEntity
  8
0
  6
Continuous
 62
     7
370
    15
100
AcDbPolyline
 90
       30
 70
   128
 43
0.0
 10
97.5562390397
 20
185.7385719336
 10
97.4632938023
 20
186.6116552504
 10
97.1888041064
 20
187.46733416
 10
96.7456047848
 20
188.2655980677
 10
96.1544193454
 20
188.9691210404
 10
95.4428909622
 20
189.5450071258
 10
94.6442899117
 20
189.9663285305
 10
93.7959578913
 20
190.2133847341
 10
92.9375619635
 20
190.2746236628
 10
92.1092397678
 20
190.1471818527
 10
91.3497227295
 20
189.8370183409
 10
90.6945250212
 20
189.3586360286
 10
90.1742829595
 20
188.7344035411
 10
89.8133224849
 20
187.9935092957
 10
89.6285217082
 20
187.1705966839
 10
89.6285217082
 20
186.3041441847
 10
89.8133224849
 20
185.434666154
 10
90.1742829595
 20
184.6028184183
 10
90.6945250212
 20
183.847497253
 10
91.3497227295
 20
183.2040206365
 10
92.1092397678
 20
182.7024768201
 10
92.9375619635
 20
182.3663174352
 10
93.7959578913
 20
182.2112609212
 10
94.6442899117
 20
182.2445575481
 10
95.4428909622
 20
182.4646504028
 10
96.1544193454
 20
182.861248188
 10
96.7456047848
 20
183.4158064321
 10
97.1888041064
 20
184.1023946079
 10
97.4632938023
 20
184.8889086153
 10
97.5562390397
 20
185.7385719336
  0
LWPOLYLINE
  5
219
330
1FF
100
AcDbEntity
  8
0
  6
Continuous
 62
     7
370
    15
100
AcDbPolyline
 90
       30
 70
   128
 43
0.0
 10
97.5562390397
 20
166.8823911014
 10
97.4632938023
 20
167.7554744182
 10
97.1888041064
 20
168.6111533278
 10
96.7456047848
 20
169.4094172355
 10
96.1544193454
 20
170.1129402082
 10
95.4428909622
 20
170.6888262936
 10
94.6442899117
 20
171.1101476983
 10
93.7959578913
 20
171.3572039018
 10
92.9375619635
 20
171.4184428306
 10
92.1092397678
 20
171.2910010205
 10
91.3497227295
 20
170.9808375087
 10
90.6945250212
 20
170.5024551964
 10
90.1742829595
 20
169.8782227089
 10
89.8133224849
 20
169.1373284635
 10
89.6285217082
 20
168.3144158516
 10
89.6285217082
 20
167.4479633525
 10
89.8133224849
 20
166.5784853218
 10
90.1742829595
 20
165.7466375861
 10
90.6945250212
 20
164.9913164208
 10
91.3497227295
 20
164.3478398043
 10
92.1092397678
 20
163.8462959879
 10
92.9375619635
 20
163.510136603
 10
93.7959578913
 20
163.355080089
 10
94.6442899117
 20
163.3883767159
 10
95.4428909622
 20
163.6084695706
 10
96.1544193454
 20
164.0050673558
 10
96.7456047848
 20
164.5596255999
 10
97.1888041064
 20
165.2462137757
 10
97.4632938023
 20
166.0327277831
 10
97.5562390397
 20
166.8823911014
  0
LWPOLYLINE
  5
21A
330
1FF
100
AcDbEntity
  8
0
  6
Continuous
 62
     7
370
    15
100
AcDbPolyline
 90
       30
 70
   128
 43
0.0
 10
97.5562390397
 20
148.0262102692
 10
97.4632938023
 20
148.899293586
 10
97.1888041064
 20
149.7549724956
 10
96.7456047848
 20
150.5532364033
 10
96.1544193454
 20
151.256759376
 10
95.4428909622
 20
151.8326454614
 10
94.6442899117
 20
152.2539668661
 10
93.7959578913
 20
152.5010230696
 10
92.9375619635
 20
152.5622619984
 10
92.1092397678
 20
152.4348201883
 10
91.3497227295
 20
152.1246566765
 10
90.6945250212
 20
151.6462743642
 10
90.1742829595
 20
151.0220418767
 10
89.8133224849
 20
150.2811476313
 10
89.6285217082
 20
149.4582350194
 10
89.6285217082
 20
148.5917825203
 10
89.8133224849
 20
147.7223044896
 10
90.1742829595
 20
146.8904567539
 10
90.6945250212
 20
146.1351355886
 10
91.3497227295
 20
145.4916589721
 10
92.1092397678
 20
144.9901151557
 10
92.9375619635
 20
144.6539557708
 10
93.7959578913
 20
144.4988992568
 10
94.6442899117
 20
144.5321958837
 10
95.4428909622
 20
144.7522887384
 10
96.1544193454
 20
145.1488865236
 10
96.7456047848
 20
145.7034447677
 10
97.1888041064
 20
146.3900329435
 10
97.4632938023
 20
147.1765469509
 10
97.5562390397
 20
148.0262102692
  0
LWPOLYLINE
  5
21B
330
1FF
100
AcDbEntity
  8
0
  6
Continuous
 62
     7
370
    15
100
AcDbPolyline
 90
       30
 70
   128
 43
0.0
 10
97.5562390397
 20
129.170029437
 10
97.4632938023
 20
130.0431127538
 10
97.1888041064
 20
130.8987916634
 10
96.7456047848
 20
131.6970555711
 10
96.1544193454
 20
132.4005785438
 10
95.4428909622
 20
132.9764646292
 10
94.6442899117
 20
133.3977860339
 10
93.7959578913
 20
133.6448422374
 10
92.9375619635
 20
133.7060811662
 10
92.1092397678
 20
133.5786393561
 10
91.3497227295
 20
133.2684758443
 10
90.6945250212
 20
132.790093532
 10
90.1742829595
 20
132.1658610445
 10
89.8133224849
 20
131.4249667991
 10
89.6285217082
 20
130.6020541872
 10
89.6285217082
 20
129.7356016881
 10
89.8133224849
 20
128.8661236574
 10
90.1742829595
 20
128.0342759217
 10
90.6945250212
 20
127.2789547564
 10
91.3497227295
 20
126.6354781399
 10
92.1092397678
 20
126.1339343235
 10
92.9375619635
 20
125.7977749386
 10
93.7959578913
 20
125.6427184246
 10
94.6442899117
 20
125.6760150515
 10
95.4428909622
 20
125.8961079062
 10
96.1544193454
 20
126.2927056914
 10
96.7456047848
 20
126.8472639355
 10
97.1888041064
 20
127.5338521113
 10
97.4632938023
 20
128.3203661187
 10
97.5562390397
 20
129.170029437
  0
LWPOLYLINE
  5
21C
330
1FF
100
AcDbEntity
  8
0
  6
Continuous
 62
     7
370
    15
100
AcDbPolyline
 90
       30
 70
   128
 43
0.0
 10
97.5562390397
 20
204.5947527658
 10
97.4632938023
 20
205.4678360826
 10
97.1888041064
 20
206.3235149922
 10
96.7456047848
 20
207.1217788999
 10
96.1544193454
 20
207.8253018726
 10
95.4428909622
 20
208.401187958
 10
94.6442899117
 20
208.8225093627
 10
93.7959578913
 20
209.0695655663
 10
92.9375619635
 20
209.130804495
 10
92.1092397678
 20
209.0033626849
 10
91.3497227295
 20
208.6931991731
 10
90.6945250212
 20
208.2148168608
 10
90.1742829595
 20
207.5905843733
 10
89.8133224849
 20
206.8496901279
 10
89.6285217082
 20
206.0267775161
 10
89.6285217082
 20
205.1603250169
 10
89.8133224849
 20
204.2908469862
 10
90.1742829595
 20
203.4589992505
 10
90.6945250212
 20
202.7036780853
 10
91.3497227295
 20
202.0602014687
 10
92.1092397678
 20
201.5586576523
 10
92.9375619635
 20
201.2224982674
 10
93.7959578913
 20
201.0674417534
 10
94.6442899117
 20
201.1007383803
 10
95.4428909622
 20
201.320831235
 10
96.1544193454
 20
201.7174290202
 10
96.7456047848
 20
202.2719872643
 10
97.1888041064
 20
202.9585754401
 10
97.4632938023
 20
203.7450894475
 10
97.5562390397
 20
204.5947527658
  0
LWPOLYLINE
  5
225
330
1FF
100
AcDbEntity
  8
0
  6
Continuous
 62
     7
370
    15
100
AcDbPolyline
 90
       30
 70
   128
 43
0.0
 10
88.5425922513
 20
87.5153169298
 10
89.432339593
 20
87.438627011
 10
90.3507433331
 20
87.427486519
 10
91.2548599336
 20
87.482416371
 10
92.102413907
 20
87.6008481081
 10
92.8537745715
 20
87.7772439939
 10
93.4738091375
 20
88.0033559528
 10
93.9335254778
 20
88.268611241
 10
94.2114277673
 20
88.5606068159
 10
94.2945216039
 20
88.8656892891
 10
94.178921612
 20
89.1695933431
 10
93.8700331188
 20
89.4581087622
 10
93.3822994069
 20
89.717744886
 10
92.7385263626
 20
89.9363614179
 10
91.9688160981
 20
90.1037360919
 10
91.1091594097
 20
90.2120426542
 10
90.1997528888
 20
90.2562168104
 10
89.2831193735
 20
90.2341930261
 10
88.4021196284
 20
90.1470011088
 10
87.5979482222
 20
89.9987180557
 10
86.9082073162
 20
89.7962774177
 10
86.3651484286
 20
89.5491450939
 10
85.9941643893
 20
89.2688767171
 10
85.8126019998
 20
88.9685773251
 10
85.8289509155
 20
88.6622885838
 10
86.0424466794
 20
88.3643322142
 10
86.4431064667
 20
88.0886403251
 10
87.0121958713
 20
87.8481039628
 10
87.7231049049
 20
87.6539703403
 10
88.5425922513
 20
87.5153169298
  0
LWPOLYLINE
  5
229
330
1FF
100
AcDbEntity
  8
0
  6
Continuous
 62
     7
370
    15
100
AcDbPolyline
 90
        3
 70
   128
 43
0.0
 10
90.2951941417
 20
87.4262736916
 10
90.1997528888
 20
87.4277896856
 10
89.7951941802
 20
87.4262736916
  0
LINE
  5
22A
330
1FF
100
AcDbEntity
  8
0
  6
Continuous
 62
     7
370
    15
100
AcDbLine
 10
99.8337686757
 20
80.5026357911
 30
0.0
 11
108.6726034385
 21
88.2977553453
 31
0.0
  0
LINE
  5
22B
330
1FF
100
AcDbEntity
  8
0
  6
Continuous
 62
     7
370
    15
100
AcDbLine
 10
99.8337686757
 20
56.9324097508
 30
0.0
 11
99.8337686757
 21
80.5026357911
 31
0.0
  0
LINE
  5
22C
330
1FF
100
AcDbEntity
  8
0
  6
Continuous
 62
     7
370
    15
100
AcDbLine
 10
28.0624304017
 20
-6.3639610291
 30
0.0
 11
99.8337686757
 21
56.9324097508
 31
0.0
  0
LINE
  5
22D
330
1FF
100
AcDbEntity
  8
0
  6
Continuous
 62
     7
370
    15
100
AcDbLine
 10
28.0624304017
 20
-6.3639610291
 30
0.0
 11
28.0624304017
 21
-3.5355339043
 31
0.0
  0
LINE
  5
22E
330
1FF
100
AcDbEntity
  8
0
  6
Continuous
 62
     7
370
    15
100
AcDbLine
 10
28.0624304017
 20
-3.5355339043
 30
0.0
 11
98.7731085042
 21
58.8254225292
 31
0.0
  0
LINE
  5
22F
330
1FF
100
AcDbEntity
  8
0
  6
Continuous
 62
     7
370
    15
100
AcDbLine
 10
98.7731085042
 20
58.8254225292
 30
0.0
 11
98.7731085042
 21
82.3956485694
 31
0.0
  0
LINE
  5
230
330
1FF
100
AcDbEntity
  8
0
  6
Continuous
 62
     7
370
    15
100
AcDbLine
 10
98.7731085042
 20
82.3956485694
 30
0.0
 11
107.611943267
 21
90.1907681236
 31
0.0
  0
LINE
  5
231
330
1FF
100
AcDbEntity
  8
0
  6
Continuous
 62
     7
370
    15
100
AcDbLine
 10
107.611943267
 20
90.1907681236
 30
0.0
 11
107.611943267
 21
231.6121243651
 31
0.0
  0
LINE
  5
232
330
1FF
100
AcDbEntity
  8
0
  6
Continuous
 62
     7
370
    15
100
AcDbLine
 10
107.611943267
 20
231.6121243651
 30
0.0
 11
108.6726034385
 21
232.5475387116
 31
0.0
  0
LINE
  5
233
330
1FF
100
AcDbEntity
  8
0
  6
Continuous
 62
     7
370
    15
100
AcDbLine
 10
108.6726034385
 20
88.2977553453
 30
0.0
 11
108.6726034385
 21
232.5475387116
 31
0.0
  0
LINE
  5
234
330
1FF
100
AcDbEntity
  8
0
  6
Continuous
 62
     7
370
    15
100
AcDbLine
 10
28.0624304017
 20
-3.5355339043
 30
0.0
 11
0.0
 21
0.0
 31
0.0
  0
LINE
  5
235
330
1FF
100
AcDbEntity
  8
0
  6
Continuous
 62
     7
370
    15
100
AcDbLine
 10
28.0624304017
 20
-6.3639610291
 30
0.0
 11
0.0
 21
-2.8284271248
 31
0.0
  0
LINE
  5
236
330
1FF
100
AcDbEntity
  8
0
  6
Continuous
 62
     7
370
    15
100
AcDbLine
 10
0.0
 20
-2.8284271248
 30
0.0
 11
0.0
 21
0.0
 31
0.0
  0
LINE
  5
237
330
1FF
100
AcDbEntity
  8
0
  6
Continuous
 62
     7
370
    15
100
AcDbLine
 10
98.7731085042
 20
58.8254225292
 30
0.0
 11
70.7106781024
 21
62.3609564334
 31
0.0
  0
LINE
  5
238
330
1FF
100
AcDbEntity
  8
0
  6
Continuous
 62
     7
370
    15
100
AcDbLine
 10
0.0
 20
0.0
 30
0.0
 11
70.7106781024
 21
62.3609564334
 31
0.0
  0
LINE
  5
239
330
1FF
100
AcDbEntity
  8
0
  6
Continuous
 62
     7
370
    15
100
AcDbLine
 10
107.611943267
 20
231.6121243651
 30
0.0
 11
79.5495128652
 21
235.1476582694
 31
0.0
  0
LINE
  5
23A
330
1FF
100
AcDbEntity
  8
0
  6
Continuous
 62
     7
370
    15
100
AcDbLine
 10
107.611943267
 20
90.1907681236
 30
0.0
 11
79.5495128652
 21
93.7263020279
 31
0.0
  0
LINE
  5
23B
330
1FF
100
AcDbEntity
  8
0
  6
Continuous
 62
     7
370
    15
100
AcDbLine
 10
79.5495128652
 20
93.7263020279
 30
0.0
 11
79.5495128652
 21
235.1476582694
 31
0.0
  0
LINE
  5
23C
330
1FF
100
AcDbEntity
  8
0
  6
Continuous
 62
     7
370
    15
100
AcDbLine
 10
108.6726034385
 20
232.5475387116
 30
0.0
 11
80.6101730368
 21
236.0830726159
 31
0.0
  0
LINE
  5
23D
330
1FF
100
AcDbEntity
  8
0
  6
Continuous
 62
     7
370
    15
100
AcDbLine
 10
79.5495128652
 20
235.1476582694
 30
0.0
 11
80.6101730368
 21
236.0830726159
 31
0.0
  0
LINE
  5
23E
330
1FF
100
AcDbEntity
  8
0
  6
Continuous
 62
     7
370
    15
100
AcDbLine
 10
98.7731085042
 20
82.3956485694
 30
0.0
 11
70.7106781024
 21
85.9311824737
 31
0.0
  0
LINE
  5
23F
330
1FF
100
AcDbEntity
  8
0
  6
Continuous
 62
     7
370
    15
100
AcDbLine
 10
70.7106781024
 20
62.3609564334
 30
0.0
 11
70.7106781024
 21
85.9311824737
 31
0.0
  0
LINE
  5
240
330
1FF
100
AcDbEntity
  8
0
  6
Continuous
 62
     7
370
    15
100
AcDbLine
 10
70.7106781024
 20
85.9311824737
 30
0.0
 11
79.5495128652
 21
93.7263020279
 31
0.0
  0
ARC
  5
241
330
1FF
100
AcDbEntity
  8
0
  6
Continuous
 62
     7
370
    15
100
AcDbCircle
 10
95.0242208336
 20
206.3686610296
 30
0.0
 40
4.347651256706138
100
AcDbArc
 50
147.6726806886
 51
295.1465635313
  0
ARC
  5
242
330
1FF
100
AcDbEntity
  8
0
  6
Continuous
 62
     7
370
    15
100
AcDbCircle
 10
95.0242208336
 20
187.5124801974
 30
0.0
 40
4.347651256711634
100
AcDbArc
 50
147.6726806894
 51
295.1465635305
  0
ARC
  5
243
330
1FF
100
AcDbEntity
  8
0
  6
Continuous
 62
     7
370
    15
100
AcDbCircle
 10
95.0242208336
 20
168.6562993652
 30
0.0
 40
4.34765125670329
100
AcDbArc
 50
147.6726806882
 51
295.1465635316
  0
ARC
  5
244
330
1FF
100
AcDbEntity
  8
0
  6
Continuous
 62
     7
370
    15
100
AcDbCircle
 10
95.0242208336
 20
149.800118533
 30
0.0
 40
4.347651256707145
100
AcDbArc
 50
147.6726806889
 51
295.1465635313
  0
ARC
  5
245
330
1FF
100
AcDbEntity
  8
0
  6
Continuous
 62
     7
370
    15
100
AcDbCircle
 10
95.0242208336
 20
130.9439377008
 30
0.0
 40
4.347651256706554
100
AcDbArc
 50
147.6726806887
 51
295.1465635312
  0
VIEWPORT
  5
25A
330
1FF
100
AcDbEntity
  8
0
100
AcDbViewport
 10
0.0
 20
0.0
 30
0.0
 40
205.6
 41
156.0
 68
     1
 69
     1
 12
-22.4398625082
 22
139.3274459176
 13
0.0
 23
0.0
 14
10.0
 24
10.0
 15
10.0
 25
10.0
 16
0.0
 26
0.0
 36
1.0
 17
0.0
 27
0.0
 37
0.0
 42
50.0
 43
0.0
 44
0.0
 45
288.9532992489
 50
0.0
 51
0.0
 72
   100
 90
   557152
  1

281
     0
 71
     1
 74
     0
110
0.0
120
0.0
130
0.0
111
1.0
121
0.0
131
0.0
112
0.0
122
1.0
132
0.0
 79
     0
146
0.0
  0
ENDBLK
  5
202
330
1FF
100
AcDbEntity
  8
0
100
AcDbBlockEnd
  0
ENDSEC
  0
SECTION
  2
ENTITIES
  0
LWPOLYLINE
  5
81
330
1F
100
AcDbEntity
  8
0
  6
Continuous
 62
     7
370
    15
100
AcDbPolyline
 90
       30
 70
   128
 43
0.0
 10
10.0514313786
 20
7.4633263262
 10
10.8518695602
 20
7.5657683428
 10
11.5475331821
 20
7.7894163644
 10
12.1058937865
 20
8.123812858
 10
12.5008430522
 20
8.5533218153
 10
12.7139135904
 20
9.0578598749
 10
12.7351424595
 20
9.6138353977
 10
12.5635370213
 20
10.1952515863
 10
12.2071213553
 20
10.7749220659
 10
11.6825610619
 20
11.3257420891
 10
11.0143839975
 20
11.8219559238
 10
10.2338333789
 20
12.2403611626
 10
9.3774068855
 20
12.5613936417
 10
8.4851500684
 20
12.7700422389
 10
7.5987838646
 20
12.856550778
 10
6.7597537726
 20
12.8168742156
 10
6.0072919072
 20
12.6528677838
 10
5.3765825488
 20
12.372200241
 10
4.8971169659
 20
11.9879952897
 10
4.5913144365
 20
11.5182179262
 10
4.4734739468
 20
10.9848344181
 10
4.5491055873
 20
10.4127851852
 10
4.8146729064
 20
9.8288186141
 10
5.2577582715
 20
9.2602403324
 10
5.8576435033
 20
8.7336364288
 10
6.5862786352
 20
8.2736303165
 10
7.4095934982
 20
7.90173137
 10
8.2890908043
 20
7.6353291708
 10
9.1836462371
 20
7.4868803895
 10
10.0514313786
 20
7.4633263262
  0
LWPOLYLINE
  5
82
330
1F
100
AcDbEntity
  8
0
  6
Continuous
 62
     7
370
    15
100
AcDbPolyline
 90
       30
 70
   128
 43
0.0
 10
-18.754625391
 20
61.3551461101
 10
-17.9541872094
 20
61.4575881267
 10
-17.2585235875
 20
61.6812361483
 10
-16.7001629831
 20
62.0156326419
 10
-16.3052137174
 20
62.4451415992
 10
-16.0921431792
 20
62.9496796588
 10
-16.0709143101
 20
63.5056551816
 10
-16.2425197483
 20
64.0870713702
 10
-16.5989354143
 20
64.6667418498
 10
-17.1234957077
 20
65.217561873
 10
-17.7916727721
 20
65.7137757077
 10
-18.5722233907
 20
66.1321809465
 10
-19.4286498841
 20
66.4532134256
 10
-20.3209067012
 20
66.6618620229
 10
-21.207272905
 20
66.7483705619
 10
-22.046302997
 20
66.7086939995
 10
-22.7987648624
 20
66.5446875677
 10
-23.4294742209
 20
66.2640200249
 10
-23.9089398037
 20
65.8798150736
 10
-24.2147423331
 20
65.4100377101
 10
-24.3325828228
 20
64.876654202
 10
-24.2569511823
 20
64.3046049691
 10
-23.9913838632
 20
63.720638398
 10
-23.5482984981
 20
63.1520601164
 10
-22.9484132663
 20
62.6254562127
 10
-22.2197781344
 20
62.1654501004
 10
-21.3964632714
 20
61.7935511539
 10
-20.5169659653
 20
61.5271489547
 10
-19.6224105325
 20
61.3787001734
 10
-18.754625391
 20
61.3551461101
  0
LWPOLYLINE
  5
87
330
1F
100
AcDbEntity
  8
0
  6
Continuous
 62
     7
370
    15
100
AcDbPolyline
 90
       30
 70
   128
 43
0.0
 10
-30.2721911168
 20
239.9995748373
 10
-30.1552981518
 20
240.7007030185
 10
-30.2253011918
 20
241.3604676432
 10
-30.4789269726
 20
241.9480188509
 10
-30.9043162344
 20
242.4358834001
 10
-31.4815782482
 20
242.8012492867
 10
-32.1837208838
 20
243.027032408
 10
-32.977912732
 20
243.102675396
 10
-33.8270182646
 20
243.0246412688
 10
-34.6913342505
 20
242.7965788155
 10
-35.5304462351
 20
242.4291519828
 10
-36.3051182743
 20
241.9395412411
 10
-36.9791275647
 20
241.3506402446
 10
-37.520958181
 20
240.6899853492
 10
-37.9052747257
 20
239.9884680437
 10
-38.1141069843
 20
239.2788904976
 10
-38.1376901926
 20
238.5944317682
 10
-37.9749216259
 20
237.9670963851
 10
-37.6334121615
 20
237.4262178536
 10
-37.1291304024
 20
236.9970870525
 10
-36.4856560032
 20
236.6997696613
 10
-35.7330771116
 20
236.5481679107
 10
-34.9065834802
 20
236.5493705301
 10
-34.0448210325
 20
236.7033212863
 10
-33.1880848229
 20
237.002821613
 10
-32.3764348843
 20
237.433867208
 10
-31.6478230658
 20
237.9763028581
 10
-31.0363184462
 20
238.6047648753
 10
-30.5705143018
 20
239.2898670742
 10
-30.2721911168
 20
239.9995748373
  0
LWPOLYLINE
  5
88
330
1F
100
AcDbEntity
  8
0
  6
Continuous
 62
     7
370
    15
100
AcDbPolyline
 90
       30
 70
   128
 43
0.0
 10
-34.8169051507
 20
224.557386677
 10
-34.7000121857
 20
225.2585148582
 10
-34.7700152257
 20
225.918279483
 10
-35.0236410064
 20
226.5058306906
 10
-35.4490302683
 20
226.9936952398
 10
-36.0262922821
 20
227.3590611264
 10
-36.7284349177
 20
227.5848442477
 10
-37.5226267659
 20
227.6604872357
 10
-38.3717322984
 20
227.5824531086
 10
-39.2360482844
 20
227.3543906552
 10
-40.0751602689
 20
226.9869638225
 10
-40.8498323082
 20
226.4973530809
 10
-41.5238415986
 20
225.9084520843
 10
-42.0656722148
 20
225.247797189
 10
-42.4499887596
 20
224.5462798835
 10
-42.6588210182
 20
223.8367023373
 10
-42.6824042265
 20
223.152243608
 10
-42.5196356598
 20
222.5249082249
 10
-42.1781261954
 20
221.9840296933
 10
-41.6738444363
 20
221.5548988923
 10
-41.0303700371
 20
221.2575815011
 10
-40.2777911455
 20
221.1059797504
 10
-39.451297514
 20
221.1071823698
 10
-38.5895350664
 20
221.261133126
 10
-37.7327988568
 20
221.5606334528
 10
-36.9211489182
 20
221.9916790477
 10
-36.1925370996
 20
222.5341146978
 10
-35.58103248
 20
223.162576715
 10
-35.1152283357
 20
223.8476789139
 10
-34.8169051507
 20
224.557386677
  0
LWPOLYLINE
  5
89
330
1F
100
AcDbEntity
  8
0
  6
Continuous
 62
     7
370
    15
100
AcDbPolyline
 90
       30
 70
   128
 43
0.0
 10
-39.3616191846
 20
209.1151985168
 10
-39.2447262196
 20
209.816326698
 10
-39.3147292596
 20
210.4760913227
 10
-39.5683550403
 20
211.0636425304
 10
-39.9937443021
 20
211.5515070796
 10
-40.571006316
 20
211.9168729662
 10
-41.2731489516
 20
212.1426560874
 10
-42.0673407997
 20
212.2182990755
 10
-42.9164463323
 20
212.1402649483
 10
-43.7807623183
 20
211.9122024949
 10
-44.6198743028
 20
211.5447756623
 10
-45.394546342
 20
211.0551649206
 10
-46.0685556325
 20
210.466263924
 10
-46.6103862487
 20
209.8056090287
 10
-46.9947027934
 20
209.1040917232
 10
-47.2035350521
 20
208.3945141771
 10
-47.2271182604
 20
207.7100554477
 10
-47.0643496937
 20
207.0827200646
 10
-46.7228402293
 20
206.541841533
 10
-46.2185584702
 20
206.112710732
 10
-45.575084071
 20
205.8153933408
 10
-44.8225051794
 20
205.6637915902
 10
-43.9960115479
 20
205.6649942095
 10
-43.1342491003
 20
205.8189449657
 10
-42.2775128906
 20
206.1184452925
 10
-41.465862952
 20
206.5494908874
 10
-40.7372511335
 20
207.0919265375
 10
-40.1257465139
 20
207.7203885548
 10
-39.6599423696
 20
208.4054907536
 10
-39.3616191846
 20
209.1151985168
  0
LWPOLYLINE
  5
8A
330
1F
100
AcDbEntity
  8
0
  6
Continuous
 62
     7
370
    15
100
AcDbPolyline
 90
       30
 70
   128
 43
0.0
 10
-43.9063332185
 20
193.6730103565
 10
-43.7894402534
 20
194.3741385377
 10
-43.8594432935
 20
195.0339031624
 10
-44.1130690742
 20
195.6214543701
 10
-44.538458336
 20
196.1093189193
 10
-45.1157203498
 20
196.4746848059
 10
-45.8178629855
 20
196.7004679271
 10
-46.6120548336
 20
196.7761109152
 10
-47.4611603662
 20
196.698076788
 10
-48.3254763522
 20
196.4700143347
 10
-49.1645883367
 20
196.102587502
 10
-49.9392603759
 20
195.6129767603
 10
-50.6132696663
 20
195.0240757638
 10
-51.1551002826
 20
194.3634208684
 10
-51.5394168273
 20
193.6619035629
 10
-51.748249086
 20
192.9523260168
 10
-51.7718322942
 20
192.2678672874
 10
-51.6090637276
 20
191.6405319043
 10
-51.2675542632
 20
191.0996533728
 10
-50.7632725041
 20
190.6705225717
 10
-50.1197981048
 20
190.3732051805
 10
-49.3672192132
 20
190.2216034299
 10
-48.5407255818
 20
190.2228060493
 10
-47.6789631341
 20
190.3767568055
 10
-46.8222269245
 20
190.6762571322
 10
-46.0105769859
 20
191.1073027271
 10
-45.2819651674
 20
191.6497383773
 10
-44.6704605478
 20
192.2782003945
 10
-44.2046564034
 20
192.9633025934
 10
-43.9063332185
 20
193.6730103565
  0
LWPOLYLINE
  5
8B
330
1F
100
AcDbEntity
  8
0
  6
Continuous
 62
     7
370
    15
100
AcDbPolyline
 90
       30
 70
   128
 43
0.0
 10
-25.727477083
 20
255.4417629976
 10
-25.6105841179
 20
256.1428911788
 10
-25.680587158
 20
256.8026558035
 10
-25.9342129387
 20
257.3902070112
 10
-26.3596022005
 20
257.8780715604
 10
-26.9368642143
 20
258.243437447
 10
-27.63900685
 20
258.4692205682
 10
-28.4331986981
 20
258.5448635563
 10
-29.2823042307
 20
258.4668294291
 10
-30.1466202167
 20
258.2387669758
 10
-30.9857322012
 20
257.8713401431
 10
-31.7604042404
 20
257.3817294014
 10
-32.4344135308
 20
256.7928284049
 10
-32.9762441471
 20
256.1321735095
 10
-33.3605606918
 20
255.430656204
 10
-33.5693929505
 20
254.7210786579
 10
-33.5929761587
 20
254.0366199285
 10
-33.4302075921
 20
253.4092845454
 10
-33.0886981277
 20
252.8684060138
 10
-32.5844163686
 20
252.4392752128
 10
-31.9409419693
 20
252.1419578216
 10
-31.1883630777
 20
251.990356071
 10
-30.3618694463
 20
251.9915586903
 10
-29.5001069986
 20
252.1455094465
 10
-28.643370789
 20
252.4450097733
 10
-27.8317208504
 20
252.8760553682
 10
-27.1031090319
 20
253.4184910184
 10
-26.4916044123
 20
254.0469530356
 10
-26.0258002679
 20
254.7320552344
 10
-25.727477083
 20
255.4417629976
  0
LWPOLYLINE
  5
90
330
1F
100
AcDbEntity
  8
0
  6
Continuous
 62
     7
370
    15
100
AcDbPolyline
 90
        3
 70
   128
 43
0.0
 10
-26.7441614395
 20
257.3438272253
 10
-26.6272684745
 20
258.0449554064
 10
-26.6264234301
 20
258.0745140466
  0
LWPOLYLINE
  5
92
330
1F
100
AcDbEntity
  8
0
  6
Continuous
 62
     7
370
    15
100
AcDbPolyline
 90
        3
 70
   128
 43
0.0
 10
-31.2888754734
 20
241.901639065
 10
-31.1719825084
 20
242.6027672462
 10
-31.1711374639
 20
242.6323258864
  0
LWPOLYLINE
  5
94
330
1F
100
AcDbEntity
  8
0
  6
Continuous
 62
     7
370
    15
100
AcDbPolyline
 90
        3
 70
   128
 43
0.0
 10
-35.8335895073
 20
226.4594509047
 10
-35.7166965423
 20
227.1605790859
 10
-35.7158514978
 20
227.1901377261
  0
LWPOLYLINE
  5
96
330
1F
100
AcDbEntity
  8
0
  6
Continuous
 62
     7
370
    15
100
AcDbPolyline
 90
        3
 70
   128
 43
0.0
 10
-40.3783035412
 20
211.0172627444
 10
-40.2614105761
 20
211.7183909256
 10
-40.2605655317
 20
211.7479495658
  0
LWPOLYLINE
  5
98
330
1F
100
AcDbEntity
  8
0
  6
Continuous
 62
     7
370
    15
100
AcDbPolyline
 90
        3
 70
   128
 43
0.0
 10
-44.923017575
 20
195.5750745842
 10
-44.80612461
 20
196.2762027654
 10
-44.8052795656
 20
196.3057614056
  0
LWPOLYLINE
  5
9C
330
1F
100
AcDbEntity
  8
0
  6
Continuous
 62
     7
370
    15
100
AcDbPolyline
 90
       30
 70
   128
 43
0.0
 10
-52.046633184
 20
153.5703433711
 10
-51.2461950024
 20
153.6727853876
 10
-50.5505313805
 20
153.8964334092
 10
-49.9921707761
 20
154.2308299028
 10
-49.5972215104
 20
154.6603388602
 10
-49.3841509722
 20
155.1648769197
 10
-49.3629221031
 20
155.7208524425
 10
-49.5345275413
 20
156.3022686311
 10
-49.8909432073
 20
156.8819391107
 10
-50.4155035007
 20
157.4327591339
 10
-51.0836805651
 20
157.9289729686
 10
-51.8642311838
 20
158.3473782075
 10
-52.7206576771
 20
158.6684106865
 10
-53.6129144943
 20
158.8770592838
 10
-54.4992806981
 20
158.9635678228
 10
-55.33831079
 20
158.9238912604
 10
-56.0907726554
 20
158.7598848286
 10
-56.7214820139
 20
158.4792172859
 10
-57.2009475967
 20
158.0950123345
 10
-57.5067501262
 20
157.625234971
 10
-57.6245906158
 20
157.0918514629
 10
-57.5489589754
 20
156.5198022301
 10
-57.2833916563
 20
155.9358356589
 10
-56.8403062912
 20
155.3672573773
 10
-56.2404210593
 20
154.8406534737
 10
-55.5117859274
 20
154.3806473613
 10
-54.6884710644
 20
154.0087484148
 10
-53.8089737583
 20
153.7423462156
 10
-52.9144183256
 20
153.5938974343
 10
-52.046633184
 20
153.5703433711
  0
LINE
  5
9F
330
1F
100
AcDbEntity
  8
0
  6
Continuous
 62
     7
370
    15
100
AcDbLine
 10
-36.4850789467
 20
277.7739634774
 30
0.0
 11
-37.5017633033
 21
279.6760277051
 31
0.0
  0
LINE
  5
A0
330
1F
100
AcDbEntity
  8
0
  6
Continuous
 62
     7
370
    15
100
AcDbLine
 10
-70.5704342007
 20
161.9575522754
 30
0.0
 11
-36.4850789467
 21
277.7739634774
 31
0.0
  0
LINE
  5
A1
330
1F
100
AcDbEntity
  8
0
  6
Continuous
 62
     7
370
    15
100
AcDbLine
 10
-62.0980645626
 20
146.1070170448
 30
0.0
 11
-70.5704342007
 21
161.9575522754
 31
0.0
  0
LINE
  5
A2
330
1F
100
AcDbEntity
  8
0
  6
Continuous
 62
     7
370
    15
100
AcDbLine
 10
-67.778957105
 20
126.8042818445
 30
0.0
 11
-62.0980645626
 21
146.1070170448
 31
0.0
  0
LINE
  5
A3
330
1F
100
AcDbEntity
  8
0
  6
Continuous
 62
     7
370
    15
100
AcDbLine
 10
0.0
 20
0.0
 30
0.0
 11
-67.778957105
 21
126.8042818445
 31
0.0
  0
LINE
  5
A4
330
1F
100
AcDbEntity
  8
0
  6
Continuous
 62
     7
370
    15
100
AcDbLine
 10
-0.6817071051
 20
-2.316328224
 30
0.0
 11
0.0
 21
0.0
 31
0.0
  0
LINE
  5
A5
330
1F
100
AcDbEntity
  8
0
  6
Continuous
 62
     7
370
    15
100
AcDbLine
 10
-0.6817071051
 20
-2.316328224
 30
0.0
 11
-69.4773485666
 21
126.3900178481
 31
0.0
  0
LINE
  5
A6
330
1F
100
AcDbEntity
  8
0
  6
Continuous
 62
     7
370
    15
100
AcDbLine
 10
-69.4773485666
 20
126.3900178481
 30
0.0
 11
-63.7964560243
 21
145.6927530485
 31
0.0
  0
LINE
  5
A7
330
1F
100
AcDbEntity
  8
0
  6
Continuous
 62
     7
370
    15
100
AcDbLine
 10
-63.7964560243
 20
145.6927530485
 30
0.0
 11
-72.2688256624
 21
161.543288279
 31
0.0
  0
LINE
  5
A8
330
1F
100
AcDbEntity
  8
0
  6
Continuous
 62
     7
370
    15
100
AcDbLine
 10
-72.2688256624
 20
161.543288279
 30
0.0
 11
-37.5017633033
 21
279.6760277051
 31
0.0
  0
LINE
  5
A9
330
1F
100
AcDbEntity
  8
0
  6
Continuous
 62
     7
370
    15
100
AcDbLine
 10
27.389100646
 20
1.2951923542
 30
0.0
 11
0.0
 21
0.0
 31
0.0
  0
LINE
  5
AA
330
1F
100
AcDbEntity
  8
0
  6
Continuous
 62
     7
370
    15
100
AcDbLine
 10
26.7073935409
 20
-1.0211358699
 30
0.0
 11
-0.6817071051
 21
-2.316328224
 31
0.0
  0
LINE
  5
AB
330
1F
100
AcDbEntity
  8
0
  6
Continuous
 62
     7
370
    15
100
AcDbLine
 10
26.7073935409
 20
-1.0211358699
 30
0.0
 11
27.389100646
 21
1.2951923542
 31
0.0
  0
LINE
  5
AC
330
1F
100
AcDbEntity
  8
0
  6
Continuous
 62
     7
370
    15
100
AcDbLine
 10
-40.3898564589
 20
128.0994741987
 30
0.0
 11
-67.778957105
 21
126.8042818445
 31
0.0
  0
LINE
  5
AD
330
1F
100
AcDbEntity
  8
0
  6
Continuous
 62
     7
370
    15
100
AcDbLine
 10
27.389100646
 20
1.2951923542
 30
0.0
 11
-40.3898564589
 21
128.0994741987
 31
0.0
  0
LINE
  5
AE
330
1F
100
AcDbEntity
  8
0
  6
Continuous
 62
     7
370
    15
100
AcDbLine
 10
-9.0959783007
 20
279.0691558316
 30
0.0
 11
-36.4850789467
 21
277.7739634774
 31
0.0
  0
LINE
  5
AF
330
1F
100
AcDbEntity
  8
0
  6
Continuous
 62
     7
370
    15
100
AcDbLine
 10
-43.1813335547
 20
163.2527446296
 30
0.0
 11
-70.5704342007
 21
161.9575522754
 31
0.0
  0
LINE
  5
B0
330
1F
100
AcDbEntity
  8
0
  6
Continuous
 62
     7
370
    15
100
AcDbLine
 10
-43.1813335547
 20
163.2527446296
 30
0.0
 11
-9.0959783007
 21
279.0691558316
 31
0.0
  0
LINE
  5
B1
330
1F
100
AcDbEntity
  8
0
  6
Continuous
 62
     7
370
    15
100
AcDbLine
 10
-10.1126626572
 20
280.9712200592
 30
0.0
 11
-37.5017633033
 21
279.6760277051
 31
0.0
  0
LINE
  5
B2
330
1F
100
AcDbEntity
  8
0
  6
Continuous
 62
     7
370
    15
100
AcDbLine
 10
-9.0959783007
 20
279.0691558316
 30
0.0
 11
-10.1126626572
 21
280.9712200592
 31
0.0
  0
LINE
  5
B3
330
1F
100
AcDbEntity
  8
0
  6
Continuous
 62
     7
370
    15
100
AcDbLine
 10
-34.7089639166
 20
147.402209399
 30
0.0
 11
-62.0980645626
 21
146.1070170448
 31
0.0
  0
LINE
  5
B4
330
1F
100
AcDbEntity
  8
0
  6
Continuous
 62
     7
370
    15
100
AcDbLine
 10
-40.3898564589
 20
128.0994741987
 30
0.0
 11
-34.7089639166
 21
147.402209399
 31
0.0
  0
LINE
  5
B5
330
1F
100
AcDbEntity
  8
0
  6
Continuous
 62
     7
370
    15
100
AcDbLine
 10
-34.7089639166
 20
147.402209399
 30
0.0
 11
-43.1813335547
 21
163.2527446296
 31
0.0
  0
ARC
  5
B6
330
1F
100
AcDbEntity
  8
0
  6
Continuous
 62
     7
370
    15
100
AcDbCircle
 10
7.0617886673
 20
4.8935161535
 30
0.0
 40
5.67854785171065
100
AcDbArc
 50
32.5194689566
 51
114.6816858457
  0
ARC
  5
B7
330
1F
100
AcDbEntity
  8
0
  6
Continuous
 62
     7
370
    15
100
AcDbCircle
 10
-21.7442681023
 20
58.7853359374
 30
0.0
 40
5.678547851710795
100
AcDbArc
 50
32.5194689566
 51
114.6816858457
  0
ARC
  5
B8
330
1F
100
AcDbEntity
  8
0
  6
Continuous
 62
     7
370
    15
100
AcDbCircle
 10
-31.5528106609
 20
258.9958807832
 30
0.0
 40
5.084524391911241
100
AcDbArc
 50
246.1899779199
 51
341.0393921473
  0
ARC
  5
B9
330
1F
100
AcDbEntity
  8
0
  6
Continuous
 62
     7
370
    15
100
AcDbCircle
 10
-36.0975246947
 20
243.5536926229
 30
0.0
 40
5.084524391913405
100
AcDbArc
 50
246.18997792
 51
341.0393921473
  0
ARC
  5
BA
330
1F
100
AcDbEntity
  8
0
  6
Continuous
 62
     7
370
    15
100
AcDbCircle
 10
-40.6422387286
 20
228.1115044626
 30
0.0
 40
5.084524391913424
100
AcDbArc
 50
246.18997792
 51
341.0393921473
  0
ARC
  5
BB
330
1F
100
AcDbEntity
  8
0
  6
Continuous
 62
     7
370
    15
100
AcDbCircle
 10
-45.1869527625
 20
212.6693163024
 30
0.0
 40
5.084524391913278
100
AcDbArc
 50
246.18997792
 51
341.0393921473
  0
ARC
  5
BC
330
1F
100
AcDbEntity
  8
0
  6
Continuous
 62
     7
370
    15
100
AcDbCircle
 10
-49.7316667964
 20
197.2271281421
 30
0.0
 40
5.084524391914018
100
AcDbArc
 50
246.18997792
 51
341.0393921473
  0
ARC
  5
BD
330
1F
100
AcDbEntity
  8
0
  6
Continuous
 62
     7
370
    15
100
AcDbCircle
 10
-55.0362758953
 20
151.0005331983
 30
0.0
 40
5.678547851709893
100
AcDbArc
 50
32.5194689566
 51
114.6816858457
  0
CIRCLE
  5
C5
330
1B
100
AcDbEntity
 67
     1
  8
0
  6
Continuous
 62
     7
370
    15
100
AcDbCircle
 10
15.0
 20
125.0
 30
0.0
 40
4.250000000000007
  0
CIRCLE
  5
C6
330
1B
100
AcDbEntity
 67
     1
  8
0
  6
Continuous
 62
     7
370
    15
100
AcDbCircle
 10
15.0
 20
85.0
 30
0.0
 40
4.250000000000007
  0
CIRCLE
  5
C7
330
1B
100
AcDbEntity
 67
     1
  8
0
  6
Continuous
 62
     7
370
    15
100
AcDbCircle
 10
15.0
 20
65.0
 30
0.0
 40
4.25
  0
CIRCLE
  5
C8
330
1B
100
AcDbEntity
 67
     1
  8
0
  6
Continuous
 62
     7
370
    15
100
AcDbCircle
 10
15.0
 20
145.0
 30
0.0
 40
4.250000000000005
  0
CIRCLE
  5
CA
330
1B
100
AcDbEntity
 67
     1
  8
0
  6
Continuous
 62
     7
370
    15
100
AcDbCircle
 10
15.0
 20
105.0
 30
0.0
 40
4.249999999999998
  0
LINE
  5
CD
330
1B
100
AcDbEntity
 67
     1
  8
0
  6
Continuous
 62
     7
370
    15
100
AcDbLine
 10
30.0
 20
0.0
 30
0.0
 11
0.0
 21
0.0
 31
0.0
  0
LINE
  5
CE
330
1B
100
AcDbEntity
 67
     1
  8
0
  6
Continuous
 62
     7
370
    15
100
AcDbLine
 10
30.0
 20
-3.0
 30
0.0
 11
0.0
 21
-3.0
 31
0.0
  0
LINE
  5
CF
330
1B
100
AcDbEntity
 67
     1
  8
0
  6
Continuous
 62
     7
370
    15
100
AcDbLine
 10
0.0
 20
-3.0
 30
0.0
 11
0.0
 21
175.0
 31
0.0
  0
LINE
  5
D0
330
1B
100
AcDbEntity
 67
     1
  8
0
  6
Continuous
 62
     7
370
    15
100
AcDbLine
 10
30.0
 20
-3.0
 30
0.0
 11
30.0
 21
175.0
 31
0.0
  0
LINE
  5
D1
330
1B
100
AcDbEntity
 67
     1
  8
0
  6
Continuous
 62
     7
370
    15
100
AcDbLine
 10
30.0
 20
25.0
 30
0.0
 11
0.0
 21
25.0
 31
0.0
  0
LINE
  5
D2
330
1B
100
AcDbEntity
 67
     1
  8
0
  6
Continuous
 62
     7
370
    15
100
AcDbLine
 10
30.0
 20
175.0
 30
0.0
 11
0.0
 21
175.0
 31
0.0
  0
VIEWPORT
  5
246
330
1B
100
AcDbEntity
 67
     1
  8
0
100
AcDbViewport
 10
0.0
 20
0.0
 30
0.0
 40
205.6
 41
156.0
 68
     1
 69
     1
 12
-22.4398625082
 22
139.3274459176
 13
0.0
 23
0.0
 14
10.0
 24
10.0
 15
10.0
 25
10.0
 16
0.0
 26
0.0
 36
1.0
 17
0.0
 27
0.0
 37
0.0
 42
50.0
 43
0.0
 44
0.0
 45
288.9532992489
 50
0.0
 51
0.0
 72
   100
 90
   557152
  1

281
     0
 71
     1
 74
     0
110
0.0
120
0.0
130
0.0
111
1.0
121
0.0
131
0.0
112
0.0
122
1.0
132
0.0
 79
     0
146
0.0
  0
ENDSEC
  0
SECTION
  2
OBJECTS
  0
DICTIONARY
  5
C
330
0
100
AcDbDictionary
281
     1
  3
ACAD_GROUP
350
D
  3
ACAD_LAYOUT
350
1A
  3
ACAD_MLINESTYLE
350
17
  3
ACAD_PLOTSETTINGS
350
19
  3
ACAD_PLOTSTYLENAME
350
E
  3
ACAD_SCALELIST
350
47
  0
DICTIONARY
  5
D
102
{ACAD_REACTORS
330
C
102
}
330
C
100
AcDbDictionary
281
     1
  0
DICTIONARY
  5
1A
102
{ACAD_REACTORS
330
C
102
}
330
C
100
AcDbDictionary
281
     1
  3
_Arrière
350
131
  3
_Dessous
350
15E
  3
_Dessus
350
E8
  3
_Dimétrique
350
200
  3
_Droite
350
26
  3
_Face
350
FF
  3
_Gauche
350
146
  3
_Isométrique
350
171
  3
_Normal à
350
118
  3
_Trimétrique
350
1BB
  3
Model
350
22
  3
Zone des notes
350
1E
  0
DICTIONARY
  5
17
102
{ACAD_REACTORS
330
C
102
}
330
C
100
AcDbDictionary
281
     1
  3
Standard
350
18
  0
DICTIONARY
  5
19
102
{ACAD_REACTORS
330
C
102
}
330
C
100
AcDbDictionary
281
     1
  0
ACDBDICTIONARYWDFLT
  5
E
102
{ACAD_REACTORS
330
C
102
}
330
C
100
AcDbDictionary
281
     1
  3
Normal
350
F
100
AcDbDictionaryWithDefault
340
F
  0
DICTIONARY
  5
47
102
{ACAD_REACTORS
330
C
102
}
330
C
100
AcDbDictionary
281
     1
  3
A0
350
48
  3
A1
350
49
  3
A2
350
4A
  3
A3
350
4B
  3
A4
350
4C
  3
A5
350
4D
  3
A6
350
4E
  3
A7
350
4F
  3
A8
350
50
  3
A9
350
51
  3
B0
350
52
  3
B1
350
53
  3
B2
350
54
  3
B3
350
55
  3
B4
350
56
  3
B5
350
57
  3
B6
350
58
  3
B7
350
59
  3
B8
350
5A
  3
B9
350
5B
  3
C0
350
5C
  3
C1
350
5D
  3
C2
350
5E
  3
C3
350
5F
  3
C4
350
60
  3
C5
350
61
  3
C6
350
62
  3
C7
350
63
  3
C8
350
64
  3
C9
350
65
  3
D0
350
66
  3
D1
350
67
  3
D2
350
68
  0
LAYOUT
  5
131
102
{ACAD_REACTORS
330
1A
102
}
330
1A
100
AcDbPlotSettings
  1

  2
none_device
  4
ISO_A4_(210.00_x_297.00_MM)
  6

 40
7.5
 41
20.0
 42
7.5
 43
20.0
 44
210.0
 45
297.0
 46
0.0
 47
0.0
 48
0.0
 49
0.0
140
0.0
141
0.0
142
1.0
143
0.9128205128
 70
   688
 72
     1
 73
     1
 74
     1
  7

 75
     0
147
1.095505618
148
0.0
149
3.0
100
AcDbLayout
  1
_Arrière
 70
     1
 71
     6
 10
0.0
 20
0.0
 11
0.0
 21
0.0
 12
0.0
 22
0.0
 32
0.0
 14
0.0
 24
0.0
 34
0.0
 15
0.0
 25
0.0
 35
0.0
146
0.0
 13
0.0
 23
0.0
 33
0.0
 16
1.0
 26
0.0
 36
0.0
 17
0.0
 27
1.0
 37
0.0
 76
     0
330
130
331
250
  0
LAYOUT
  5
15E
102
{ACAD_REACTORS
330
1A
102
}
330
1A
100
AcDbPlotSettings
  1

  2
none_device
  4
ISO_A4_(210.00_x_297.00_MM)
  6

 40
7.5
 41
20.0
 42
7.5
 43
20.0
 44
210.0
 45
297.0
 46
0.0
 47
0.0
 48
0.0
 49
0.0
140
0.0
141
0.0
142
1.0
143
0.9128205128
 70
   688
 72
     1
 73
     1
 74
     1
  7

 75
     0
147
1.095505618
148
0.0
149
3.0
100
AcDbLayout
  1
_Dessous
 70
     1
 71
     8
 10
0.0
 20
0.0
 11
0.0
 21
0.0
 12
0.0
 22
0.0
 32
0.0
 14
0.0
 24
0.0
 34
0.0
 15
0.0
 25
0.0
 35
0.0
146
0.0
 13
0.0
 23
0.0
 33
0.0
 16
1.0
 26
0.0
 36
0.0
 17
0.0
 27
1.0
 37
0.0
 76
     0
330
15D
331
254
  0
LAYOUT
  5
E8
102
{ACAD_REACTORS
330
1A
102
}
330
1A
100
AcDbPlotSettings
  1

  2
none_device
  4
ISO_A4_(210.00_x_297.00_MM)
  6

 40
7.5
 41
20.0
 42
7.5
 43
20.0
 44
210.0
 45
297.0
 46
0.0
 47
0.0
 48
0.0
 49
0.0
140
0.0
141
0.0
142
1.0
143
0.9128205128
 70
   688
 72
     1
 73
     1
 74
     1
  7

 75
     0
147
1.095505618
148
0.0
149
3.0
100
AcDbLayout
  1
_Dessus
 70
     1
 71
     3
 10
0.0
 20
0.0
 11
0.0
 21
0.0
 12
0.0
 22
0.0
 32
0.0
 14
0.0
 24
0.0
 34
0.0
 15
0.0
 25
0.0
 35
0.0
146
0.0
 13
0.0
 23
0.0
 33
0.0
 16
1.0
 26
0.0
 36
0.0
 17
0.0
 27
1.0
 37
0.0
 76
     0
330
E7
331
24A
  0
LAYOUT
  5
200
102
{ACAD_REACTORS
330
1A
102
}
330
1A
100
AcDbPlotSettings
  1

  2
none_device
  4
ISO_A4_(210.00_x_297.00_MM)
  6

 40
7.5
 41
20.0
 42
7.5
 43
20.0
 44
210.0
 45
297.0
 46
0.0
 47
0.0
 48
0.0
 49
0.0
140
0.0
141
0.0
142
1.0
143
0.9128205128
 70
   688
 72
     1
 73
     1
 74
     1
  7

 75
     0
147
1.095505618
148
0.0
149
3.0
100
AcDbLayout
  1
_Dimétrique
 70
     1
 71
    11
 10
0.0
 20
0.0
 11
0.0
 21
0.0
 12
0.0
 22
0.0
 32
0.0
 14
0.0
 24
0.0
 34
0.0
 15
0.0
 25
0.0
 35
0.0
146
0.0
 13
0.0
 23
0.0
 33
0.0
 16
1.0
 26
0.0
 36
0.0
 17
0.0
 27
1.0
 37
0.0
 76
     0
330
1FF
331
25A
  0
LAYOUT
  5
26
102
{ACAD_REACTORS
330
1A
102
}
330
1A
100
AcDbPlotSettings
  1

  2
none_device
  4
ISO_A4_(210.00_x_297.00_MM)
  6

 40
7.5
 41
20.0
 42
7.5
 43
20.0
 44
210.0
 45
297.0
 46
0.0
 47
0.0
 48
0.0
 49
0.0
140
0.0
141
0.0
142
1.0
143
0.9128205128
 70
   688
 72
     1
 73
     1
 74
     1
  7

 75
     0
147
1.095505618
148
0.0
149
3.0
100
AcDbLayout
  1
_Droite
 70
     1
 71
     2
 10
0.0
 20
0.0
 11
0.0
 21
0.0
 12
0.0
 22
0.0
 32
0.0
 14
0.0
 24
0.0
 34
0.0
 15
0.0
 25
0.0
 35
0.0
146
0.0
 13
0.0
 23
0.0
 33
0.0
 16
1.0
 26
0.0
 36
0.0
 17
0.0
 27
1.0
 37
0.0
 76
     0
330
23
331
248
  0
LAYOUT
  5
FF
102
{ACAD_REACTORS
330
1A
102
}
330
1A
100
AcDbPlotSettings
  1

  2
none_device
  4
ISO_A4_(210.00_x_297.00_MM)
  6

 40
7.5
 41
20.0
 42
7.5
 43
20.0
 44
210.0
 45
297.0
 46
0.0
 47
0.0
 48
0.0
 49
0.0
140
0.0
141
0.0
142
1.0
143
0.9128205128
 70
   688
 72
     1
 73
     1
 74
     1
  7

 75
     0
147
1.095505618
148
0.0
149
3.0
100
AcDbLayout
  1
_Face
 70
     1
 71
     4
 10
0.0
 20
0.0
 11
0.0
 21
0.0
 12
0.0
 22
0.0
 32
0.0
 14
0.0
 24
0.0
 34
0.0
 15
0.0
 25
0.0
 35
0.0
146
0.0
 13
0.0
 23
0.0
 33
0.0
 16
1.0
 26
0.0
 36
0.0
 17
0.0
 27
1.0
 37
0.0
 76
     0
330
FE
331
24C
  0
LAYOUT
  5
146
102
{ACAD_REACTORS
330
1A
102
}
330
1A
100
AcDbPlotSettings
  1

  2
none_device
  4
ISO_A4_(210.00_x_297.00_MM)
  6

 40
7.5
 41
20.0
 42
7.5
 43
20.0
 44
210.0
 45
297.0
 46
0.0
 47
0.0
 48
0.0
 49
0.0
140
0.0
141
0.0
142
1.0
143
0.9128205128
 70
   688
 72
     1
 73
     1
 74
     1
  7

 75
     0
147
1.095505618
148
0.0
149
3.0
100
AcDbLayout
  1
_Gauche
 70
     1
 71
     7
 10
0.0
 20
0.0
 11
0.0
 21
0.0
 12
0.0
 22
0.0
 32
0.0
 14
0.0
 24
0.0
 34
0.0
 15
0.0
 25
0.0
 35
0.0
146
0.0
 13
0.0
 23
0.0
 33
0.0
 16
1.0
 26
0.0
 36
0.0
 17
0.0
 27
1.0
 37
0.0
 76
     0
330
145
331
252
  0
LAYOUT
  5
171
102
{ACAD_REACTORS
330
1A
102
}
330
1A
100
AcDbPlotSettings
  1

  2
none_device
  4
ISO_A4_(210.00_x_297.00_MM)
  6

 40
7.5
 41
20.0
 42
7.5
 43
20.0
 44
210.0
 45
297.0
 46
0.0
 47
0.0
 48
0.0
 49
0.0
140
0.0
141
0.0
142
1.0
143
0.9128205128
 70
   688
 72
     1
 73
     1
 74
     1
  7

 75
     0
147
1.095505618
148
0.0
149
3.0
100
AcDbLayout
  1
_Isométrique
 70
     1
 71
     9
 10
0.0
 20
0.0
 11
0.0
 21
0.0
 12
0.0
 22
0.0
 32
0.0
 14
0.0
 24
0.0
 34
0.0
 15
0.0
 25
0.0
 35
0.0
146
0.0
 13
0.0
 23
0.0
 33
0.0
 16
1.0
 26
0.0
 36
0.0
 17
0.0
 27
1.0
 37
0.0
 76
     0
330
170
331
256
  0
LAYOUT
  5
118
102
{ACAD_REACTORS
330
1A
102
}
330
1A
100
AcDbPlotSettings
  1

  2
none_device
  4
ISO_A4_(210.00_x_297.00_MM)
  6

 40
7.5
 41
20.0
 42
7.5
 43
20.0
 44
210.0
 45
297.0
 46
0.0
 47
0.0
 48
0.0
 49
0.0
140
0.0
141
0.0
142
1.0
143
0.9128205128
 70
   688
 72
     1
 73
     1
 74
     1
  7

 75
     0
147
1.095505618
148
0.0
149
3.0
100
AcDbLayout
  1
_Normal à
 70
     1
 71
     5
 10
0.0
 20
0.0
 11
0.0
 21
0.0
 12
0.0
 22
0.0
 32
0.0
 14
0.0
 24
0.0
 34
0.0
 15
0.0
 25
0.0
 35
0.0
146
0.0
 13
0.0
 23
0.0
 33
0.0
 16
1.0
 26
0.0
 36
0.0
 17
0.0
 27
1.0
 37
0.0
 76
     0
330
117
331
24E
  0
LAYOUT
  5
1BB
102
{ACAD_REACTORS
330
1A
102
}
330
1A
100
AcDbPlotSettings
  1

  2
none_device
  4
ISO_A4_(210.00_x_297.00_MM)
  6

 40
7.5
 41
20.0
 42
7.5
 43
20.0
 44
210.0
 45
297.0
 46
0.0
 47
0.0
 48
0.0
 49
0.0
140
0.0
141
0.0
142
1.0
143
0.9128205128
 70
   688
 72
     1
 73
     1
 74
     1
  7

 75
     0
147
1.095505618
148
0.0
149
3.0
100
AcDbLayout
  1
_Trimétrique
 70
     1
 71
    10
 10
0.0
 20
0.0
 11
0.0
 21
0.0
 12
0.0
 22
0.0
 32
0.0
 14
0.0
 24
0.0
 34
0.0
 15
0.0
 25
0.0
 35
0.0
146
0.0
 13
0.0
 23
0.0
 33
0.0
 16
1.0
 26
0.0
 36
0.0
 17
0.0
 27
1.0
 37
0.0
 76
     0
330
1BA
331
258
  0
LAYOUT
  5
22
102
{ACAD_REACTORS
330
1A
102
}
330
1A
100
AcDbPlotSettings
  1

  2
none_device
  4
ANSI_A_(11.00_x_8.50_Inches)
  6

 40
6.35
 41
19.05
 42
6.35000508
 43
19.05000254
 44
279.4
 45
215.9
 46
150.2809168789
 47
-16.2228271702
 48
0.0
 49
0.0
140
0.0
141
0.0
142
0.0297048001
143
1.0
 70
  1696
 72
     0
 73
     0
 74
     0
  7

 75
     0
147
0.0179189148
148
-1300.4909072572
149
0.0
100
AcDbLayout
  1
Model
 70
     1
 71
     0
 10
0.0
 20
0.0
 11
420.0
 21
297.0
 12
0.0
 22
0.0
 32
0.0
 14
-72.2688256624
 24
-2.316328224
 34
0.0
 15
27.389100646
 25
280.9712200592
 35
0.0
146
0.0
 13
0.0
 23
0.0
 33
0.0
 16
1.0
 26
0.0
 36
0.0
 17
0.0
 27
1.0
 37
0.0
 76
     0
330
1F
331
29
  0
LAYOUT
  5
1E
102
{ACAD_REACTORS
330
1A
102
}
330
1A
100
AcDbPlotSettings
  1

  2
none_device
  4
ISO_A4_(210.00_x_297.00_MM)
  6

 40
7.5
 41
20.0
 42
7.5
 43
20.0
 44
210.0
 45
297.0
 46
0.0
 47
0.0
 48
0.0
 49
0.0
140
0.0
141
0.0
142
1.0
143
0.9128205128
 70
   688
 72
     1
 73
     1
 74
     1
  7

 75
     0
147
1.095505618
148
0.0
149
3.0
100
AcDbLayout
  1
Zone des notes
 70
     1
 71
     1
 10
-18.2564102564
 20
-9.8461538462
 11
252.8512820513
 21
181.8461538462
 12
0.0
 22
0.0
 32
0.0
 14
0.0
 24
-3.0
 34
0.0
 15
30.0
 25
175.0
 35
0.0
146
0.0
 13
0.0
 23
0.0
 33
0.0
 16
1.0
 26
0.0
 36
0.0
 17
0.0
 27
1.0
 37
0.0
 76
     0
330
1B
331
246
  0
MLINESTYLE
  5
18
102
{ACAD_REACTORS
330
17
102
}
330
17
100
AcDbMlineStyle
  2
Standard
 70
     0
  3

 62
   256
 51
90.0
 52
90.0
 71
     2
 49
0.5
 62
   256
  6
BYLAYER
 49
-0.5
 62
   256
  6
BYLAYER
  0
ACDBPLACEHOLDER
  5
F
102
{ACAD_REACTORS
330
E
102
}
330
E
  0
SCALE
  5
48
102
{ACAD_REACTORS
330
47
102
}
330
47
100
AcDbScale
 70
     0
300
1:1
140
1.0
141
1.0
290
     1
  0
SCALE
  5
49
102
{ACAD_REACTORS
330
47
102
}
330
47
100
AcDbScale
 70
     0
300
1:2
140
1.0
141
2.0
290
     0
  0
SCALE
  5
4A
102
{ACAD_REACTORS
330
47
102
}
330
47
100
AcDbScale
 70
     0
300
1:4
140
1.0
141
4.0
290
     0
  0
SCALE
  5
4B
102
{ACAD_REACTORS
330
47
102
}
330
47
100
AcDbScale
 70
     0
300
1:5
140
1.0
141
5.0
290
     0
  0
SCALE
  5
4C
102
{ACAD_REACTORS
330
47
102
}
330
47
100
AcDbScale
 70
     0
300
1:8
140
1.0
141
8.0
290
     0
  0
SCALE
  5
4D
102
{ACAD_REACTORS
330
47
102
}
330
47
100
AcDbScale
 70
     0
300
1:10
140
1.0
141
10.0
290
     0
  0
SCALE
  5
4E
102
{ACAD_REACTORS
330
47
102
}
330
47
100
AcDbScale
 70
     0
300
1:16
140
1.0
141
16.0
290
     0
  0
SCALE
  5
4F
102
{ACAD_REACTORS
330
47
102
}
330
47
100
AcDbScale
 70
     0
300
1:20
140
1.0
141
20.0
290
     0
  0
SCALE
  5
50
102
{ACAD_REACTORS
330
47
102
}
330
47
100
AcDbScale
 70
     0
300
1:30
140
1.0
141
30.0
290
     0
  0
SCALE
  5
51
102
{ACAD_REACTORS
330
47
102
}
330
47
100
AcDbScale
 70
     0
300
1:40
140
1.0
141
40.0
290
     0
  0
SCALE
  5
52
102
{ACAD_REACTORS
330
47
102
}
330
47
100
AcDbScale
 70
     0
300
1:50
140
1.0
141
50.0
290
     0
  0
SCALE
  5
53
102
{ACAD_REACTORS
330
47
102
}
330
47
100
AcDbScale
 70
     0
300
1:100
140
1.0
141
100.0
290
     0
  0
SCALE
  5
54
102
{ACAD_REACTORS
330
47
102
}
330
47
100
AcDbScale
 70
     0
300
2:1
140
2.0
141
1.0
290
     0
  0
SCALE
  5
55
102
{ACAD_REACTORS
330
47
102
}
330
47
100
AcDbScale
 70
     0
300
4:1
140
4.0
141
1.0
290
     0
  0
SCALE
  5
56
102
{ACAD_REACTORS
330
47
102
}
330
47
100
AcDbScale
 70
     0
300
8:1
140
8.0
141
1.0
290
     0
  0
SCALE
  5
57
102
{ACAD_REACTORS
330
47
102
}
330
47
100
AcDbScale
 70
     0
300
10:1
140
10.0
141
1.0
290
     0
  0
SCALE
  5
58
102
{ACAD_REACTORS
330
47
102
}
330
47
100
AcDbScale
 70
     0
300
100:1
140
100.0
141
1.0
290
     0
  0
SCALE
  5
59
102
{ACAD_REACTORS
330
47
102
}
330
47
100
AcDbScale
 70
     0
300
1/128" = 1'-0"
140
0.0078125
141
12.0
290
     0
  0
SCALE
  5
5A
102
{ACAD_REACTORS
330
47
102
}
330
47
100
AcDbScale
 70
     0
300
1/64" = 1'-0"
140
0.015625
141
12.0
290
     0
  0
SCALE
  5
5B
102
{ACAD_REACTORS
330
47
102
}
330
47
100
AcDbScale
 70
     0
300
1/32" = 1'-0"
140
0.03125
141
12.0
290
     0
  0
SCALE
  5
5C
102
{ACAD_REACTORS
330
47
102
}
330
47
100
AcDbScale
 70
     0
300
1/16" = 1'-0"
140
0.0625
141
12.0
290
     0
  0
SCALE
  5
5D
102
{ACAD_REACTORS
330
47
102
}
330
47
100
AcDbScale
 70
     0
300
3/32" = 1'-0"
140
0.09375
141
12.0
290
     0
  0
SCALE
  5
5E
102
{ACAD_REACTORS
330
47
102
}
330
47
100
AcDbScale
 70
     0
300
1/8" = 1'-0"
140
0.125
141
12.0
290
     0
  0
SCALE
  5
5F
102
{ACAD_REACTORS
330
47
102
}
330
47
100
AcDbScale
 70
     0
300
3/16" = 1'-0"
140
0.1875
141
12.0
290
     0
  0
SCALE
  5
60
102
{ACAD_REACTORS
330
47
102
}
330
47
100
AcDbScale
 70
     0
300
1/4" = 1'-0"
140
0.25
141
12.0
290
     0
  0
SCALE
  5
61
102
{ACAD_REACTORS
330
47
102
}
330
47
100
AcDbScale
 70
     0
300
3/8" = 1'-0"
140
0.375
141
12.0
290
     0
  0
SCALE
  5
62
102
{ACAD_REACTORS
330
47
102
}
330
47
100
AcDbScale
 70
     0
300
1/2" = 1'-0"
140
0.5
141
12.0
290
     0
  0
SCALE
  5
63
102
{ACAD_REACTORS
330
47
102
}
330
47
100
AcDbScale
 70
     0
300
3/4" = 1'-0"
140
0.75
141
12.0
290
     0
  0
SCALE
  5
64
102
{ACAD_REACTORS
330
47
102
}
330
47
100
AcDbScale
 70
     0
300
1" = 1'-0"
140
1.0
141
12.0
290
     0
  0
SCALE
  5
65
102
{ACAD_REACTORS
330
47
102
}
330
47
100
AcDbScale
 70
     0
300
1-1/2" = 1'-0"
140
1.5
141
12.0
290
     0
  0
SCALE
  5
66
102
{ACAD_REACTORS
330
47
102
}
330
47
100
AcDbScale
 70
     0
300
3" = 1'-0"
140
3.0
141
12.0
290
     0
  0
SCALE
  5
67
102
{ACAD_REACTORS
330
47
102
}
330
47
100
AcDbScale
 70
     0
300
6" = 1'-0"
140
6.0
141
12.0
290
     0
  0
SCALE
  5
68
102
{ACAD_REACTORS
330
47
102
}
330
47
100
AcDbScale
 70
     0
300
1'-0" = 1'-0"
140
12.0
141
12.0
290
     0
  0
ENDSEC
  0
EOF
