  0
SECTION
  2
HEADER
  9
$ACADVER
  1
AC1015
  9
$ACADMAINTVER
 70
     6
  9
$DWGCODEPAGE
  3
ANSI_1252
  9
$INSBASE
 10
0.0
 20
0.0
 30
0.0
  9
$EXTMIN
 10
0.0
 20
0.0
 30
0.0
  9
$EXTMAX
 10
594.0
 20
420.0
 30
0.0
  9
$LIMMIN
 10
0.0
 20
0.0
  9
$LIMMAX
 10
594.0
 20
420.0
  9
$ORTHOMODE
 70
     0
  9
$REGENMODE
 70
     1
  9
$FILLMODE
 70
     1
  9
$QTEXTMODE
 70
     0
  9
$MIRRTEXT
 70
     1
  9
$LTSCALE
 40
1.0
  9
$ATTMODE
 70
     1
  9
$TEXTSIZE
 40
3.5
  9
$TRACEWID
 40
1.0
  9
$TEXTSTYLE
  7
Standard
  9
$CLAYER
  8
0
  9
$CELTYPE
  6
ByLayer
  9
$CECOLOR
 62
   256
  9
$CELTSCALE
 40
1.0
  9
$DISPSILH
 70
     0
  9
$DIMSCALE
 40
1.0
  9
$DIMASZ
 40
3.302
  9
$DIMEXO
 40
1.0
  9
$DIMDLI
 40
3.75
  9
$DIMRND
 40
0.0
  9
$DIMDLE
 40
0.0
  9
$DIMEXE
 40
1.0
  9
$DIMTP
 40
0.0
  9
$DIMTM
 40
0.0
  9
$DIMTXT
 40
3.5
  9
$DIMCEN
 40
2.5
  9
$DIMTSZ
 40
0.0
  9
$DIMTOL
 70
     0
  9
$DIMLIM
 70
     0
  9
$DIMTIH
 70
     1
  9
$DIMTOH
 70
     1
  9
$DIMSE1
 70
     0
  9
$DIMSE2
 70
     0
  9
$DIMTAD
 70
     1
  9
$DIMZIN
 70
     0
  9
$DIMBLK
  1

  9
$DIMASO
 70
     1
  9
$DIMSHO
 70
     1
  9
$DIMPOST
  1

  9
$DIMAPOST
  1

  9
$DIMALT
 70
     0
  9
$DIMALTD
 70
     3
  9
$DIMALTF
 40
0.0393700787
  9
$DIMLFAC
 40
1.0
  9
$DIMTOFL
 70
     1
  9
$DIMTVP
 40
0.0
  9
$DIMTIX
 70
     0
  9
$DIMSOXD
 70
     0
  9
$DIMSAH
 70
     0
  9
$DIMBLK1
  1

  9
$DIMBLK2
  1

  9
$DIMSTYLE
  2
ISO-25
  9
$DIMCLRD
 70
     0
  9
$DIMCLRE
 70
     0
  9
$DIMCLRT
 70
     0
  9
$DIMTFAC
 40
1.0
  9
$DIMGAP
 40
1.524
  9
$DIMJUST
 70
     0
  9
$DIMSD1
 70
     0
  9
$DIMSD2
 70
     0
  9
$DIMTOLJ
 70
     0
  9
$DIMTZIN
 70
     0
  9
$DIMALTZ
 70
     0
  9
$DIMALTTZ
 70
     0
  9
$DIMUPT
 70
     0
  9
$DIMDEC
 70
     2
  9
$DIMTDEC
 70
     2
  9
$DIMALTU
 70
     2
  9
$DIMALTTD
 70
     3
  9
$DIMTXSTY
  7
Standard
  9
$DIMAUNIT
 70
     0
  9
$DIMADEC
 70
     2
  9
$DIMALTRND
 40
0.0
  9
$DIMAZIN
 70
     0
  9
$DIMDSEP
 70
    44
  9
$DIMATFIT
 70
     3
  9
$DIMFRAC
 70
     0
  9
$DIMLDRBLK
  1

  9
$DIMLUNIT
 70
     2
  9
$DIMLWD
 70
    -2
  9
$DIMLWE
 70
    -2
  9
$DIMTMOVE
 70
     0
  9
$LUNITS
 70
     2
  9
$LUPREC
 70
     2
  9
$SKETCHINC
 40
1.0
  9
$FILLETRAD
 40
10.0
  9
$AUNITS
 70
     0
  9
$AUPREC
 70
     2
  9
$MENU
  1
.
  9
$ELEVATION
 40
0.0
  9
$PELEVATION
 40
0.0
  9
$THICKNESS
 40
0.0
  9
$LIMCHECK
 70
     0
  9
$CHAMFERA
 40
0.0
  9
$CHAMFERB
 40
0.0
  9
$CHAMFERC
 40
0.0
  9
$CHAMFERD
 40
0.0
  9
$SKPOLY
 70
     0
  9
$TDCREATE
 40
2459206.63350669
  9
$TDUCREATE
 40
2459206.591840023
  9
$TDUPDATE
 40
2459206.633507963
  9
$TDUUPDATE
 40
2459206.591841296
  9
$TDINDWG
 40
0.0000000116
  9
$TDUSRTIMER
 40
0.0000000116
  9
$USRTIMER
 70
     1
  9
$ANGBASE
 50
0.0
  9
$ANGDIR
 70
     0
  9
$PDMODE
 70
     0
  9
$PDSIZE
 40
-1.0
  9
$PLINEWID
 40
0.0
  9
$SPLFRAME
 70
     0
  9
$SPLINETYPE
 70
     6
  9
$SPLINESEGS
 70
     8
  9
$HANDSEED
  5
43F
  9
$SURFTAB1
 70
     6
  9
$SURFTAB2
 70
     6
  9
$SURFTYPE
 70
     6
  9
$SURFU
 70
     6
  9
$SURFV
 70
     6
  9
$UCSBASE
  2

  9
$UCSNAME
  2

  9
$UCSORG
 10
0.0
 20
0.0
 30
0.0
  9
$UCSXDIR
 10
1.0
 20
0.0
 30
0.0
  9
$UCSYDIR
 10
0.0
 20
1.0
 30
0.0
  9
$UCSORTHOREF
  2

  9
$UCSORTHOVIEW
 70
     0
  9
$UCSORGTOP
 10
0.0
 20
0.0
 30
0.0
  9
$UCSORGBOTTOM
 10
0.0
 20
0.0
 30
0.0
  9
$UCSORGLEFT
 10
0.0
 20
0.0
 30
0.0
  9
$UCSORGRIGHT
 10
0.0
 20
0.0
 30
0.0
  9
$UCSORGFRONT
 10
0.0
 20
0.0
 30
0.0
  9
$UCSORGBACK
 10
0.0
 20
0.0
 30
0.0
  9
$PUCSBASE
  2

  9
$PUCSNAME
  2

  9
$PUCSORG
 10
0.0
 20
0.0
 30
0.0
  9
$PUCSXDIR
 10
1.0
 20
0.0
 30
0.0
  9
$PUCSYDIR
 10
0.0
 20
1.0
 30
0.0
  9
$PUCSORTHOREF
  2

  9
$PUCSORTHOVIEW
 70
     0
  9
$PUCSORGTOP
 10
0.0
 20
0.0
 30
0.0
  9
$PUCSORGBOTTOM
 10
0.0
 20
0.0
 30
0.0
  9
$PUCSORGLEFT
 10
0.0
 20
0.0
 30
0.0
  9
$PUCSORGRIGHT
 10
0.0
 20
0.0
 30
0.0
  9
$PUCSORGFRONT
 10
0.0
 20
0.0
 30
0.0
  9
$PUCSORGBACK
 10
0.0
 20
0.0
 30
0.0
  9
$USERI1
 70
     0
  9
$USERI2
 70
     0
  9
$USERI3
 70
     0
  9
$USERI4
 70
     0
  9
$USERI5
 70
     0
  9
$USERR1
 40
0.0
  9
$USERR2
 40
0.0
  9
$USERR3
 40
0.0
  9
$USERR4
 40
0.0
  9
$USERR5
 40
0.0
  9
$WORLDVIEW
 70
     1
  9
$SHADEDGE
 70
     3
  9
$SHADEDIF
 70
    70
  9
$TILEMODE
 70
     1
  9
$MAXACTVP
 70
    64
  9
$PINSBASE
 10
0.0
 20
0.0
 30
0.0
  9
$PLIMCHECK
 70
     0
  9
$PEXTMIN
 10
1.0000000000E+20
 20
1.0000000000E+20
 30
1.0000000000E+20
  9
$PEXTMAX
 10
-1.0000000000E+20
 20
-1.0000000000E+20
 30
-1.0000000000E+20
  9
$PLIMMIN
 10
0.0
 20
0.0
  9
$PLIMMAX
 10
420.0
 20
297.0
  9
$UNITMODE
 70
     0
  9
$VISRETAIN
 70
     1
  9
$PLINEGEN
 70
     0
  9
$PSLTSCALE
 70
     1
  9
$TREEDEPTH
 70
  3020
  9
$CMLSTYLE
  2
Standard
  9
$CMLJUST
 70
     0
  9
$CMLSCALE
 40
20.0
  9
$PROXYGRAPHICS
 70
     1
  9
$MEASUREMENT
 70
     1
  9
$CELWEIGHT
370
    -1
  9
$ENDCAPS
280
     0
  9
$JOINSTYLE
280
     0
  9
$LWDISPLAY
290
     1
  9
$INSUNITS
 70
     4
  9
$HYPERLINKBASE
  1

  9
$STYLESHEET
  1

  9
$XEDIT
290
     1
  9
$CEPSNTYPE
380
     0
  9
$PSTYLEMODE
290
     1
  9
$FINGERPRINTGUID
  2
{2d58fa65-572c-4b03-be2b-a1c2e8ab991f}
  9
$VERSIONGUID
  2
{FAEB1C32-E019-11D5-929B-00C0DF256EC4}
  9
$EXTNAMES
290
     1
  9
$PSVPSCALE
 40
0.0
  9
$OLESTARTUP
290
     0
  0
ENDSEC
  0
SECTION
  2
CLASSES
  0
CLASS
  1
ACDBDICTIONARYWDFLT
  2
AcDbDictionaryWithDefault
  3
ObjectDBX Classes
 90
        0
280
     0
281
     0
  0
CLASS
  1
VISUALSTYLE
  2
AcDbVisualStyle
  3
ObjectDBX Classes
 90
     4095
280
     0
281
     0
  0
CLASS
  1
MATERIAL
  2
AcDbMaterial
  3
ObjectDBX Classes
 90
     1153
280
     0
281
     0
  0
CLASS
  1
SCALE
  2
AcDbScale
  3
ObjectDBX Classes
 90
     1153
280
     0
281
     0
  0
CLASS
  1
TABLESTYLE
  2
AcDbTableStyle
  3
ObjectDBX Classes
 90
     4095
280
     0
281
     0
  0
CLASS
  1
MLEADERSTYLE
  2
AcDbMLeaderStyle
  3
ACDB_MLEADERSTYLE_CLASS
 90
     4095
280
     0
281
     0
  0
CLASS
  1
SUN
  2
AcDbSun
  3
SCENEOE
 90
     1153
280
     0
281
     0
  0
CLASS
  1
ACDBPLACEHOLDER
  2
AcDbPlaceHolder
  3
ObjectDBX Classes
 90
        0
280
     0
281
     0
  0
CLASS
  1
LAYOUT
  2
AcDbLayout
  3
ObjectDBX Classes
 90
        0
280
     0
281
     0
  0
ENDSEC
  0
SECTION
  2
TABLES
  0
TABLE
  2
VPORT
  5
8
330
0
100
AcDbSymbolTable
 70
     1
  0
VPORT
  5
29
330
8
100
AcDbSymbolTableRecord
100
AcDbViewportTableRecord
  2
*Active
 70
     0
 10
0.0
 20
0.0
 11
1.0
 21
1.0
 12
297.0
 22
210.0
 13
0.0
 23
0.0
 14
10.0
 24
10.0
 15
10.0
 25
10.0
 16
0.0
 26
0.0
 36
1.0
 17
0.0
 27
0.0
 37
0.0
 40
420.0
 41
1.4142857143
 42
50.0
 43
0.0
 44
0.0
 50
0.0
 51
0.0
 71
     0
 72
  2000
 73
     1
 74
     3
 75
     0
 76
     0
 77
     0
 78
     0
281
     0
 65
     1
110
0.0
120
0.0
130
0.0
111
1.0
121
0.0
131
0.0
112
0.0
122
1.0
132
0.0
 79
     0
146
0.0
  0
ENDTAB
  0
TABLE
  2
LTYPE
  5
5
330
0
100
AcDbSymbolTable
 70
     6
  0
LTYPE
  5
14
330
5
100
AcDbSymbolTableRecord
100
AcDbLinetypeTableRecord
  2
ByBlock
 70
     0
  3

 72
    65
 73
     0
 40
0.0
  0
LTYPE
  5
15
330
5
100
AcDbSymbolTableRecord
100
AcDbLinetypeTableRecord
  2
ByLayer
 70
     0
  3

 72
    65
 73
     0
 40
0.0
  0
LTYPE
  5
16
330
5
100
AcDbSymbolTableRecord
100
AcDbLinetypeTableRecord
  2
Continuous
 70
     0
  3
Solid line
 72
    65
 73
     0
 40
0.0
  0
LTYPE
  5
6E
330
5
100
AcDbSymbolTableRecord
100
AcDbLinetypeTableRecord
  2
HIDDEN
 70
     0
  3
Hidden __ __ __ __ __ __ __ __ __ __ __ __ __ __
 72
    65
 73
     2
 40
1.905
 49
1.27
 74
     0
 49
-0.635
 74
     0
  0
LTYPE
  5
6F
330
5
100
AcDbSymbolTableRecord
100
AcDbLinetypeTableRecord
  2
PHANTOM
 70
     0
  3
Phantom ______  __  __  ______  __  __  ______
 72
    65
 73
     6
 40
12.7
 49
6.35
 74
     0
 49
-1.27
 74
     0
 49
1.27
 74
     0
 49
-1.27
 74
     0
 49
1.27
 74
     0
 49
-1.27
 74
     0
  0
LTYPE
  5
70
330
5
100
AcDbSymbolTableRecord
100
AcDbLinetypeTableRecord
  2
CENTER
 70
     0
  3
Center ____ _ ____ _ ____ _ ____ _ ____ _ ____
 72
    65
 73
     4
 40
10.16
 49
6.35
 74
     0
 49
-1.27
 74
     0
 49
1.27
 74
     0
 49
-1.27
 74
     0
  0
LTYPE
  5
71
330
5
100
AcDbSymbolTableRecord
100
AcDbLinetypeTableRecord
  2
CENTERX2
 70
     0
  3
Center (2x) ________  __  ________  __  _____
 72
    65
 73
     4
 40
20.32
 49
12.7
 74
     0
 49
-2.54
 74
     0
 49
2.54
 74
     0
 49
-2.54
 74
     0
  0
LTYPE
  5
72
330
5
100
AcDbSymbolTableRecord
100
AcDbLinetypeTableRecord
  2
DOT2
 70
     0
  3
Dot (.5x) ........................................
 72
    65
 73
     2
 40
0.635
 49
0.0
 74
     0
 49
-0.635
 74
     0
  0
ENDTAB
  0
TABLE
  2
LAYER
  5
2
330
0
100
AcDbSymbolTable
 70
     4
  0
LAYER
  5
10
330
2
100
AcDbSymbolTableRecord
100
AcDbLayerTableRecord
  2
0
 70
     0
 62
     7
  6
Continuous
370
    -3
390
F
  0
LAYER
  5
73
330
2
100
AcDbSymbolTableRecord
100
AcDbLayerTableRecord
  2
SLD-0
 70
     0
 62
   179
  6
Continuous
370
    -3
390
F
  0
LAYER
  5
74
330
2
100
AcDbSymbolTableRecord
100
AcDbLayerTableRecord
  2
COTES
 70
     0
 62
     1
  6
Continuous
370
    -3
390
F
  0
LAYER
  5
75
330
2
100
AcDbSymbolTableRecord
100
AcDbLayerTableRecord
  2
CLIENT
 70
     0
 62
     5
  6
Continuous
370
    -3
390
F
  0
ENDTAB
  0
TABLE
  2
STYLE
  5
3
330
0
100
AcDbSymbolTable
 70
     7
  0
STYLE
  5
11
330
3
100
AcDbSymbolTableRecord
100
AcDbTextStyleTableRecord
  2
Standard
 70
     0
 40
0.0
 41
1.0
 50
0.0
 71
     0
 42
3.5
  3
txt
  4

  0
STYLE
  5
86
330
3
100
AcDbSymbolTableRecord
100
AcDbTextStyleTableRecord
  2
SLDTEXTSTYLE0
 70
     0
 40
0.0
 41
0.7
 50
0.0
 71
     0
 42
3.5
  3
TXT
  4

  0
STYLE
  5
12A
330
3
100
AcDbSymbolTableRecord
100
AcDbTextStyleTableRecord
  2
SLDTEXTSTYLE1
 70
     0
 40
0.0
 41
0.6428571429
 50
0.0
 71
     0
 42
3.5
  3
TXT
  4

  0
STYLE
  5
12C
330
3
100
AcDbSymbolTableRecord
100
AcDbTextStyleTableRecord
  2
SLDTEXTSTYLE2
 70
     0
 40
0.0
 41
0.64
 50
0.0
 71
     0
 42
3.5
  3
TXT
  4

  0
STYLE
  5
14D
330
3
100
AcDbSymbolTableRecord
100
AcDbTextStyleTableRecord
  2
SLDTEXTSTYLE3
 70
     0
 40
0.0
 41
0.75
 50
0.0
 71
     0
 42
3.5
  3
TXT
  4

  0
STYLE
  5
1FB
330
3
100
AcDbSymbolTableRecord
100
AcDbTextStyleTableRecord
  2
SLDTEXTSTYLE4
 70
     0
 40
0.0
 41
0.8431403406
 50
0.0
 71
     0
 42
3.5
  3
TXT
  4

  0
STYLE
  5
20B
330
3
100
AcDbSymbolTableRecord
100
AcDbTextStyleTableRecord
  2
SLDTEXTSTYLE5
 70
     0
 40
0.0
 41
1.0
 50
0.0
 71
     0
 42
3.5
  3
TXT
  4

  0
ENDTAB
  0
TABLE
  2
VIEW
  5
6
330
0
100
AcDbSymbolTable
 70
     0
  0
ENDTAB
  0
TABLE
  2
UCS
  5
7
330
0
100
AcDbSymbolTable
 70
     0
  0
ENDTAB
  0
TABLE
  2
APPID
  5
9
330
0
100
AcDbSymbolTable
 70
     1
  0
APPID
  5
12
330
9
100
AcDbSymbolTableRecord
100
AcDbRegAppTableRecord
  2
ACAD
 70
     0
  0
ENDTAB
  0
TABLE
  2
DIMSTYLE
  5
A
330
0
100
AcDbSymbolTable
 70
     1
100
AcDbDimStyleTable
  0
DIMSTYLE
105
27
330
A
100
AcDbSymbolTableRecord
100
AcDbDimStyleTableRecord
  2
ISO-25
 70
     0
 41
2.5
 42
0.625
 43
3.75
 44
1.25
 73
     0
 74
     0
 77
     1
 78
     8
140
2.5
141
2.5
143
0.0393700787
147
0.625
171
     3
172
     1
178
     0
271
     2
272
     2
274
     3
278
    44
283
     0
284
     8
340
11
  0
ENDTAB
  0
TABLE
  2
BLOCK_RECORD
  5
1
330
0
100
AcDbSymbolTable
 70
   127
  0
BLOCK_RECORD
  5
1F
330
1
100
AcDbSymbolTableRecord
100
AcDbBlockTableRecord
  2
*Model_Space
340
22
  0
BLOCK_RECORD
  5
1B
330
1
100
AcDbSymbolTableRecord
100
AcDbBlockTableRecord
  2
*Paper_Space
340
1E
  0
BLOCK_RECORD
  5
23
330
1
100
AcDbSymbolTableRecord
100
AcDbBlockTableRecord
  2
*Paper_Space0
340
26
  0
BLOCK_RECORD
  5
76
330
1
100
AcDbSymbolTableRecord
100
AcDbBlockTableRecord
  2
CADRE A2_OPUS_V1
340
0
  0
BLOCK_RECORD
  5
83
330
1
100
AcDbSymbolTableRecord
100
AcDbBlockTableRecord
  2
SW_NOTE_0
340
0
102
{BLKREFS
331
88
102
}
  0
BLOCK_RECORD
  5
89
330
1
100
AcDbSymbolTableRecord
100
AcDbBlockTableRecord
  2
SW_NOTE_0_1
340
0
102
{BLKREFS
331
8D
102
}
  0
BLOCK_RECORD
  5
8E
330
1
100
AcDbSymbolTableRecord
100
AcDbBlockTableRecord
  2
SW_NOTE_0_2
340
0
102
{BLKREFS
331
92
102
}
  0
BLOCK_RECORD
  5
93
330
1
100
AcDbSymbolTableRecord
100
AcDbBlockTableRecord
  2
SW_NOTE_0_3
340
0
102
{BLKREFS
331
97
102
}
  0
BLOCK_RECORD
  5
98
330
1
100
AcDbSymbolTableRecord
100
AcDbBlockTableRecord
  2
SW_NOTE_0_4
340
0
102
{BLKREFS
331
9C
102
}
  0
BLOCK_RECORD
  5
9D
330
1
100
AcDbSymbolTableRecord
100
AcDbBlockTableRecord
  2
SW_NOTE_0_5
340
0
102
{BLKREFS
331
A1
102
}
  0
BLOCK_RECORD
  5
A2
330
1
100
AcDbSymbolTableRecord
100
AcDbBlockTableRecord
  2
SW_NOTE_0_6
340
0
102
{BLKREFS
331
A6
102
}
  0
BLOCK_RECORD
  5
A7
330
1
100
AcDbSymbolTableRecord
100
AcDbBlockTableRecord
  2
SW_NOTE_0_7
340
0
102
{BLKREFS
331
AB
102
}
  0
BLOCK_RECORD
  5
AC
330
1
100
AcDbSymbolTableRecord
100
AcDbBlockTableRecord
  2
SW_NOTE_0_8
340
0
102
{BLKREFS
331
B0
102
}
  0
BLOCK_RECORD
  5
B1
330
1
100
AcDbSymbolTableRecord
100
AcDbBlockTableRecord
  2
SW_NOTE_0_9
340
0
102
{BLKREFS
331
B5
102
}
  0
BLOCK_RECORD
  5
B6
330
1
100
AcDbSymbolTableRecord
100
AcDbBlockTableRecord
  2
Cartouche OPUS V1
340
0
  0
BLOCK_RECORD
  5
102
330
1
100
AcDbSymbolTableRecord
100
AcDbBlockTableRecord
  2
SW_NOTE_0_10
340
0
102
{BLKREFS
331
107
102
}
  0
BLOCK_RECORD
  5
108
330
1
100
AcDbSymbolTableRecord
100
AcDbBlockTableRecord
  2
SW_NOTE_0_11
340
0
102
{BLKREFS
331
10B
102
}
  0
BLOCK_RECORD
  5
10C
330
1
100
AcDbSymbolTableRecord
100
AcDbBlockTableRecord
  2
SW_NOTE_0_12
340
0
102
{BLKREFS
331
10F
102
}
  0
BLOCK_RECORD
  5
110
330
1
100
AcDbSymbolTableRecord
100
AcDbBlockTableRecord
  2
SW_NOTE_0_13
340
0
102
{BLKREFS
331
113
102
}
  0
BLOCK_RECORD
  5
114
330
1
100
AcDbSymbolTableRecord
100
AcDbBlockTableRecord
  2
SW_NOTE_0_14
340
0
102
{BLKREFS
331
119
102
}
  0
BLOCK_RECORD
  5
11A
330
1
100
AcDbSymbolTableRecord
100
AcDbBlockTableRecord
  2
SW_NOTE_0_15
340
0
102
{BLKREFS
331
11E
102
}
  0
BLOCK_RECORD
  5
11F
330
1
100
AcDbSymbolTableRecord
100
AcDbBlockTableRecord
  2
SW_NOTE_0_16
340
0
102
{BLKREFS
331
124
102
}
  0
BLOCK_RECORD
  5
125
330
1
100
AcDbSymbolTableRecord
100
AcDbBlockTableRecord
  2
SW_NOTE_0_17
340
0
102
{BLKREFS
331
12E
102
}
  0
BLOCK_RECORD
  5
12F
330
1
100
AcDbSymbolTableRecord
100
AcDbBlockTableRecord
  2
SW_NOTE_0_18
340
0
102
{BLKREFS
331
135
102
}
  0
BLOCK_RECORD
  5
136
330
1
100
AcDbSymbolTableRecord
100
AcDbBlockTableRecord
  2
SW_NOTE_0_19
340
0
102
{BLKREFS
331
13A
102
}
  0
BLOCK_RECORD
  5
13B
330
1
100
AcDbSymbolTableRecord
100
AcDbBlockTableRecord
  2
SW_NOTE_0_20
340
0
102
{BLKREFS
331
13F
102
}
  0
BLOCK_RECORD
  5
140
330
1
100
AcDbSymbolTableRecord
100
AcDbBlockTableRecord
  2
SW_NOTE_0_21
340
0
102
{BLKREFS
331
144
102
}
  0
BLOCK_RECORD
  5
145
330
1
100
AcDbSymbolTableRecord
100
AcDbBlockTableRecord
  2
SW_NOTE_0_22
340
0
102
{BLKREFS
331
149
102
}
  0
BLOCK_RECORD
  5
14A
330
1
100
AcDbSymbolTableRecord
100
AcDbBlockTableRecord
  2
SW_NOTE_0_23
340
0
102
{BLKREFS
331
150
102
}
  0
BLOCK_RECORD
  5
151
330
1
100
AcDbSymbolTableRecord
100
AcDbBlockTableRecord
  2
SW_NOTE_0_24
340
0
102
{BLKREFS
331
154
102
}
  0
BLOCK_RECORD
  5
155
330
1
100
AcDbSymbolTableRecord
100
AcDbBlockTableRecord
  2
SW_NOTE_0_25
340
0
102
{BLKREFS
331
158
102
}
  0
BLOCK_RECORD
  5
159
330
1
100
AcDbSymbolTableRecord
100
AcDbBlockTableRecord
  2
SW_NOTE_0_26
340
0
102
{BLKREFS
331
15C
102
}
  0
BLOCK_RECORD
  5
15D
330
1
100
AcDbSymbolTableRecord
100
AcDbBlockTableRecord
  2
SW_NOTE_0_27
340
0
102
{BLKREFS
331
160
102
}
  0
BLOCK_RECORD
  5
161
330
1
100
AcDbSymbolTableRecord
100
AcDbBlockTableRecord
  2
SW_NOTE_0_28
340
0
102
{BLKREFS
331
164
102
}
  0
BLOCK_RECORD
  5
165
330
1
100
AcDbSymbolTableRecord
100
AcDbBlockTableRecord
  2
SW_NOTE_0_29
340
0
102
{BLKREFS
331
168
102
}
  0
BLOCK_RECORD
  5
169
330
1
100
AcDbSymbolTableRecord
100
AcDbBlockTableRecord
  2
SW_NOTE_0_30
340
0
102
{BLKREFS
331
16C
102
}
  0
BLOCK_RECORD
  5
16D
330
1
100
AcDbSymbolTableRecord
100
AcDbBlockTableRecord
  2
SW_NOTE_0_31
340
0
102
{BLKREFS
331
170
102
}
  0
BLOCK_RECORD
  5
171
330
1
100
AcDbSymbolTableRecord
100
AcDbBlockTableRecord
  2
SW_NOTE_0_32
340
0
102
{BLKREFS
331
174
102
}
  0
BLOCK_RECORD
  5
175
330
1
100
AcDbSymbolTableRecord
100
AcDbBlockTableRecord
  2
SW_NOTE_0_33
340
0
102
{BLKREFS
331
178
102
}
  0
BLOCK_RECORD
  5
179
330
1
100
AcDbSymbolTableRecord
100
AcDbBlockTableRecord
  2
SW_NOTE_0_34
340
0
102
{BLKREFS
331
17C
102
}
  0
BLOCK_RECORD
  5
17D
330
1
100
AcDbSymbolTableRecord
100
AcDbBlockTableRecord
  2
SW_NOTE_0_35
340
0
102
{BLKREFS
331
180
102
}
  0
BLOCK_RECORD
  5
181
330
1
100
AcDbSymbolTableRecord
100
AcDbBlockTableRecord
  2
SW_NOTE_0_36
340
0
102
{BLKREFS
331
184
102
}
  0
BLOCK_RECORD
  5
185
330
1
100
AcDbSymbolTableRecord
100
AcDbBlockTableRecord
  2
SW_NOTE_0_37
340
0
102
{BLKREFS
331
188
102
}
  0
BLOCK_RECORD
  5
189
330
1
100
AcDbSymbolTableRecord
100
AcDbBlockTableRecord
  2
SW_NOTE_0_38
340
0
102
{BLKREFS
331
18C
102
}
  0
BLOCK_RECORD
  5
18D
330
1
100
AcDbSymbolTableRecord
100
AcDbBlockTableRecord
  2
SW_NOTE_0_39
340
0
102
{BLKREFS
331
191
102
}
  0
BLOCK_RECORD
  5
192
330
1
100
AcDbSymbolTableRecord
100
AcDbBlockTableRecord
  2
SW_NOTE_0_40
340
0
102
{BLKREFS
331
196
102
}
  0
BLOCK_RECORD
  5
197
330
1
100
AcDbSymbolTableRecord
100
AcDbBlockTableRecord
  2
SW_NOTE_0_41
340
0
102
{BLKREFS
331
19B
102
}
  0
BLOCK_RECORD
  5
19C
330
1
100
AcDbSymbolTableRecord
100
AcDbBlockTableRecord
  2
SW_NOTE_0_42
340
0
102
{BLKREFS
331
1A0
102
}
  0
BLOCK_RECORD
  5
1A1
330
1
100
AcDbSymbolTableRecord
100
AcDbBlockTableRecord
  2
SW_NOTE_0_43
340
0
102
{BLKREFS
331
1A5
102
}
  0
BLOCK_RECORD
  5
1A6
330
1
100
AcDbSymbolTableRecord
100
AcDbBlockTableRecord
  2
SW_NOTE_0_44
340
0
102
{BLKREFS
331
1AA
102
}
  0
BLOCK_RECORD
  5
1AB
330
1
100
AcDbSymbolTableRecord
100
AcDbBlockTableRecord
  2
SW_NOTE_0_45
340
0
102
{BLKREFS
331
1AF
102
}
  0
BLOCK_RECORD
  5
1B0
330
1
100
AcDbSymbolTableRecord
100
AcDbBlockTableRecord
  2
SW_NOTE_0_46
340
0
102
{BLKREFS
331
1B4
102
}
  0
BLOCK_RECORD
  5
1B5
330
1
100
AcDbSymbolTableRecord
100
AcDbBlockTableRecord
  2
SW_NOTE_0_47
340
0
102
{BLKREFS
331
1B9
102
}
  0
BLOCK_RECORD
  5
1BA
330
1
100
AcDbSymbolTableRecord
100
AcDbBlockTableRecord
  2
SW_NOTE_0_48
340
0
102
{BLKREFS
331
1BE
102
}
  0
BLOCK_RECORD
  5
1BF
330
1
100
AcDbSymbolTableRecord
100
AcDbBlockTableRecord
  2
SW_NOTE_0_49
340
0
102
{BLKREFS
331
1C3
102
}
  0
BLOCK_RECORD
  5
1C4
330
1
100
AcDbSymbolTableRecord
100
AcDbBlockTableRecord
  2
SW_NOTE_0_50
340
0
102
{BLKREFS
331
1C8
102
}
  0
BLOCK_RECORD
  5
1C9
330
1
100
AcDbSymbolTableRecord
100
AcDbBlockTableRecord
  2
SW_NOTE_0_51
340
0
102
{BLKREFS
331
1CD
102
}
  0
BLOCK_RECORD
  5
1CE
330
1
100
AcDbSymbolTableRecord
100
AcDbBlockTableRecord
  2
SW_NOTE_0_52
340
0
102
{BLKREFS
331
1D2
102
}
  0
BLOCK_RECORD
  5
1D3
330
1
100
AcDbSymbolTableRecord
100
AcDbBlockTableRecord
  2
SW_NOTE_0_53
340
0
102
{BLKREFS
331
1D7
102
}
  0
BLOCK_RECORD
  5
1D8
330
1
100
AcDbSymbolTableRecord
100
AcDbBlockTableRecord
  2
SW_NOTE_0_54
340
0
102
{BLKREFS
331
1DC
102
}
  0
BLOCK_RECORD
  5
1DD
330
1
100
AcDbSymbolTableRecord
100
AcDbBlockTableRecord
  2
SW_NOTE_0_55
340
0
102
{BLKREFS
331
1E1
102
}
  0
BLOCK_RECORD
  5
1E2
330
1
100
AcDbSymbolTableRecord
100
AcDbBlockTableRecord
  2
SW_NOTE_0_56
340
0
102
{BLKREFS
331
1E6
102
}
  0
BLOCK_RECORD
  5
1E7
330
1
100
AcDbSymbolTableRecord
100
AcDbBlockTableRecord
  2
SW_NOTE_0_57
340
0
102
{BLKREFS
331
1EB
102
}
  0
BLOCK_RECORD
  5
1EC
330
1
100
AcDbSymbolTableRecord
100
AcDbBlockTableRecord
  2
SW_NOTE_0_58
340
0
102
{BLKREFS
331
1F0
102
}
  0
BLOCK_RECORD
  5
1F1
330
1
100
AcDbSymbolTableRecord
100
AcDbBlockTableRecord
  2
SW_NOTE_0_59
340
0
102
{BLKREFS
331
1F5
102
}
  0
BLOCK_RECORD
  5
221
330
1
100
AcDbSymbolTableRecord
100
AcDbBlockTableRecord
  2
Cartouche OPUS V1_1
340
0
  0
BLOCK_RECORD
  5
26D
330
1
100
AcDbSymbolTableRecord
100
AcDbBlockTableRecord
  2
SW_NOTE_0_60
340
0
102
{BLKREFS
331
272
102
}
  0
BLOCK_RECORD
  5
273
330
1
100
AcDbSymbolTableRecord
100
AcDbBlockTableRecord
  2
SW_NOTE_0_61
340
0
102
{BLKREFS
331
276
102
}
  0
BLOCK_RECORD
  5
277
330
1
100
AcDbSymbolTableRecord
100
AcDbBlockTableRecord
  2
SW_NOTE_0_62
340
0
102
{BLKREFS
331
27A
102
}
  0
BLOCK_RECORD
  5
27B
330
1
100
AcDbSymbolTableRecord
100
AcDbBlockTableRecord
  2
SW_NOTE_0_63
340
0
102
{BLKREFS
331
27E
102
}
  0
BLOCK_RECORD
  5
27F
330
1
100
AcDbSymbolTableRecord
100
AcDbBlockTableRecord
  2
SW_NOTE_0_64
340
0
102
{BLKREFS
331
284
102
}
  0
BLOCK_RECORD
  5
285
330
1
100
AcDbSymbolTableRecord
100
AcDbBlockTableRecord
  2
SW_NOTE_0_65
340
0
102
{BLKREFS
331
289
102
}
  0
BLOCK_RECORD
  5
28A
330
1
100
AcDbSymbolTableRecord
100
AcDbBlockTableRecord
  2
SW_NOTE_0_66
340
0
102
{BLKREFS
331
28F
102
}
  0
BLOCK_RECORD
  5
290
330
1
100
AcDbSymbolTableRecord
100
AcDbBlockTableRecord
  2
SW_NOTE_0_67
340
0
102
{BLKREFS
331
297
102
}
  0
BLOCK_RECORD
  5
298
330
1
100
AcDbSymbolTableRecord
100
AcDbBlockTableRecord
  2
SW_NOTE_0_68
340
0
102
{BLKREFS
331
29E
102
}
  0
BLOCK_RECORD
  5
29F
330
1
100
AcDbSymbolTableRecord
100
AcDbBlockTableRecord
  2
SW_NOTE_0_69
340
0
102
{BLKREFS
331
2A3
102
}
  0
BLOCK_RECORD
  5
2A4
330
1
100
AcDbSymbolTableRecord
100
AcDbBlockTableRecord
  2
SW_NOTE_0_70
340
0
102
{BLKREFS
331
2A8
102
}
  0
BLOCK_RECORD
  5
2A9
330
1
100
AcDbSymbolTableRecord
100
AcDbBlockTableRecord
  2
SW_NOTE_0_71
340
0
102
{BLKREFS
331
2AD
102
}
  0
BLOCK_RECORD
  5
2AE
330
1
100
AcDbSymbolTableRecord
100
AcDbBlockTableRecord
  2
SW_NOTE_0_72
340
0
102
{BLKREFS
331
2B2
102
}
  0
BLOCK_RECORD
  5
2B3
330
1
100
AcDbSymbolTableRecord
100
AcDbBlockTableRecord
  2
SW_NOTE_0_73
340
0
102
{BLKREFS
331
2B8
102
}
  0
BLOCK_RECORD
  5
2B9
330
1
100
AcDbSymbolTableRecord
100
AcDbBlockTableRecord
  2
SW_NOTE_0_74
340
0
102
{BLKREFS
331
2BC
102
}
  0
BLOCK_RECORD
  5
2BD
330
1
100
AcDbSymbolTableRecord
100
AcDbBlockTableRecord
  2
SW_NOTE_0_75
340
0
102
{BLKREFS
331
2C0
102
}
  0
BLOCK_RECORD
  5
2C1
330
1
100
AcDbSymbolTableRecord
100
AcDbBlockTableRecord
  2
SW_NOTE_0_76
340
0
102
{BLKREFS
331
2C4
102
}
  0
BLOCK_RECORD
  5
2C5
330
1
100
AcDbSymbolTableRecord
100
AcDbBlockTableRecord
  2
SW_NOTE_0_77
340
0
102
{BLKREFS
331
2C8
102
}
  0
BLOCK_RECORD
  5
2C9
330
1
100
AcDbSymbolTableRecord
100
AcDbBlockTableRecord
  2
SW_NOTE_0_78
340
0
102
{BLKREFS
331
2CC
102
}
  0
BLOCK_RECORD
  5
2CD
330
1
100
AcDbSymbolTableRecord
100
AcDbBlockTableRecord
  2
SW_NOTE_0_79
340
0
102
{BLKREFS
331
2D0
102
}
  0
BLOCK_RECORD
  5
2D1
330
1
100
AcDbSymbolTableRecord
100
AcDbBlockTableRecord
  2
SW_NOTE_0_80
340
0
102
{BLKREFS
331
2D4
102
}
  0
BLOCK_RECORD
  5
2D5
330
1
100
AcDbSymbolTableRecord
100
AcDbBlockTableRecord
  2
SW_NOTE_0_81
340
0
102
{BLKREFS
331
2D8
102
}
  0
BLOCK_RECORD
  5
2D9
330
1
100
AcDbSymbolTableRecord
100
AcDbBlockTableRecord
  2
SW_NOTE_0_82
340
0
102
{BLKREFS
331
2DC
102
}
  0
BLOCK_RECORD
  5
2DD
330
1
100
AcDbSymbolTableRecord
100
AcDbBlockTableRecord
  2
SW_NOTE_0_83
340
0
102
{BLKREFS
331
2E0
102
}
  0
BLOCK_RECORD
  5
2E1
330
1
100
AcDbSymbolTableRecord
100
AcDbBlockTableRecord
  2
SW_NOTE_0_84
340
0
102
{BLKREFS
331
2E4
102
}
  0
BLOCK_RECORD
  5
2E5
330
1
100
AcDbSymbolTableRecord
100
AcDbBlockTableRecord
  2
SW_NOTE_0_85
340
0
102
{BLKREFS
331
2E8
102
}
  0
BLOCK_RECORD
  5
2E9
330
1
100
AcDbSymbolTableRecord
100
AcDbBlockTableRecord
  2
SW_NOTE_0_86
340
0
102
{BLKREFS
331
2EC
102
}
  0
BLOCK_RECORD
  5
2ED
330
1
100
AcDbSymbolTableRecord
100
AcDbBlockTableRecord
  2
SW_NOTE_0_87
340
0
102
{BLKREFS
331
2F0
102
}
  0
BLOCK_RECORD
  5
2F1
330
1
100
AcDbSymbolTableRecord
100
AcDbBlockTableRecord
  2
SW_NOTE_0_88
340
0
102
{BLKREFS
331
2F4
102
}
  0
BLOCK_RECORD
  5
2F5
330
1
100
AcDbSymbolTableRecord
100
AcDbBlockTableRecord
  2
SW_NOTE_0_89
340
0
102
{BLKREFS
331
2F9
102
}
  0
BLOCK_RECORD
  5
2FA
330
1
100
AcDbSymbolTableRecord
100
AcDbBlockTableRecord
  2
SW_NOTE_0_90
340
0
102
{BLKREFS
331
2FE
102
}
  0
BLOCK_RECORD
  5
2FF
330
1
100
AcDbSymbolTableRecord
100
AcDbBlockTableRecord
  2
SW_NOTE_0_91
340
0
102
{BLKREFS
331
303
102
}
  0
BLOCK_RECORD
  5
304
330
1
100
AcDbSymbolTableRecord
100
AcDbBlockTableRecord
  2
SW_NOTE_0_92
340
0
102
{BLKREFS
331
308
102
}
  0
BLOCK_RECORD
  5
309
330
1
100
AcDbSymbolTableRecord
100
AcDbBlockTableRecord
  2
SW_NOTE_0_93
340
0
102
{BLKREFS
331
30D
102
}
  0
BLOCK_RECORD
  5
30E
330
1
100
AcDbSymbolTableRecord
100
AcDbBlockTableRecord
  2
SW_NOTE_0_94
340
0
102
{BLKREFS
331
312
102
}
  0
BLOCK_RECORD
  5
313
330
1
100
AcDbSymbolTableRecord
100
AcDbBlockTableRecord
  2
SW_NOTE_0_95
340
0
102
{BLKREFS
331
317
102
}
  0
BLOCK_RECORD
  5
318
330
1
100
AcDbSymbolTableRecord
100
AcDbBlockTableRecord
  2
SW_NOTE_0_96
340
0
102
{BLKREFS
331
31C
102
}
  0
BLOCK_RECORD
  5
31D
330
1
100
AcDbSymbolTableRecord
100
AcDbBlockTableRecord
  2
SW_NOTE_0_97
340
0
102
{BLKREFS
331
321
102
}
  0
BLOCK_RECORD
  5
322
330
1
100
AcDbSymbolTableRecord
100
AcDbBlockTableRecord
  2
SW_NOTE_0_98
340
0
102
{BLKREFS
331
326
102
}
  0
BLOCK_RECORD
  5
327
330
1
100
AcDbSymbolTableRecord
100
AcDbBlockTableRecord
  2
SW_NOTE_0_99
340
0
102
{BLKREFS
331
32B
102
}
  0
BLOCK_RECORD
  5
32C
330
1
100
AcDbSymbolTableRecord
100
AcDbBlockTableRecord
  2
SW_NOTE_0_100
340
0
102
{BLKREFS
331
330
102
}
  0
BLOCK_RECORD
  5
331
330
1
100
AcDbSymbolTableRecord
100
AcDbBlockTableRecord
  2
SW_NOTE_0_101
340
0
102
{BLKREFS
331
335
102
}
  0
BLOCK_RECORD
  5
336
330
1
100
AcDbSymbolTableRecord
100
AcDbBlockTableRecord
  2
SW_NOTE_0_102
340
0
102
{BLKREFS
331
33A
102
}
  0
BLOCK_RECORD
  5
33B
330
1
100
AcDbSymbolTableRecord
100
AcDbBlockTableRecord
  2
SW_NOTE_0_103
340
0
102
{BLKREFS
331
33F
102
}
  0
BLOCK_RECORD
  5
340
330
1
100
AcDbSymbolTableRecord
100
AcDbBlockTableRecord
  2
SW_NOTE_0_104
340
0
102
{BLKREFS
331
344
102
}
  0
BLOCK_RECORD
  5
345
330
1
100
AcDbSymbolTableRecord
100
AcDbBlockTableRecord
  2
SW_NOTE_0_105
340
0
102
{BLKREFS
331
349
102
}
  0
BLOCK_RECORD
  5
34A
330
1
100
AcDbSymbolTableRecord
100
AcDbBlockTableRecord
  2
SW_NOTE_0_106
340
0
102
{BLKREFS
331
34E
102
}
  0
BLOCK_RECORD
  5
34F
330
1
100
AcDbSymbolTableRecord
100
AcDbBlockTableRecord
  2
SW_NOTE_0_107
340
0
102
{BLKREFS
331
353
102
}
  0
BLOCK_RECORD
  5
354
330
1
100
AcDbSymbolTableRecord
100
AcDbBlockTableRecord
  2
SW_NOTE_0_108
340
0
102
{BLKREFS
331
358
102
}
  0
BLOCK_RECORD
  5
359
330
1
100
AcDbSymbolTableRecord
100
AcDbBlockTableRecord
  2
SW_NOTE_0_109
340
0
102
{BLKREFS
331
35D
102
}
  0
BLOCK_RECORD
  5
387
330
1
100
AcDbSymbolTableRecord
100
AcDbBlockTableRecord
  2
CADRE A2_OPUS_V1_1
340
0
  0
BLOCK_RECORD
  5
394
330
1
100
AcDbSymbolTableRecord
100
AcDbBlockTableRecord
  2
SW_NOTE_0_110
340
0
102
{BLKREFS
331
398
102
}
  0
BLOCK_RECORD
  5
399
330
1
100
AcDbSymbolTableRecord
100
AcDbBlockTableRecord
  2
SW_NOTE_0_111
340
0
102
{BLKREFS
331
39D
102
}
  0
BLOCK_RECORD
  5
39E
330
1
100
AcDbSymbolTableRecord
100
AcDbBlockTableRecord
  2
SW_NOTE_0_112
340
0
102
{BLKREFS
331
3A2
102
}
  0
BLOCK_RECORD
  5
3A3
330
1
100
AcDbSymbolTableRecord
100
AcDbBlockTableRecord
  2
SW_NOTE_0_113
340
0
102
{BLKREFS
331
3A7
102
}
  0
BLOCK_RECORD
  5
3A8
330
1
100
AcDbSymbolTableRecord
100
AcDbBlockTableRecord
  2
SW_NOTE_0_114
340
0
102
{BLKREFS
331
3AC
102
}
  0
BLOCK_RECORD
  5
3AD
330
1
100
AcDbSymbolTableRecord
100
AcDbBlockTableRecord
  2
SW_NOTE_0_115
340
0
102
{BLKREFS
331
3B1
102
}
  0
BLOCK_RECORD
  5
3B2
330
1
100
AcDbSymbolTableRecord
100
AcDbBlockTableRecord
  2
SW_NOTE_0_116
340
0
102
{BLKREFS
331
3B6
102
}
  0
BLOCK_RECORD
  5
3B7
330
1
100
AcDbSymbolTableRecord
100
AcDbBlockTableRecord
  2
SW_NOTE_0_117
340
0
102
{BLKREFS
331
3BB
102
}
  0
BLOCK_RECORD
  5
3BC
330
1
100
AcDbSymbolTableRecord
100
AcDbBlockTableRecord
  2
SW_NOTE_0_118
340
0
102
{BLKREFS
331
3C0
102
}
  0
BLOCK_RECORD
  5
3C1
330
1
100
AcDbSymbolTableRecord
100
AcDbBlockTableRecord
  2
SW_NOTE_0_119
340
0
102
{BLKREFS
331
3C5
102
}
  0
BLOCK_RECORD
  5
3C6
330
1
100
AcDbSymbolTableRecord
100
AcDbBlockTableRecord
  2
_OBLIQUE_0
340
0
102
{BLKREFS
331
3D0
331
3D1
331
3D2
331
3D3
331
3D4
331
3D5
102
}
  0
BLOCK_RECORD
  5
43B
330
1
100
AcDbSymbolTableRecord
100
AcDbBlockTableRecord
  2
$TD_AUDIT_GENERATED_(0)
340
0
102
{BLKREFS
331
3CA
331
3CB
331
3CC
331
3CD
331
3CE
331
3CF
102
}
  0
ENDTAB
  0
ENDSEC
  0
SECTION
  2
BLOCKS
  0
BLOCK
  5
20
330
1F
100
AcDbEntity
  8
0
100
AcDbBlockBegin
  2
*Model_Space
 70
     0
 10
0.0
 20
0.0
 30
0.0
  3
*Model_Space
  1

  0
ENDBLK
  5
21
330
1F
100
AcDbEntity
  8
0
100
AcDbBlockEnd
  0
BLOCK
  5
1C
330
1B
100
AcDbEntity
 67
     1
  8
0
100
AcDbBlockBegin
  2
*Paper_Space
 70
     0
 10
0.0
 20
0.0
 30
0.0
  3
*Paper_Space
  1

  0
ENDBLK
  5
1D
330
1B
100
AcDbEntity
 67
     1
  8
0
100
AcDbBlockEnd
  0
BLOCK
  5
24
330
23
100
AcDbEntity
  8
0
100
AcDbBlockBegin
  2
*Paper_Space0
 70
     0
 10
0.0
 20
0.0
 30
0.0
  3
*Paper_Space0
  1

  0
ENDBLK
  5
25
330
23
100
AcDbEntity
  8
0
100
AcDbBlockEnd
  0
BLOCK
  5
77
330
76
100
AcDbEntity
  8
0
100
AcDbBlockBegin
  2
CADRE A2_OPUS_V1
 70
     0
 10
0.0
 20
0.0
 30
0.0
  3
CADRE A2_OPUS_V1
  1

  0
LINE
  5
79
330
76
100
AcDbEntity
  8
0
  6
Continuous
 62
     7
370
    25
100
AcDbLine
 10
604.9999990427
 20
409.9999994493
 30
0.0
 11
1178.9999990427
 21
409.9999994493
 31
0.0
  0
LINE
  5
7A
330
76
100
AcDbEntity
  8
0
  6
Continuous
 62
     7
370
    25
100
AcDbLine
 10
604.9999990427
 20
9.9999994493
 30
0.0
 11
604.9999990427
 21
409.9999994493
 31
0.0
  0
LINE
  5
7B
330
76
100
AcDbEntity
  8
0
  6
Continuous
 62
     7
370
    25
100
AcDbLine
 10
1178.9999990427
 20
9.9999994493
 30
0.0
 11
604.9999990427
 21
9.9999994493
 31
0.0
  0
LINE
  5
7C
330
76
100
AcDbEntity
  8
0
  6
Continuous
 62
     7
370
    25
100
AcDbLine
 10
1178.9999990427
 20
409.9999994493
 30
0.0
 11
1178.9999990427
 21
9.9999994493
 31
0.0
  0
LINE
  5
7D
330
76
100
AcDbEntity
  8
0
  6
Continuous
 62
     7
370
    25
100
AcDbLine
 10
1178.9999990427
 20
296.9999994493
 30
0.0
 11
1188.9999990427
 21
296.9999994493
 31
0.0
  0
LINE
  5
7E
330
76
100
AcDbEntity
  8
0
  6
Continuous
 62
     7
370
    25
100
AcDbLine
 10
978.9999990427
 20
9.9999994493
 30
0.0
 11
978.9999990427
 21
-0.0000005507
 31
0.0
  0
LINE
  5
7F
330
76
100
AcDbEntity
  8
0
  6
Continuous
 62
     7
370
    25
100
AcDbLine
 10
768.9999990427
 20
9.9999994493
 30
0.0
 11
768.9999990427
 21
-0.0000005507
 31
0.0
  0
LINE
  5
80
330
76
100
AcDbEntity
  8
0
  6
Continuous
 62
     7
370
    25
100
AcDbLine
 10
978.9999990426
 20
419.9999994493
 30
0.0
 11
978.9999990426
 21
409.9999994493
 31
0.0
  0
LINE
  5
81
330
76
100
AcDbEntity
  8
0
  6
Continuous
 62
     7
370
    25
100
AcDbLine
 10
768.9999990426
 20
419.9999994493
 30
0.0
 11
768.9999990426
 21
409.9999994493
 31
0.0
  0
LINE
  5
82
330
76
100
AcDbEntity
  8
0
  6
Continuous
 62
     7
370
    25
100
AcDbLine
 10
594.9999990427
 20
296.9999994493
 30
0.0
 11
604.9999990427
 21
296.9999994493
 31
0.0
  0
INSERT
  5
88
330
76
100
AcDbEntity
  8
0
  6
Continuous
 62
     7
370
    18
100
AcDbBlockReference
  2
SW_NOTE_0
 10
1087.7709578202
 20
0.8342294417
 30
0.0
  0
INSERT
  5
8D
330
76
100
AcDbEntity
  8
0
  6
Continuous
 62
     7
370
    18
100
AcDbBlockReference
  2
SW_NOTE_0_1
 10
865.3129979078
 20
0.8342294417
 30
0.0
  0
INSERT
  5
92
330
76
100
AcDbEntity
  8
0
  6
Continuous
 62
     7
370
    18
100
AcDbBlockReference
  2
SW_NOTE_0_2
 10
661.83546142
 20
0.8342294417
 30
0.0
  0
INSERT
  5
97
330
76
100
AcDbEntity
  8
0
  6
Continuous
 62
     7
370
    18
100
AcDbBlockReference
  2
SW_NOTE_0_3
 10
1182.7047736308
 20
157.5170224934
 30
0.0
  0
INSERT
  5
9C
330
76
100
AcDbEntity
  8
0
  6
Continuous
 62
     7
370
    18
100
AcDbBlockReference
  2
SW_NOTE_0_4
 10
1182.2527435782
 20
354.7377692781
 30
0.0
  0
INSERT
  5
A1
330
76
100
AcDbEntity
  8
0
  6
Continuous
 62
     7
370
    18
100
AcDbBlockReference
  2
SW_NOTE_0_5
 10
1087.7709578201
 20
410.8342294417
 30
0.0
  0
INSERT
  5
A6
330
76
100
AcDbEntity
  8
0
  6
Continuous
 62
     7
370
    18
100
AcDbBlockReference
  2
SW_NOTE_0_6
 10
865.3129979077
 20
410.8342294417
 30
0.0
  0
INSERT
  5
AB
330
76
100
AcDbEntity
  8
0
  6
Continuous
 62
     7
370
    18
100
AcDbBlockReference
  2
SW_NOTE_0_7
 10
661.83546142
 20
410.8342294417
 30
0.0
  0
INSERT
  5
B0
330
76
100
AcDbEntity
  8
0
  6
Continuous
 62
     7
370
    18
100
AcDbBlockReference
  2
SW_NOTE_0_8
 10
598.7047736308
 20
157.5170224933
 30
0.0
  0
INSERT
  5
B5
330
76
100
AcDbEntity
  8
0
  6
Continuous
 62
     7
370
    18
100
AcDbBlockReference
  2
SW_NOTE_0_9
 10
598.2527435781
 20
354.737769278
 30
0.0
  0
ENDBLK
  5
78
330
76
100
AcDbEntity
  8
0
100
AcDbBlockEnd
  0
BLOCK
  5
84
330
83
100
AcDbEntity
  8
0
100
AcDbBlockBegin
  2
SW_NOTE_0
 70
     0
 10
0.0
 20
0.0
 30
0.0
  3
SW_NOTE_0
  1

  0
MTEXT
  5
87
330
83
100
AcDbEntity
  8
0
  6
Continuous
 62
     0
370
    18
100
AcDbMText
 10
0.0
 20
6.4453386989
 30
0.0
 40
5.0
 41
0.0
 71
     1
 72
     1
  1
A
  7
SLDTEXTSTYLE0
 73
     1
 44
1.0
  0
ENDBLK
  5
85
330
83
100
AcDbEntity
  8
0
100
AcDbBlockEnd
  0
BLOCK
  5
8A
330
89
100
AcDbEntity
  8
0
100
AcDbBlockBegin
  2
SW_NOTE_0_1
 70
     0
 10
0.0
 20
0.0
 30
0.0
  3
SW_NOTE_0_1
  1

  0
MTEXT
  5
8C
330
89
100
AcDbEntity
  8
0
  6
Continuous
 62
     0
370
    18
100
AcDbMText
 10
0.0
 20
6.4453386989
 30
0.0
 40
5.0
 41
0.0
 71
     1
 72
     1
  1
B
  7
SLDTEXTSTYLE0
 73
     1
 44
1.0
  0
ENDBLK
  5
8B
330
89
100
AcDbEntity
  8
0
100
AcDbBlockEnd
  0
BLOCK
  5
8F
330
8E
100
AcDbEntity
  8
0
100
AcDbBlockBegin
  2
SW_NOTE_0_2
 70
     0
 10
0.0
 20
0.0
 30
0.0
  3
SW_NOTE_0_2
  1

  0
MTEXT
  5
91
330
8E
100
AcDbEntity
  8
0
  6
Continuous
 62
     0
370
    18
100
AcDbMText
 10
0.0
 20
6.4453386989
 30
0.0
 40
5.0
 41
0.0
 71
     1
 72
     1
  1
C
  7
SLDTEXTSTYLE0
 73
     1
 44
1.0
  0
ENDBLK
  5
90
330
8E
100
AcDbEntity
  8
0
100
AcDbBlockEnd
  0
BLOCK
  5
94
330
93
100
AcDbEntity
  8
0
100
AcDbBlockBegin
  2
SW_NOTE_0_3
 70
     0
 10
0.0
 20
0.0
 30
0.0
  3
SW_NOTE_0_3
  1

  0
MTEXT
  5
96
330
93
100
AcDbEntity
  8
0
  6
Continuous
 62
     0
370
    18
100
AcDbMText
 10
0.0
 20
6.4453386989
 30
0.0
 40
5.0
 41
0.0
 71
     1
 72
     1
  1
1
  7
SLDTEXTSTYLE0
 73
     1
 44
1.0
  0
ENDBLK
  5
95
330
93
100
AcDbEntity
  8
0
100
AcDbBlockEnd
  0
BLOCK
  5
99
330
98
100
AcDbEntity
  8
0
100
AcDbBlockBegin
  2
SW_NOTE_0_4
 70
     0
 10
0.0
 20
0.0
 30
0.0
  3
SW_NOTE_0_4
  1

  0
MTEXT
  5
9B
330
98
100
AcDbEntity
  8
0
  6
Continuous
 62
     0
370
    18
100
AcDbMText
 10
0.0
 20
6.4453386989
 30
0.0
 40
5.0
 41
0.0
 71
     1
 72
     1
  1
2
  7
SLDTEXTSTYLE0
 73
     1
 44
1.0
  0
ENDBLK
  5
9A
330
98
100
AcDbEntity
  8
0
100
AcDbBlockEnd
  0
BLOCK
  5
9E
330
9D
100
AcDbEntity
  8
0
100
AcDbBlockBegin
  2
SW_NOTE_0_5
 70
     0
 10
0.0
 20
0.0
 30
0.0
  3
SW_NOTE_0_5
  1

  0
MTEXT
  5
A0
330
9D
100
AcDbEntity
  8
0
  6
Continuous
 62
     0
370
    18
100
AcDbMText
 10
0.0
 20
6.4453386989
 30
0.0
 40
5.0
 41
0.0
 71
     1
 72
     1
  1
A
  7
SLDTEXTSTYLE0
 73
     1
 44
1.0
  0
ENDBLK
  5
9F
330
9D
100
AcDbEntity
  8
0
100
AcDbBlockEnd
  0
BLOCK
  5
A3
330
A2
100
AcDbEntity
  8
0
100
AcDbBlockBegin
  2
SW_NOTE_0_6
 70
     0
 10
0.0
 20
0.0
 30
0.0
  3
SW_NOTE_0_6
  1

  0
MTEXT
  5
A5
330
A2
100
AcDbEntity
  8
0
  6
Continuous
 62
     0
370
    18
100
AcDbMText
 10
0.0
 20
6.4453386989
 30
0.0
 40
5.0
 41
0.0
 71
     1
 72
     1
  1
B
  7
SLDTEXTSTYLE0
 73
     1
 44
1.0
  0
ENDBLK
  5
A4
330
A2
100
AcDbEntity
  8
0
100
AcDbBlockEnd
  0
BLOCK
  5
A8
330
A7
100
AcDbEntity
  8
0
100
AcDbBlockBegin
  2
SW_NOTE_0_7
 70
     0
 10
0.0
 20
0.0
 30
0.0
  3
SW_NOTE_0_7
  1

  0
MTEXT
  5
AA
330
A7
100
AcDbEntity
  8
0
  6
Continuous
 62
     0
370
    18
100
AcDbMText
 10
0.0
 20
6.4453386989
 30
0.0
 40
5.0
 41
0.0
 71
     1
 72
     1
  1
C
  7
SLDTEXTSTYLE0
 73
     1
 44
1.0
  0
ENDBLK
  5
A9
330
A7
100
AcDbEntity
  8
0
100
AcDbBlockEnd
  0
BLOCK
  5
AD
330
AC
100
AcDbEntity
  8
0
100
AcDbBlockBegin
  2
SW_NOTE_0_8
 70
     0
 10
0.0
 20
0.0
 30
0.0
  3
SW_NOTE_0_8
  1

  0
MTEXT
  5
AF
330
AC
100
AcDbEntity
  8
0
  6
Continuous
 62
     0
370
    18
100
AcDbMText
 10
0.0
 20
6.4453386989
 30
0.0
 40
5.0
 41
0.0
 71
     1
 72
     1
  1
1
  7
SLDTEXTSTYLE0
 73
     1
 44
1.0
  0
ENDBLK
  5
AE
330
AC
100
AcDbEntity
  8
0
100
AcDbBlockEnd
  0
BLOCK
  5
B2
330
B1
100
AcDbEntity
  8
0
100
AcDbBlockBegin
  2
SW_NOTE_0_9
 70
     0
 10
0.0
 20
0.0
 30
0.0
  3
SW_NOTE_0_9
  1

  0
MTEXT
  5
B4
330
B1
100
AcDbEntity
  8
0
  6
Continuous
 62
     0
370
    18
100
AcDbMText
 10
0.0
 20
6.4453386989
 30
0.0
 40
5.0
 41
0.0
 71
     1
 72
     1
  1
2
  7
SLDTEXTSTYLE0
 73
     1
 44
1.0
  0
ENDBLK
  5
B3
330
B1
100
AcDbEntity
  8
0
100
AcDbBlockEnd
  0
BLOCK
  5
B7
330
B6
100
AcDbEntity
  8
0
100
AcDbBlockBegin
  2
Cartouche OPUS V1
 70
     2
 10
0.0
 20
0.0
 30
0.0
  3
Cartouche OPUS V1
  1

  0
CIRCLE
  5
B9
330
B6
100
AcDbEntity
  8
0
  6
Continuous
 62
     7
370
    35
100
AcDbCircle
 10
1170.8885811528
 20
44.5248092219
 30
0.0
 40
2.499999999999893
  0
CIRCLE
  5
BA
330
B6
100
AcDbEntity
  8
0
  6
Continuous
 62
     7
370
    35
100
AcDbCircle
 10
1170.8885811528
 20
44.6059403459
 30
0.0
 40
4.999999999999785
  0
LINE
  5
BB
330
B6
100
AcDbEntity
  8
0
  6
Continuous
 62
     7
370
    18
100
AcDbLine
 10
1108.2404037712
 20
19.87
 30
0.0
 11
1108.2404037712
 21
9.87
 31
0.0
  0
LINE
  5
BC
330
B6
100
AcDbEntity
  8
0
  6
Continuous
 62
     7
370
    18
100
AcDbLine
 10
1081.9908661242
 20
80.87
 30
0.0
 11
1081.9908661242
 21
105.3937238882
 31
0.0
  0
LINE
  5
BD
330
B6
100
AcDbEntity
  8
0
  6
Continuous
 62
     7
370
    18
100
AcDbLine
 10
988.86
 20
111.3937238882
 30
0.0
 11
988.86
 21
147.3937238882
 31
0.0
  0
LINE
  5
BE
330
B6
100
AcDbEntity
  8
0
  6
Continuous
 62
     7
370
    18
100
AcDbLine
 10
1081.9908661242
 20
99.3374727332
 30
0.0
 11
1130.4254330621
 21
99.3374727332
 31
0.0
  0
LINE
  5
BF
330
B6
100
AcDbEntity
  8
0
  6
Continuous
 62
     7
370
    18
100
AcDbLine
 10
1081.9908661242
 20
92.4683483101
 30
0.0
 11
1130.4254330621
 21
92.4683483101
 31
0.0
  0
LINE
  5
C0
330
B6
100
AcDbEntity
  8
0
  6
Continuous
 62
     7
370
    18
100
AcDbLine
 10
1130.4254330621
 20
105.3937238882
 30
0.0
 11
1130.4254330621
 21
80.87
 31
0.0
  0
LINE
  5
C1
330
B6
100
AcDbEntity
  8
0
  6
Continuous
 62
     7
370
    18
100
AcDbLine
 10
1106.2081495931
 20
99.3374727332
 30
0.0
 11
1106.2081495931
 21
80.87
 31
0.0
  0
LINE
  5
C2
330
B6
100
AcDbEntity
  8
0
  6
Continuous
 62
     7
370
    18
100
AcDbLine
 10
1130.4254330621
 20
99.3374727332
 30
0.0
 11
1178.86
 21
99.3374727332
 31
0.0
  0
LINE
  5
C3
330
B6
100
AcDbEntity
  8
0
  6
Continuous
 62
     7
370
    18
100
AcDbLine
 10
1068.86
 20
76.7050662177
 30
0.0
 11
1068.86
 21
80.87
 31
0.0
  0
LINE
  5
C4
330
B6
100
AcDbEntity
  8
0
  6
Continuous
 62
     7
370
    18
100
AcDbLine
 10
1130.4254330621
 20
92.4683483101
 30
0.0
 11
1178.86
 21
92.4683483101
 31
0.0
  0
LINE
  5
C5
330
B6
100
AcDbEntity
  8
0
  6
Continuous
 62
     7
370
    18
100
AcDbLine
 10
1154.6427165311
 20
99.3374727332
 30
0.0
 11
1154.6427165311
 21
80.87
 31
0.0
  0
LINE
  5
C6
330
B6
100
AcDbEntity
  8
0
  6
Continuous
 62
     7
370
    18
100
AcDbLine
 10
988.86
 20
117.3937238882
 30
0.0
 11
1178.86
 21
117.3937238882
 31
0.0
  0
LINE
  5
C7
330
B6
100
AcDbEntity
  8
0
  6
Continuous
 62
     7
370
    18
100
AcDbLine
 10
988.86
 20
111.3937238882
 30
0.0
 11
1178.86
 21
111.3937238882
 31
0.0
  0
LINE
  5
C8
330
B6
100
AcDbEntity
  8
0
  6
Continuous
 62
     7
370
    18
100
AcDbLine
 10
988.86
 20
147.3937238882
 30
0.0
 11
1178.86
 21
147.3937238882
 31
0.0
  0
LINE
  5
C9
330
B6
100
AcDbEntity
  8
0
  6
Continuous
 62
     7
370
    18
100
AcDbLine
 10
988.86
 20
123.3937238882
 30
0.0
 11
1178.86
 21
123.3937238882
 31
0.0
  0
LINE
  5
CA
330
B6
100
AcDbEntity
  8
0
  6
Continuous
 62
     7
370
    18
100
AcDbLine
 10
1149.8162973836
 20
34.87
 30
0.0
 11
1149.8162973836
 21
54.87
 31
0.0
  0
LINE
  5
CB
330
B6
100
AcDbEntity
  8
0
  6
Continuous
 62
     7
370
    18
100
AcDbLine
 10
1068.86
 20
63.5366666667
 30
0.0
 11
1178.86
 21
63.5366666667
 31
0.0
  0
LINE
  5
CC
330
B6
100
AcDbEntity
  8
SLD-0
100
AcDbLine
 10
1009.9255274221
 20
47.4104806357
 30
0.0
 11
1012.895375903
 21
44.4406321548
 31
0.0
  0
LINE
  5
CD
330
B6
100
AcDbEntity
  8
0
  6
Continuous
 62
     7
370
    18
100
AcDbLine
 10
988.86
 20
34.87
 30
0.0
 11
1178.86
 21
34.87
 31
0.0
  0
LINE
  5
CE
330
B6
100
AcDbEntity
  8
0
  6
Continuous
 62
     7
370
    18
100
AcDbLine
 10
1028.86
 20
54.87
 30
0.0
 11
1178.86
 21
54.87
 31
0.0
  0
LINE
  5
CF
330
B6
100
AcDbEntity
  8
0
  6
Continuous
 62
     7
370
    18
100
AcDbLine
 10
1164.1580647406
 20
34.87
 30
0.0
 11
1164.1580647406
 21
19.87
 31
0.0
  0
LINE
  5
D0
330
B6
100
AcDbEntity
  8
0
  6
Continuous
 62
     7
370
    18
100
AcDbLine
 10
1028.86
 20
76.7050662177
 30
0.0
 11
1028.86
 21
54.87
 31
0.0
  0
LINE
  5
D1
330
B6
100
AcDbEntity
  8
0
  6
Continuous
 62
     7
370
    18
100
AcDbLine
 10
988.86
 20
76.7050662177
 30
0.0
 11
1068.86
 21
76.7050662177
 31
0.0
  0
LINE
  5
D2
330
B6
100
AcDbEntity
  8
0
  6
Continuous
 62
     7
370
    35
100
AcDbLine
 10
1152.4962453931
 20
47.0693647756
 30
0.0
 11
1152.4962453931
 21
42.0693647756
 31
0.0
  0
LINE
  5
D3
330
B6
100
AcDbEntity
  8
0
  6
Continuous
 62
     7
370
    35
100
AcDbLine
 10
1152.4962453931
 20
42.0693647756
 30
0.0
 11
1162.4962453931
 21
39.5693647756
 31
0.0
  0
LINE
  5
D4
330
B6
100
AcDbEntity
  8
0
  6
Continuous
 62
     7
370
    35
100
AcDbLine
 10
1162.4962453931
 20
39.5693647756
 30
0.0
 11
1162.4962453931
 21
49.5693647756
 31
0.0
  0
LINE
  5
D5
330
B6
100
AcDbEntity
  8
0
  6
Continuous
 62
     7
370
    35
100
AcDbLine
 10
1162.4962453931
 20
49.5693647756
 30
0.0
 11
1152.4962453931
 21
47.0693647756
 31
0.0
  0
LINE
  5
D6
330
B6
100
AcDbEntity
  8
SLD-0
100
AcDbLine
 10
1012.895375903
 20
44.4406321548
 30
0.0
 11
1009.9255274221
 21
44.4406321548
 31
0.0
  0
LINE
  5
D7
330
B6
100
AcDbEntity
  8
0
  6
Continuous
 62
     7
370
    18
100
AcDbLine
 10
1149.8162973836
 20
34.87
 30
0.0
 11
1149.8162973836
 21
19.8699998277
 31
0.0
  0
LINE
  5
D8
330
B6
100
AcDbEntity
  8
0
  6
Continuous
 62
     7
370
    18
100
AcDbLine
 10
1028.86
 20
34.87
 30
0.0
 11
1028.86
 21
19.87
 31
0.0
  0
LINE
  5
D9
330
B6
100
AcDbEntity
  8
0
  6
Continuous
 62
     7
370
    18
100
AcDbLine
 10
1008.86
 20
34.87
 30
0.0
 11
1008.86
 21
19.87
 31
0.0
  0
LINE
  5
DA
330
B6
100
AcDbEntity
  8
0
  6
Continuous
 62
     7
370
    18
100
AcDbLine
 10
1178.86
 20
72.2033333333
 30
0.0
 11
1068.86
 21
72.2033333333
 31
0.0
  0
LINE
  5
DB
330
B6
100
AcDbEntity
  8
0
  6
Continuous
 62
     7
370
    18
100
AcDbLine
 10
1149.8162973836
 20
72.2033333333
 30
0.0
 11
1149.8162973836
 21
80.87
 31
0.0
  0
LINE
  5
DC
330
B6
100
AcDbEntity
  8
0
  6
Continuous
 62
     7
370
    25
100
AcDbLine
 10
1178.86
 20
105.3937238882
 30
0.0
 11
988.86
 21
105.3937238882
 31
0.0
  0
LINE
  5
DD
330
B6
100
AcDbEntity
  8
0
  6
Continuous
 62
     7
370
    25
100
AcDbLine
 10
988.86
 20
9.87
 30
0.0
 11
988.86
 21
105.3937238882
 31
0.0
  0
LINE
  5
DE
330
B6
100
AcDbEntity
  8
0
  6
Continuous
 62
     7
370
    18
100
AcDbLine
 10
998.86
 20
147.3937238882
 30
0.0
 11
998.86
 21
111.3937238882
 31
0.0
  0
LINE
  5
DF
330
B6
100
AcDbEntity
  8
0
  6
Continuous
 62
     7
370
    18
100
AcDbLine
 10
988.86
 20
129.3937238882
 30
0.0
 11
1178.86
 21
129.3937238882
 31
0.0
  0
LINE
  5
E0
330
B6
100
AcDbEntity
  8
0
  6
Continuous
 62
     7
370
    18
100
AcDbLine
 10
1018.86
 20
147.3937238882
 30
0.0
 11
1018.86
 21
111.3937238882
 31
0.0
  0
LINE
  5
E1
330
B6
100
AcDbEntity
  8
0
  6
Continuous
 62
     7
370
    18
100
AcDbLine
 10
1161.1935401507
 20
111.3937238882
 30
0.0
 11
1161.1935401507
 21
147.3937238882
 31
0.0
  0
LINE
  5
E2
330
B6
100
AcDbEntity
  8
0
  6
Continuous
 62
     7
370
    18
100
AcDbLine
 10
1036.7584565369
 20
57.0772409291
 30
0.0
 11
1039.7584565369
 21
63.0772409291
 31
0.0
  0
LINE
  5
E3
330
B6
100
AcDbEntity
  8
0
  6
Continuous
 62
     7
370
    18
100
AcDbLine
 10
1035.2584565369
 20
60.0772409291
 30
0.0
 11
1038.2584565369
 21
60.0772409291
 31
0.0
  0
LINE
  5
E4
330
B6
100
AcDbEntity
  8
0
  6
Continuous
 62
     7
370
    18
100
AcDbLine
 10
1036.7584565369
 20
57.0772409291
 30
0.0
 11
1035.2584565369
 21
60.0772409291
 31
0.0
  0
LINE
  5
E5
330
B6
100
AcDbEntity
  8
0
  6
Continuous
 62
     7
370
    18
100
AcDbLine
 10
1039.7584565369
 20
63.0772409291
 30
0.0
 11
1050.4174528437
 21
63.0772409291
 31
0.0
  0
LINE
  5
E6
330
B6
100
AcDbEntity
  8
SLD-0
100
AcDbLine
 10
1009.9255274221
 20
44.4406321548
 30
0.0
 11
1009.9255274221
 21
47.4104806357
 31
0.0
  0
LINE
  5
E7
330
B6
100
AcDbEntity
  8
SLD-0
 62
   221
100
AcDbLine
 10
1002.6339407607
 20
44.4406321548
 30
0.0
 11
1002.6339407607
 21
56.4875717134
 31
0.0
  0
LINE
  5
E8
330
B6
100
AcDbEntity
  8
SLD-0
 62
   221
100
AcDbLine
 10
1002.6339407607
 20
40.9906321548
 30
0.0
 11
1002.6339407607
 21
44.4406321548
 31
0.0
  0
LINE
  5
E9
330
B6
100
AcDbEntity
  8
0
  6
Continuous
 62
     7
370
    18
100
AcDbLine
 10
1178.86
 20
19.87
 30
0.0
 11
988.86
 21
19.87
 31
0.0
  0
LINE
  5
EA
330
B6
100
AcDbEntity
  8
SLD-0
 62
   221
100
AcDbLine
 10
1002.5454024956
 20
44.4406321548
 30
0.0
 11
1004.5745657607
 21
44.4406321548
 31
0.0
  0
LINE
  5
EB
330
B6
100
AcDbEntity
  8
SLD-0
 62
   221
100
AcDbLine
 10
1002.5454024956
 20
41.4406321548
 30
0.0
 11
1004.5745657607
 21
41.4406321548
 31
0.0
  0
LINE
  5
EC
330
B6
100
AcDbEntity
  8
SLD-0
 62
   221
100
AcDbLine
 10
1005.7255274221
 20
58.0861061819
 30
0.0
 11
1010.3755274221
 21
58.0861061819
 31
0.0
  0
LINE
  5
ED
330
B6
100
AcDbEntity
  8
SLD-0
 62
   221
100
AcDbLine
 10
1009.9255274221
 20
59.4871071346
 30
0.0
 11
1009.9255274221
 21
56.1454811819
 31
0.0
  0
LINE
  5
EE
330
B6
100
AcDbEntity
  8
SLD-0
 62
   221
100
AcDbLine
 10
1006.1755274221
 20
59.4871071346
 30
0.0
 11
1006.1755274221
 21
56.1454811819
 31
0.0
  0
LINE
  5
EF
330
B6
100
AcDbEntity
  8
SLD-0
 62
   221
100
AcDbLine
 10
1013.9604355384
 20
43.3755725194
 30
0.0
 11
1018.2449037506
 21
47.6600407316
 31
0.0
  0
LINE
  5
F0
330
B6
100
AcDbEntity
  8
SLD-0
 62
   221
100
AcDbLine
 10
1012.1573132464
 20
41.5724502274
 30
0.0
 11
1013.9604355384
 21
43.3755725194
 31
0.0
  0
LINE
  5
F1
330
B6
100
AcDbEntity
  8
SLD-0
 62
   221
100
AcDbLine
 10
1011.4104516625
 20
45.9255563952
 30
0.0
 11
1015.3326646357
 21
42.0033434221
 31
0.0
  0
LINE
  5
F2
330
B6
100
AcDbEntity
  8
SLD-0
 62
   221
100
AcDbLine
 10
1009.9255274221
 20
44.4406321548
 30
0.0
 11
1013.8477403952
 21
40.5184191816
 31
0.0
  0
LINE
  5
F3
330
B6
100
AcDbEntity
  8
SLD-0
100
AcDbLine
 10
1009.9255274221
 20
44.4406321548
 30
0.0
 11
1009.9255274221
 21
59.4871071346
 31
0.0
  0
LINE
  5
F4
330
B6
100
AcDbEntity
  8
SLD-0
100
AcDbLine
 10
1006.1755274221
 20
44.4406321548
 30
0.0
 11
1006.1755274221
 21
59.4871071346
 31
0.0
  0
LINE
  5
F5
330
B6
100
AcDbEntity
  8
SLD-0
100
AcDbLine
 10
998.4725779388
 20
44.4406321548
 30
0.0
 11
1019.4564768832
 21
44.4406321548
 31
0.0
  0
LINE
  5
F6
330
B6
100
AcDbEntity
  8
SLD-0
100
AcDbLine
 10
998.4725779388
 20
41.4406321548
 30
0.0
 11
1019.4564768832
 21
41.4406321548
 31
0.0
  0
LINE
  5
F7
330
B6
100
AcDbEntity
  8
0
  6
Continuous
 62
     7
370
    18
100
AcDbLine
 10
1142.1626801113
 20
147.3937238882
 30
0.0
 11
1142.1626801113
 21
111.3937238882
 31
0.0
  0
LINE
  5
F8
330
B6
100
AcDbEntity
  8
0
  6
Continuous
 62
     7
370
    18
100
AcDbLine
 10
988.86
 20
135.3937238882
 30
0.0
 11
1178.86
 21
135.3937238882
 31
0.0
  0
LINE
  5
F9
330
B6
100
AcDbEntity
  8
0
  6
Continuous
 62
     7
370
    18
100
AcDbLine
 10
988.86
 20
141.3937238882
 30
0.0
 11
1178.86
 21
141.3937238882
 31
0.0
  0
LINE
  5
FA
330
B6
100
AcDbEntity
  8
0
  6
CENTERX2
 62
     7
370
    18
100
AcDbLine
 10
1150.3828918411
 20
44.5248092219
 30
0.0
 11
1177.5148639717
 21
44.5248092219
 31
0.0
  0
LINE
  5
FB
330
B6
100
AcDbEntity
  8
0
  6
CENTERX2
 62
     7
370
    18
100
AcDbLine
 10
1170.8885811528
 20
50.9080533132
 30
0.0
 11
1170.8885811528
 21
38.1415651307
 31
0.0
  0
LINE
  5
FC
330
B6
100
AcDbEntity
  8
0
  6
Continuous
 62
     7
370
    18
100
AcDbLine
 10
1068.86
 20
76.7050662177
 30
0.0
 11
1068.86
 21
54.87
 31
0.0
  0
LINE
  5
FD
330
B6
100
AcDbEntity
  8
0
  6
Continuous
 62
     7
370
    18
100
AcDbLine
 10
1028.86
 20
54.87
 30
0.0
 11
1028.86
 21
34.87
 31
0.0
  0
LINE
  5
FE
330
B6
100
AcDbEntity
  8
0
  6
Continuous
 62
     7
370
    18
100
AcDbLine
 10
1081.9908661242
 20
80.87
 30
0.0
 11
988.86
 21
80.87
 31
0.0
  0
LINE
  5
FF
330
B6
100
AcDbEntity
  8
0
  6
Continuous
 62
     7
370
    18
100
AcDbLine
 10
1081.9908661242
 20
80.87
 30
0.0
 11
1178.86
 21
80.87
 31
0.0
  0
HATCH
  5
100
330
B6
100
AcDbEntity
  8
0
  6
Continuous
 62
   179
100
AcDbHatch
 10
0.0
 20
0.0
 30
0.0
210
0.0
220
0.0
230
1.0
  2
ANSI31
 70
     0
 71
     0
 91
        1
 92
        0
 93
        3
 72
     1
 10
1012.89537590304
 20
44.44063215475447
 11
1009.925527422056
 21
44.44063215475447
 72
     1
 10
1009.925527422056
 20
44.44063215475447
 11
1009.925527422056
 21
47.41048063573911
 72
     1
 10
1009.925527422056
 20
47.41048063573911
 11
1012.89537590304
 21
44.44063215475447
 97
        0
 75
     0
 76
     1
 52
0.0
 41
1.0
 77
     0
 78
     1
 53
45.0
 43
0.0
 44
0.0
 45
-2.245064030267288
 46
2.245064030267288
 79
     0
 98
        1
 10
0.0
 20
0.0
  0
HATCH
  5
101
330
B6
100
AcDbEntity
  8
0
  6
Continuous
 62
     7
100
AcDbHatch
 10
0.0
 20
0.0
 30
0.0
210
0.0
220
0.0
230
1.0
  2
SOLID
 70
     1
 71
     0
 91
        1
 92
        0
 93
        3
 72
     1
 10
1009.925527422056
 20
47.41048063573911
 11
1012.89537590304
 21
44.44063215475447
 72
     1
 10
1012.89537590304
 20
44.44063215475447
 11
1009.925527422056
 21
44.44063215475447
 72
     1
 10
1009.925527422056
 20
44.44063215475447
 11
1009.925527422056
 21
47.41048063573911
 97
        0
 75
     0
 76
     1
 98
        1
 10
0.0
 20
0.0
  0
INSERT
  5
107
330
B6
100
AcDbEntity
  8
0
  6
Continuous
 62
     7
370
     0
100
AcDbBlockReference
  2
SW_NOTE_0_10
 10
991.9375044843
 20
71.7578536868
 30
0.0
  0
INSERT
  5
10B
330
B6
100
AcDbEntity
  8
0
  6
Continuous
 62
     7
370
     0
100
AcDbBlockReference
  2
SW_NOTE_0_11
 10
0.0
 20
0.0
 30
0.0
  0
INSERT
  5
10F
330
B6
100
AcDbEntity
  8
0
  6
Continuous
 62
     7
370
     0
100
AcDbBlockReference
  2
SW_NOTE_0_12
 10
0.0
 20
0.0
 30
0.0
  0
INSERT
  5
113
330
B6
100
AcDbEntity
  8
0
  6
Continuous
 62
     7
370
     0
100
AcDbBlockReference
  2
SW_NOTE_0_13
 10
0.0
 20
0.0
 30
0.0
  0
INSERT
  5
119
330
B6
100
AcDbEntity
  8
0
  6
Continuous
 62
     7
370
     0
100
AcDbBlockReference
  2
SW_NOTE_0_14
 10
1070.4493619664
 20
68.0750875356
 30
0.0
  0
INSERT
  5
11E
330
B6
100
AcDbEntity
  8
0
  6
Continuous
 62
     7
370
     0
100
AcDbBlockReference
  2
SW_NOTE_0_15
 10
1151.1193962747
 20
77.2368085873
 30
0.0
  0
INSERT
  5
124
330
B6
100
AcDbEntity
  8
0
  6
Continuous
 62
     7
370
     0
100
AcDbBlockReference
  2
SW_NOTE_0_16
 10
1070.4347717288
 20
77.2368085873
 30
0.0
  0
INSERT
  5
12E
330
B6
100
AcDbEntity
  8
0
  6
Continuous
 62
     7
370
     0
100
AcDbBlockReference
  2
SW_NOTE_0_17
 10
991.9083136088
 20
63.9832518022
 30
0.0
  0
INSERT
  5
135
330
B6
100
AcDbEntity
  8
0
  6
Continuous
 62
     7
370
     0
100
AcDbBlockReference
  2
SW_NOTE_0_18
 10
1031.9245520879
 20
64.0993214053
 30
0.0
  0
INSERT
  5
13A
330
B6
100
AcDbEntity
  8
0
  6
Continuous
 62
     7
370
     0
100
AcDbBlockReference
  2
SW_NOTE_0_19
 10
1009.7421948363
 20
77.1169825294
 30
0.0
  0
INSERT
  5
13F
330
B6
100
AcDbEntity
  8
0
  6
Continuous
 62
     7
370
     0
100
AcDbBlockReference
  2
SW_NOTE_0_20
 10
1165.9760216239
 20
29.6870480748
 30
0.0
  0
INSERT
  5
144
330
B6
100
AcDbEntity
  8
0
  6
Continuous
 62
     7
370
     0
100
AcDbBlockReference
  2
SW_NOTE_0_21
 10
1151.0336835358
 20
29.6242522663
 30
0.0
  0
INSERT
  5
149
330
B6
100
AcDbEntity
  8
0
  6
Continuous
 62
     7
370
     0
100
AcDbBlockReference
  2
SW_NOTE_0_22
 10
992.1920021783
 20
30.0078842898
 30
0.0
  0
INSERT
  5
150
330
B6
100
AcDbEntity
  8
0
  6
Continuous
 62
     7
370
     0
100
AcDbBlockReference
  2
SW_NOTE_0_23
 10
990.0773037019
 20
14.7019784383
 30
0.0
  0
INSERT
  5
154
330
B6
100
AcDbEntity
  8
0
  6
Continuous
 62
     7
370
     0
100
AcDbBlockReference
  2
SW_NOTE_0_24
 10
0.0
 20
0.0
 30
0.0
  0
INSERT
  5
158
330
B6
100
AcDbEntity
  8
0
  6
Continuous
 62
     7
370
     0
100
AcDbBlockReference
  2
SW_NOTE_0_25
 10
0.0
 20
0.0
 30
0.0
  0
INSERT
  5
15C
330
B6
100
AcDbEntity
  8
0
  6
Continuous
 62
     7
370
     0
100
AcDbBlockReference
  2
SW_NOTE_0_26
 10
0.0
 20
0.0
 30
0.0
  0
INSERT
  5
160
330
B6
100
AcDbEntity
  8
0
  6
Continuous
 62
     7
370
     0
100
AcDbBlockReference
  2
SW_NOTE_0_27
 10
0.0
 20
0.0
 30
0.0
  0
INSERT
  5
164
330
B6
100
AcDbEntity
  8
0
  6
Continuous
 62
     7
370
     0
100
AcDbBlockReference
  2
SW_NOTE_0_28
 10
0.0
 20
0.0
 30
0.0
  0
INSERT
  5
168
330
B6
100
AcDbEntity
  8
0
  6
Continuous
 62
     7
370
     0
100
AcDbBlockReference
  2
SW_NOTE_0_29
 10
0.0
 20
0.0
 30
0.0
  0
INSERT
  5
16C
330
B6
100
AcDbEntity
  8
0
  6
Continuous
 62
     7
370
     0
100
AcDbBlockReference
  2
SW_NOTE_0_30
 10
0.0
 20
0.0
 30
0.0
  0
INSERT
  5
170
330
B6
100
AcDbEntity
  8
0
  6
Continuous
 62
     7
370
     0
100
AcDbBlockReference
  2
SW_NOTE_0_31
 10
0.0
 20
0.0
 30
0.0
  0
INSERT
  5
174
330
B6
100
AcDbEntity
  8
0
  6
Continuous
 62
     7
370
     0
100
AcDbBlockReference
  2
SW_NOTE_0_32
 10
0.0
 20
0.0
 30
0.0
  0
INSERT
  5
178
330
B6
100
AcDbEntity
  8
0
  6
Continuous
 62
     7
370
     0
100
AcDbBlockReference
  2
SW_NOTE_0_33
 10
0.0
 20
0.0
 30
0.0
  0
INSERT
  5
17C
330
B6
100
AcDbEntity
  8
0
  6
Continuous
 62
     7
370
     0
100
AcDbBlockReference
  2
SW_NOTE_0_34
 10
0.0
 20
0.0
 30
0.0
  0
INSERT
  5
180
330
B6
100
AcDbEntity
  8
0
  6
Continuous
 62
     7
370
     0
100
AcDbBlockReference
  2
SW_NOTE_0_35
 10
0.0
 20
0.0
 30
0.0
  0
INSERT
  5
184
330
B6
100
AcDbEntity
  8
0
  6
Continuous
 62
     7
370
     0
100
AcDbBlockReference
  2
SW_NOTE_0_36
 10
0.0
 20
0.0
 30
0.0
  0
INSERT
  5
188
330
B6
100
AcDbEntity
  8
0
  6
Continuous
 62
     7
370
     0
100
AcDbBlockReference
  2
SW_NOTE_0_37
 10
0.0
 20
0.0
 30
0.0
  0
INSERT
  5
18C
330
B6
100
AcDbEntity
  8
0
  6
Continuous
 62
     7
370
     0
100
AcDbBlockReference
  2
SW_NOTE_0_38
 10
0.0
 20
0.0
 30
0.0
  0
INSERT
  5
191
330
B6
100
AcDbEntity
  8
0
  6
Continuous
 62
     7
370
     0
100
AcDbBlockReference
  2
SW_NOTE_0_39
 10
1162.8147749787
 20
112.9169024842
 30
0.0
  0
INSERT
  5
196
330
B6
100
AcDbEntity
  8
0
  6
Continuous
 62
     7
370
     0
100
AcDbBlockReference
  2
SW_NOTE_0_40
 10
1143.6625734918
 20
112.9169024842
 30
0.0
  0
INSERT
  5
19B
330
B6
100
AcDbEntity
  8
0
  6
Continuous
 62
     7
370
     0
100
AcDbBlockReference
  2
SW_NOTE_0_41
 10
1072.8888583192
 20
112.9169024842
 30
0.0
  0
INSERT
  5
1A0
330
B6
100
AcDbEntity
  8
0
  6
Continuous
 62
     7
370
     0
100
AcDbBlockReference
  2
SW_NOTE_0_42
 10
1004.8913230272
 20
112.9947216963
 30
0.0
  0
INSERT
  5
1A5
330
B6
100
AcDbEntity
  8
0
  6
Continuous
 62
     7
370
     0
100
AcDbBlockReference
  2
SW_NOTE_0_43
 10
991.629270626
 20
112.9169024842
 30
0.0
  0
INSERT
  5
1AA
330
B6
100
AcDbEntity
  8
0
  6
Continuous
 62
     7
370
     0
100
AcDbBlockReference
  2
SW_NOTE_0_44
 10
990.0773037019
 20
17.1733579142
 30
0.0
  0
INSERT
  5
1AF
330
B6
100
AcDbEntity
  8
0
  6
Continuous
 62
     7
370
     0
100
AcDbBlockReference
  2
SW_NOTE_0_45
 10
1012.76042606
 20
30.0078842898
 30
0.0
  0
INSERT
  5
1B4
330
B6
100
AcDbEntity
  8
0
  6
Continuous
 62
     7
370
     0
100
AcDbBlockReference
  2
SW_NOTE_0_46
 10
1039.8005665947
 20
57.3152074543
 30
0.0
  0
INSERT
  5
1B9
330
B6
100
AcDbEntity
  8
0
  6
Continuous
 62
     7
370
     0
100
AcDbBlockReference
  2
SW_NOTE_0_47
 10
1031.9245520879
 20
71.7578536868
 30
0.0
  0
INSERT
  5
1BE
330
B6
100
AcDbEntity
  8
0
  6
Continuous
 62
     7
370
     0
100
AcDbBlockReference
  2
SW_NOTE_0_48
 10
989.9454262369
 20
10.0419023584
 30
0.0
  0
INSERT
  5
1C3
330
B6
100
AcDbEntity
  8
0
  6
Continuous
 62
     7
370
     0
100
AcDbBlockReference
  2
SW_NOTE_0_49
 10
1109.5419135541
 20
15.8904111296
 30
0.0
  0
INSERT
  5
1C8
330
B6
100
AcDbEntity
  8
0
  6
Continuous
 62
     7
370
     0
100
AcDbBlockReference
  2
SW_NOTE_0_50
 10
1090.8993571243
 20
93.6810164423
 30
0.0
  0
INSERT
  5
1CD
330
B6
100
AcDbEntity
  8
0
  6
Continuous
 62
     7
370
     0
100
AcDbBlockReference
  2
SW_NOTE_0_51
 10
1097.7579482099
 20
100.080906715
 30
0.0
  0
INSERT
  5
1D2
330
B6
100
AcDbEntity
  8
0
  6
Continuous
 62
     7
370
     0
100
AcDbBlockReference
  2
SW_NOTE_0_52
 10
1116.8412776863
 20
93.4596957273
 30
0.0
  0
INSERT
  5
1D7
330
B6
100
AcDbEntity
  8
0
  6
Continuous
 62
     7
370
     0
100
AcDbBlockReference
  2
SW_NOTE_0_53
 10
1164.8077093601
 20
93.4596957273
 30
0.0
  0
INSERT
  5
1DC
330
B6
100
AcDbEntity
  8
0
  6
Continuous
 62
     7
370
     0
100
AcDbBlockReference
  2
SW_NOTE_0_54
 10
1139.1299164571
 20
93.4596957273
 30
0.0
  0
INSERT
  5
1E1
330
B6
100
AcDbEntity
  8
0
  6
Continuous
 62
     7
370
     0
100
AcDbBlockReference
  2
SW_NOTE_0_55
 10
1147.9723150482
 20
100.080906715
 30
0.0
  0
INSERT
  5
1E6
330
B6
100
AcDbEntity
  8
0
  6
Continuous
 62
     7
370
     0
100
AcDbBlockReference
  2
SW_NOTE_0_56
 10
1070.2289929985
 20
59.3091511769
 30
0.0
  0
INSERT
  5
1EB
330
B6
100
AcDbEntity
  8
SLD-0
 62
   179
100
AcDbBlockReference
  2
SW_NOTE_0_57
 10
1010.953117187
 20
57.3113549176
 30
0.0
  0
INSERT
  5
1F0
330
B6
100
AcDbEntity
  8
SLD-0
 62
   179
100
AcDbBlockReference
  2
SW_NOTE_0_58
 10
1000.3866115888
 20
41.4299606429
 30
0.0
  0
INSERT
  5
1F5
330
B6
100
AcDbEntity
  8
SLD-0
 62
   179
100
AcDbBlockReference
  2
SW_NOTE_0_59
 10
1017.4571668429
 20
34.4335663389
 30
0.0
  0
ATTDEF
  5
1F6
330
B6
100
AcDbEntity
  8
0
  6
Continuous
 62
     7
370
     0
100
AcDbText
 10
1014.3465368568
 20
23.8630128235
 30
0.0
 40
4.5
  1
A2
 41
0.75
  7
SLDTEXTSTYLE3
 11
1014.3465368568
 21
21.5353077507
 31
0.0
100
AcDbAttributeDefinition
  3
Format ?
  2
AUTOATTR38
 70
     0
 74
     1
  0
ATTDEF
  5
1F7
330
B6
100
AcDbEntity
  8
0
  6
Continuous
 62
     7
370
     0
100
AcDbText
 10
1051.5127901729
 20
24.7177756429
 30
0.0
 40
9.525
  1
GUS-P1307
 41
0.7
  7
SLDTEXTSTYLE0
 11
1051.5127901729
 21
19.7907999056
 31
0.0
100
AcDbAttributeDefinition
  3
Titre 1 ?
  2
NUMERO
 70
     0
 74
     1
  0
ATTDEF
  5
1F8
330
B6
100
AcDbEntity
  8
0
  6
Continuous
 62
     7
370
     0
100
AcDbText
 10
1166.86
 20
23.838128152
 30
0.0
 40
4.5
  1
2/2
 41
0.75
  7
SLDTEXTSTYLE3
 11
1166.86
 21
21.5104230793
 31
0.0
100
AcDbAttributeDefinition
  3
Planche 1/1 ?
  2
AUTOATTR0
 70
     0
 74
     1
  0
ATTDEF
  5
1F9
330
B6
100
AcDbEntity
  8
0
  6
Continuous
 62
     7
370
     0
100
AcDbText
 10
994.974988212
 20
23.8630128235
 30
0.0
 40
4.5
  1
1:1
 41
0.75
  7
SLDTEXTSTYLE3
 11
994.974988212
 21
21.5353077507
 31
0.0
100
AcDbAttributeDefinition
  3
Echelle ?
  2
AUTOATTR2
 70
     0
 74
     1
  0
ATTDEF
  5
1FA
330
B6
100
AcDbEntity
  8
0
  6
Continuous
 62
     7
370
     0
100
AcDbText
 10
1070.6754411999
 20
38.7263156708
 30
0.0
 40
4.2333333333
  1
FAUTEUIL GUS
 41
0.7
  7
SLDTEXTSTYLE0
 11
1070.6754411999
 21
36.5365486765
 31
0.0
100
AcDbAttributeDefinition
  3

  2
AUTOATTR35
 70
     0
 74
     1
  0
ATTDEF
  5
1FC
330
B6
100
AcDbEntity
  8
0
  6
Continuous
 62
     7
370
     0
100
AcDbText
 10
1042.9557655953
 20
47.1802860741
 30
0.0
 40
7.4083333333
  1
PLAQUE MOTEUR
 41
0.8431403406
  7
SLDTEXTSTYLE4
 11
1042.9557655953
 21
43.3481938339
 31
0.0
100
AcDbAttributeDefinition
  3
Titre 1 ?
  2
DESIGNATION
 70
     0
 74
     1
  0
ATTDEF
  5
1FD
330
B6
100
AcDbEntity
  8
0
  6
Continuous
 62
     7
370
     0
100
AcDbText
 10
1150.7528706218
 20
23.838128152
 30
0.0
 40
4.5
  1
A00
 41
0.75
  7
SLDTEXTSTYLE3
 11
1150.7528706218
 21
21.5104230793
 31
0.0
100
AcDbAttributeDefinition
  3
Format ?
  2
AUTOATTR37
 70
     0
 74
     1
  0
ATTDEF
  5
1FE
330
B6
100
AcDbEntity
  8
0
  6
Continuous
 62
     7
370
     0
100
AcDbText
 10
0.0
 20
0.0
 30
0.0
 40
3.5
  1

100
AcDbAttributeDefinition
  3

  2
AUTOATTR14
 70
     0
  0
ATTDEF
  5
1FF
330
B6
100
AcDbEntity
  8
0
  6
Continuous
 62
     7
370
     0
100
AcDbText
 10
0.0
 20
0.0
 30
0.0
 40
3.5
  1

100
AcDbAttributeDefinition
  3

  2
AUTOATTR15
 70
     0
  0
ATTDEF
  5
200
330
B6
100
AcDbEntity
  8
0
  6
Continuous
 62
     7
370
     0
100
AcDbText
 10
0.0
 20
0.0
 30
0.0
 40
3.5
  1

100
AcDbAttributeDefinition
  3

  2
AUTOATTR16
 70
     0
  0
ATTDEF
  5
201
330
B6
100
AcDbEntity
  8
0
  6
Continuous
 62
     7
370
     0
100
AcDbText
 10
0.0
 20
0.0
 30
0.0
 40
3.5
  1

100
AcDbAttributeDefinition
  3

  2
AUTOATTR17
 70
     0
  0
ATTDEF
  5
202
330
B6
100
AcDbEntity
  8
0
  6
Continuous
 62
     7
370
     0
100
AcDbText
 10
0.0
 20
0.0
 30
0.0
 40
3.5
  1

100
AcDbAttributeDefinition
  3

  2
AUTOATTR18
 70
     0
  0
ATTDEF
  5
203
330
B6
100
AcDbEntity
  8
0
  6
Continuous
 62
     7
370
     0
100
AcDbText
 10
1092.1139861112
 20
86.053149077
 30
0.0
 40
2.1166666667
  1
STD
 41
0.7
  7
SLDTEXTSTYLE0
 11
1092.1139861112
 21
84.9582655798
 31
0.0
100
AcDbAttributeDefinition
  3

  2
DESSINE_PAR
 70
     0
 74
     1
  0
ATTDEF
  5
204
330
B6
100
AcDbEntity
  8
0
  6
Continuous
 62
     7
370
     0
100
AcDbText
 10
0.0
 20
0.0
 30
0.0
 40
3.5
  1

100
AcDbAttributeDefinition
  3

  2
VALIDE_PAR
 70
     0
  0
ATTDEF
  5
205
330
B6
100
AcDbEntity
  8
0
  6
Continuous
 62
     7
370
     0
100
AcDbText
 10
1109.6206633539
 20
85.9752036658
 30
0.0
 40
2.1166666667
  1
04/12/2020
 41
0.7
  7
SLDTEXTSTYLE0
 11
1109.6206633539
 21
84.8803201686
 31
0.0
100
AcDbAttributeDefinition
  3

  2
DESSINE_LE
 70
     0
 74
     1
  0
ATTDEF
  5
206
330
B6
100
AcDbEntity
  8
0
  6
Continuous
 62
     7
370
     0
100
AcDbText
 10
0.0
 20
0.0
 30
0.0
 40
3.5
  1

100
AcDbAttributeDefinition
  3

  2
VALIDE_LE
 70
     0
  0
ATTDEF
  5
207
330
B6
100
AcDbEntity
  8
0
  6
Continuous
 62
     7
370
     0
100
AcDbText
 10
1070.4347717288
 20
74.2887785033
 30
0.0
 40
2.1166666667
  1
3.1325 (2017A) T4
 41
0.7
  7
SLDTEXTSTYLE0
 11
1070.4347717288
 21
73.1938950062
 31
0.0
100
AcDbAttributeDefinition
  3

  2
AUTOATTR13
 70
     0
 74
     1
  0
ATTDEF
  5
208
330
B6
100
AcDbEntity
  8
0
  6
Continuous
 62
     7
370
     0
100
AcDbText
 10
0.0
 20
0.0
 30
0.0
 40
3.5
  1

100
AcDbAttributeDefinition
  3

  2
AUTOATTR33
 70
     0
  0
ATTDEF
  5
209
330
B6
100
AcDbEntity
  8
0
  6
Continuous
 62
     7
370
     0
100
AcDbText
 10
1070.4347717288
 20
56.7715961553
 30
0.0
 40
2.1166666667
  1
MICROBILLAGE
 41
0.7
  7
SLDTEXTSTYLE0
 11
1070.4347717288
 21
55.6767126581
 31
0.0
100
AcDbAttributeDefinition
  3

  2
AUTOATTR34
 70
     0
 74
     1
  0
ATTDEF
  5
20A
330
B6
100
AcDbEntity
  8
0
  6
Continuous
 62
     7
370
     0
100
AcDbText
 10
1150.9068775988
 20
74.2951865813
 30
0.0
 40
2.1166666667
  1
0.04 Kg
 41
0.7
  7
SLDTEXTSTYLE0
 11
1150.9068775988
 21
73.2003030842
 31
0.0
100
AcDbAttributeDefinition
  3

  2
AUTOATTR36
 70
     0
 74
     1
  0
ATTDEF
  5
20C
330
B6
100
AcDbEntity
  8
0
  6
Continuous
 62
     7
370
     0
100
AcDbText
 10
1109.6899263121
 20
12.4160723304
 30
0.0
 40
2.1166666667
  1
GUS-P1307_FIXATION MOTEUR
  7
SLDTEXTSTYLE5
 11
1109.6899263121
 21
11.3211888332
 31
0.0
100
AcDbAttributeDefinition
  3

  2
AUTOATTR39
 70
     0
 74
     1
  0
ATTDEF
  5
20D
330
B6
100
AcDbEntity
  8
0
  6
Continuous
 62
     7
370
     0
100
AcDbText
 10
0.0
 20
0.0
 30
0.0
 40
3.5
  1

100
AcDbAttributeDefinition
  3

  2
AUTOATTR3
 70
     0
  0
ATTDEF
  5
20E
330
B6
100
AcDbEntity
  8
0
  6
Continuous
 62
     7
370
     0
100
AcDbText
 10
0.0
 20
0.0
 30
0.0
 40
3.5
  1

100
AcDbAttributeDefinition
  3

  2
AUTOATTR4
 70
     0
  0
ATTDEF
  5
20F
330
B6
100
AcDbEntity
  8
0
  6
Continuous
 62
     7
370
     0
100
AcDbText
 10
0.0
 20
0.0
 30
0.0
 40
3.5
  1

100
AcDbAttributeDefinition
  3

  2
AUTOATTR5
 70
     0
  0
ATTDEF
  5
210
330
B6
100
AcDbEntity
  8
0
  6
Continuous
 62
     7
370
     0
100
AcDbText
 10
0.0
 20
0.0
 30
0.0
 40
3.5
  1

100
AcDbAttributeDefinition
  3

  2
AUTOATTR6
 70
     0
  0
ATTDEF
  5
211
330
B6
100
AcDbEntity
  8
0
  6
Continuous
 62
     7
370
     0
100
AcDbText
 10
0.0
 20
0.0
 30
0.0
 40
3.5
  1

100
AcDbAttributeDefinition
  3

  2
AUTOATTR7
 70
     0
  0
ATTDEF
  5
212
330
B6
100
AcDbEntity
  8
0
  6
Continuous
 62
     7
370
     0
100
AcDbText
 10
0.0
 20
0.0
 30
0.0
 40
3.5
  1

100
AcDbAttributeDefinition
  3

  2
AUTOATTR20
 70
     0
  0
ATTDEF
  5
213
330
B6
100
AcDbEntity
  8
0
  6
Continuous
 62
     7
370
     0
100
AcDbText
 10
0.0
 20
0.0
 30
0.0
 40
3.5
  1

100
AcDbAttributeDefinition
  3

  2
AUTOATTR21
 70
     0
  0
ATTDEF
  5
214
330
B6
100
AcDbEntity
  8
0
  6
Continuous
 62
     7
370
     0
100
AcDbText
 10
0.0
 20
0.0
 30
0.0
 40
3.5
  1

100
AcDbAttributeDefinition
  3

  2
AUTOATTR22
 70
     0
  0
ATTDEF
  5
215
330
B6
100
AcDbEntity
  8
0
  6
Continuous
 62
     7
370
     0
100
AcDbText
 10
0.0
 20
0.0
 30
0.0
 40
3.5
  1

100
AcDbAttributeDefinition
  3

  2
AUTOATTR10
 70
     0
  0
ATTDEF
  5
216
330
B6
100
AcDbEntity
  8
0
  6
Continuous
 62
     7
370
     0
100
AcDbText
 10
0.0
 20
0.0
 30
0.0
 40
3.5
  1

100
AcDbAttributeDefinition
  3

  2
AUTOATTR23
 70
     0
  0
ATTDEF
  5
217
330
B6
100
AcDbEntity
  8
0
  6
Continuous
 62
     7
370
     0
100
AcDbText
 10
0.0
 20
0.0
 30
0.0
 40
3.5
  1

100
AcDbAttributeDefinition
  3

  2
AUTOATTR24
 70
     0
  0
ATTDEF
  5
218
330
B6
100
AcDbEntity
  8
0
  6
Continuous
 62
     7
370
     0
100
AcDbText
 10
0.0
 20
0.0
 30
0.0
 40
3.5
  1

100
AcDbAttributeDefinition
  3

  2
AUTOATTR8
 70
     0
  0
ATTDEF
  5
219
330
B6
100
AcDbEntity
  8
0
  6
Continuous
 62
     7
370
     0
100
AcDbText
 10
0.0
 20
0.0
 30
0.0
 40
3.5
  1

100
AcDbAttributeDefinition
  3

  2
AUTOATTR25
 70
     0
  0
ATTDEF
  5
21A
330
B6
100
AcDbEntity
  8
0
  6
Continuous
 62
     7
370
     0
100
AcDbText
 10
0.0
 20
0.0
 30
0.0
 40
3.5
  1

100
AcDbAttributeDefinition
  3

  2
AUTOATTR26
 70
     0
  0
ATTDEF
  5
21B
330
B6
100
AcDbEntity
  8
0
  6
Continuous
 62
     7
370
     0
100
AcDbText
 10
0.0
 20
0.0
 30
0.0
 40
3.5
  1

100
AcDbAttributeDefinition
  3

  2
AUTOATTR9
 70
     0
  0
ATTDEF
  5
21C
330
B6
100
AcDbEntity
  8
0
  6
Continuous
 62
     7
370
     0
100
AcDbText
 10
0.0
 20
0.0
 30
0.0
 40
3.5
  1

100
AcDbAttributeDefinition
  3

  2
AUTOATTR27
 70
     0
  0
ATTDEF
  5
21D
330
B6
100
AcDbEntity
  8
0
  6
Continuous
 62
     7
370
     0
100
AcDbText
 10
0.0
 20
0.0
 30
0.0
 40
3.5
  1

100
AcDbAttributeDefinition
  3

  2
AUTOATTR28
 70
     0
  0
ATTDEF
  5
21E
330
B6
100
AcDbEntity
  8
0
  6
Continuous
 62
     7
370
     0
100
AcDbText
 10
0.0
 20
0.0
 30
0.0
 40
3.5
  1

100
AcDbAttributeDefinition
  3

  2
AUTOATTR11
 70
     0
  0
ATTDEF
  5
21F
330
B6
100
AcDbEntity
  8
0
  6
Continuous
 62
     7
370
     0
100
AcDbText
 10
0.0
 20
0.0
 30
0.0
 40
3.5
  1

100
AcDbAttributeDefinition
  3

  2
AUTOATTR29
 70
     0
  0
ATTDEF
  5
220
330
B6
100
AcDbEntity
  8
0
  6
Continuous
 62
     7
370
     0
100
AcDbText
 10
0.0
 20
0.0
 30
0.0
 40
3.5
  1

100
AcDbAttributeDefinition
  3

  2
AUTOATTR30
 70
     0
  0
INSERT
  5
3CA
330
B6
100
AcDbEntity
  8
0
  6
Continuous
 62
     7
100
AcDbBlockReference
  2
$TD_AUDIT_GENERATED_(0)
 10
1009.9255274221
 20
58.0861061819
 30
0.0
  0
INSERT
  5
3CB
330
B6
100
AcDbEntity
  8
0
  6
Continuous
 62
     7
100
AcDbBlockReference
  2
$TD_AUDIT_GENERATED_(0)
 10
1002.6339407607
 20
41.4406321548
 30
0.0
 50
270.0
  0
INSERT
  5
3CC
330
B6
100
AcDbEntity
  8
0
  6
Continuous
 62
     7
100
AcDbBlockReference
  2
$TD_AUDIT_GENERATED_(0)
 10
1012.4755112979
 20
41.8906482788
 30
0.0
 50
225.0
  0
INSERT
  5
3CD
330
B6
100
AcDbEntity
  8
0
  6
Continuous
 62
     7
100
AcDbBlockReference
  2
$TD_AUDIT_GENERATED_(0)
 10
1006.1755274221
 20
58.0861061818
 30
0.0
 50
180.0
  0
INSERT
  5
3CE
330
B6
100
AcDbEntity
  8
0
  6
Continuous
 62
     7
100
AcDbBlockReference
  2
$TD_AUDIT_GENERATED_(0)
 10
1002.6339407607
 20
44.4406321548
 30
0.0
 50
90.0
  0
INSERT
  5
3CF
330
B6
100
AcDbEntity
  8
0
  6
Continuous
 62
     7
100
AcDbBlockReference
  2
$TD_AUDIT_GENERATED_(0)
 10
1013.9604355384
 20
43.3755725194
 30
0.0
 50
45.0
  0
ENDBLK
  5
B8
330
B6
100
AcDbEntity
  8
0
100
AcDbBlockEnd
  0
BLOCK
  5
103
330
102
100
AcDbEntity
  8
0
100
AcDbBlockBegin
  2
SW_NOTE_0_10
 70
     0
 10
0.0
 20
0.0
 30
0.0
  3
SW_NOTE_0_10
  1

  0
MTEXT
  5
105
330
102
100
AcDbEntity
  8
0
  6
Continuous
 62
     0
370
     0
100
AcDbMText
 10
0.0
 20
3.2226693494
 30
0.0
 40
2.5
 41
0.0
 71
     1
 72
     1
  1
MECANO-SOUDURE
  7
SLDTEXTSTYLE0
 73
     1
 44
1.0
  0
MTEXT
  5
106
330
102
100
AcDbEntity
  8
0
  6
Continuous
 62
     0
370
     0
100
AcDbMText
 10
0.0
 20
-0.0551083447
 30
0.0
 40
2.5
 41
0.0
 71
     1
 72
     1
  1
ET TOLERIE
  7
SLDTEXTSTYLE0
 73
     1
 44
1.0
  0
ENDBLK
  5
104
330
102
100
AcDbEntity
  8
0
100
AcDbBlockEnd
  0
BLOCK
  5
109
330
108
100
AcDbEntity
  8
0
100
AcDbBlockBegin
  2
SW_NOTE_0_11
 70
     0
 10
0.0
 20
0.0
 30
0.0
  3
SW_NOTE_0_11
  1

  0
ENDBLK
  5
10A
330
108
100
AcDbEntity
  8
0
100
AcDbBlockEnd
  0
BLOCK
  5
10D
330
10C
100
AcDbEntity
  8
0
100
AcDbBlockBegin
  2
SW_NOTE_0_12
 70
     0
 10
0.0
 20
0.0
 30
0.0
  3
SW_NOTE_0_12
  1

  0
ENDBLK
  5
10E
330
10C
100
AcDbEntity
  8
0
100
AcDbBlockEnd
  0
BLOCK
  5
111
330
110
100
AcDbEntity
  8
0
100
AcDbBlockBegin
  2
SW_NOTE_0_13
 70
     0
 10
0.0
 20
0.0
 30
0.0
  3
SW_NOTE_0_13
  1

  0
ENDBLK
  5
112
330
110
100
AcDbEntity
  8
0
100
AcDbBlockEnd
  0
BLOCK
  5
115
330
114
100
AcDbEntity
  8
0
100
AcDbBlockBegin
  2
SW_NOTE_0_14
 70
     0
 10
0.0
 20
0.0
 30
0.0
  3
SW_NOTE_0_14
  1

  0
MTEXT
  5
117
330
114
100
AcDbEntity
  8
0
  6
Continuous
 62
     0
370
     0
100
AcDbMText
 10
0.0
 20
3.2226693494
 30
0.0
 40
2.5
 41
0.0
 71
     1
 72
     1
  1
REVETEMENT
  7
SLDTEXTSTYLE0
 73
     1
 44
1.0
  0
MTEXT
  5
118
330
114
100
AcDbEntity
  8
0
  6
Continuous
 62
     0
370
     0
100
AcDbMText
 10
21.8090265989
 20
2.7336910296
 30
0.0
 40
2.0
 41
0.0
 71
     1
 72
     1
  1
(Si peinture: 1 couche antirouille avant peinture)
  7
SLDTEXTSTYLE0
 73
     1
 44
1.0
  0
ENDBLK
  5
116
330
114
100
AcDbEntity
  8
0
100
AcDbBlockEnd
  0
BLOCK
  5
11B
330
11A
100
AcDbEntity
  8
0
100
AcDbBlockBegin
  2
SW_NOTE_0_15
 70
     0
 10
0.0
 20
0.0
 30
0.0
  3
SW_NOTE_0_15
  1

  0
MTEXT
  5
11D
330
11A
100
AcDbEntity
  8
0
  6
Continuous
 62
     0
370
     0
100
AcDbMText
 10
0.0
 20
3.2226693494
 30
0.0
 40
2.5
 41
0.0
 71
     1
 72
     1
  1
MASSE
  7
SLDTEXTSTYLE0
 73
     1
 44
1.0
  0
ENDBLK
  5
11C
330
11A
100
AcDbEntity
  8
0
100
AcDbBlockEnd
  0
BLOCK
  5
120
330
11F
100
AcDbEntity
  8
0
100
AcDbBlockBegin
  2
SW_NOTE_0_16
 70
     0
 10
0.0
 20
0.0
 30
0.0
  3
SW_NOTE_0_16
  1

  0
MTEXT
  5
122
330
11F
100
AcDbEntity
  8
0
  6
Continuous
 62
     0
370
     0
100
AcDbMText
 10
0.0
 20
3.2226693494
 30
0.0
 40
2.5
 41
0.0
 71
     1
 72
     1
  1
MATIERE
  7
SLDTEXTSTYLE0
 73
     1
 44
1.0
  0
MTEXT
  5
123
330
11F
100
AcDbEntity
  8
0
  6
Continuous
 62
     0
370
     0
100
AcDbMText
 10
15.8611107618
 20
2.7336910296
 30
0.0
 40
2.0
 41
0.0
 71
     1
 72
     1
  1
(ou voir tableau de débits)
  7
SLDTEXTSTYLE0
 73
     1
 44
1.0
  0
ENDBLK
  5
121
330
11F
100
AcDbEntity
  8
0
100
AcDbBlockEnd
  0
BLOCK
  5
126
330
125
100
AcDbEntity
  8
0
100
AcDbBlockBegin
  2
SW_NOTE_0_17
 70
     0
 10
0.0
 20
0.0
 30
0.0
  3
SW_NOTE_0_17
  1

  0
MTEXT
  5
128
330
125
100
AcDbEntity
  8
0
  6
Continuous
 62
     0
370
     0
100
AcDbMText
 10
0.0
 20
3.2226693494
 30
0.0
 40
2.5
 41
0.0
 71
     1
 72
     1
  1
NORME:
  7
SLDTEXTSTYLE0
 73
     1
 44
1.0
  0
MTEXT
  5
129
330
125
100
AcDbEntity
  8
0
  6
Continuous
 62
     0
370
     0
100
AcDbMText
 10
11.895833537
 20
3.2226693494
 30
0.0
 40
2.5
 41
0.0
 71
     1
 72
     1
  1
ISO 13920 BF
  7
SLDTEXTSTYLE0
 73
     1
 44
1.0
  0
MTEXT
  5
12B
330
125
100
AcDbEntity
  8
0
  6
Continuous
 62
     0
370
     0
100
AcDbMText
 10
0.0
 20
-0.0440868155
 30
0.0
 40
2.0
 41
0.0
 71
     1
 72
     1
  1
a = 0,7 e mini
  7
SLDTEXTSTYLE1
 73
     1
 44
1.0
  0
MTEXT
  5
12D
330
125
100
AcDbEntity
  8
0
  6
Continuous
 62
     0
370
     0
100
AcDbMText
 10
0.0
 20
-2.6663091105
 30
0.0
 40
2.0
 41
0.0
 71
     1
 72
     1
  1
a = 3 mini
  7
SLDTEXTSTYLE2
 73
     1
 44
1.0
  0
ENDBLK
  5
127
330
125
100
AcDbEntity
  8
0
100
AcDbBlockEnd
  0
BLOCK
  5
130
330
12F
100
AcDbEntity
  8
0
100
AcDbBlockBegin
  2
SW_NOTE_0_18
 70
     0
 10
0.0
 20
0.0
 30
0.0
  3
SW_NOTE_0_18
  1

  0
MTEXT
  5
132
330
12F
100
AcDbEntity
  8
0
  6
Continuous
 62
     0
370
     0
100
AcDbMText
 10
0.0
 20
3.2226693494
 30
0.0
 40
2.5
 41
0.0
 71
     1
 72
     1
  1
NORME:
  7
SLDTEXTSTYLE0
 73
     1
 44
1.0
  0
MTEXT
  5
133
330
12F
100
AcDbEntity
  8
0
  6
Continuous
 62
     0
370
     0
100
AcDbMText
 10
11.895833537
 20
3.2226693494
 30
0.0
 40
2.5
 41
0.0
 71
     1
 72
     1
  1
ISO 2768
  7
SLDTEXTSTYLE0
 73
     1
 44
1.0
  0
MTEXT
  5
134
330
12F
100
AcDbEntity
  8
0
  6
Continuous
 62
     0
370
     0
100
AcDbMText
 10
29.7395829111
 20
3.2226693494
 30
0.0
 40
2.5
 41
0.0
 71
     1
 72
     1
  1
mK
  7
SLDTEXTSTYLE0
 73
     1
 44
1.0
  0
ENDBLK
  5
131
330
12F
100
AcDbEntity
  8
0
100
AcDbBlockEnd
  0
BLOCK
  5
137
330
136
100
AcDbEntity
  8
0
100
AcDbBlockBegin
  2
SW_NOTE_0_19
 70
     0
 10
0.0
 20
0.0
 30
0.0
  3
SW_NOTE_0_19
  1

  0
MTEXT
  5
139
330
136
100
AcDbEntity
  8
0
  6
Continuous
 62
     0
370
     0
100
AcDbMText
 10
0.0
 20
3.2226693494
 30
0.0
 40
2.5
 41
0.0
 71
     1
 72
     1
  1
TOLERANCE GENERALE
  7
SLDTEXTSTYLE0
 73
     1
 44
1.0
  0
ENDBLK
  5
138
330
136
100
AcDbEntity
  8
0
100
AcDbBlockEnd
  0
BLOCK
  5
13C
330
13B
100
AcDbEntity
  8
0
100
AcDbBlockBegin
  2
SW_NOTE_0_20
 70
     0
 10
0.0
 20
0.0
 30
0.0
  3
SW_NOTE_0_20
  1

  0
MTEXT
  5
13E
330
13B
100
AcDbEntity
  8
0
  6
Continuous
 62
     0
370
     0
100
AcDbMText
 10
0.0
 20
3.2226693494
 30
0.0
 40
2.5
 41
0.0
 71
     1
 72
     1
  1
FOLIO
  7
SLDTEXTSTYLE0
 73
     1
 44
1.0
  0
ENDBLK
  5
13D
330
13B
100
AcDbEntity
  8
0
100
AcDbBlockEnd
  0
BLOCK
  5
141
330
140
100
AcDbEntity
  8
0
100
AcDbBlockBegin
  2
SW_NOTE_0_21
 70
     0
 10
0.0
 20
0.0
 30
0.0
  3
SW_NOTE_0_21
  1

  0
MTEXT
  5
143
330
140
100
AcDbEntity
  8
0
  6
Continuous
 62
     0
370
     0
100
AcDbMText
 10
0.0
 20
3.2226693494
 30
0.0
 40
2.5
 41
0.0
 71
     1
 72
     1
  1
INDICE
  7
SLDTEXTSTYLE0
 73
     1
 44
1.0
  0
ENDBLK
  5
142
330
140
100
AcDbEntity
  8
0
100
AcDbBlockEnd
  0
BLOCK
  5
146
330
145
100
AcDbEntity
  8
0
100
AcDbBlockBegin
  2
SW_NOTE_0_22
 70
     0
 10
0.0
 20
0.0
 30
0.0
  3
SW_NOTE_0_22
  1

  0
MTEXT
  5
148
330
145
100
AcDbEntity
  8
0
  6
Continuous
 62
     0
370
     0
100
AcDbMText
 10
0.0
 20
3.2226693494
 30
0.0
 40
2.5
 41
0.0
 71
     1
 72
     1
  1
ECHELLE
  7
SLDTEXTSTYLE0
 73
     1
 44
1.0
  0
ENDBLK
  5
147
330
145
100
AcDbEntity
  8
0
100
AcDbBlockEnd
  0
BLOCK
  5
14B
330
14A
100
AcDbEntity
  8
0
100
AcDbBlockBegin
  2
SW_NOTE_0_23
 70
     0
 10
0.0
 20
0.0
 30
0.0
  3
SW_NOTE_0_23
  1

  0
MTEXT
  5
14E
330
14A
100
AcDbEntity
  8
0
  6
Continuous
 62
     0
370
     0
100
AcDbMText
 10
0.0
 20
2.1914151576
 30
0.0
 40
1.7
 41
0.0
 71
     1
 72
     1
  1
IL NE PEUT ETRE COMMUNIQUE A DES TIERS ET/OU REPRODUIT
  7
SLDTEXTSTYLE3
 73
     1
 44
1.0
  0
MTEXT
  5
14F
330
14A
100
AcDbEntity
  8
0
  6
Continuous
 62
     0
370
     0
100
AcDbMText
 10
0.0
 20
-0.0067792288
 30
0.0
 40
1.7
 41
0.0
 71
     1
 72
     1
  1
SANS AUTORISATION ECRITE ET SON CONTENU NE PEUT ETRE DIVULGUE
  7
SLDTEXTSTYLE3
 73
     1
 44
1.0
  0
ENDBLK
  5
14C
330
14A
100
AcDbEntity
  8
0
100
AcDbBlockEnd
  0
BLOCK
  5
152
330
151
100
AcDbEntity
  8
0
100
AcDbBlockBegin
  2
SW_NOTE_0_24
 70
     0
 10
0.0
 20
0.0
 30
0.0
  3
SW_NOTE_0_24
  1

  0
ENDBLK
  5
153
330
151
100
AcDbEntity
  8
0
100
AcDbBlockEnd
  0
BLOCK
  5
156
330
155
100
AcDbEntity
  8
0
100
AcDbBlockBegin
  2
SW_NOTE_0_25
 70
     0
 10
0.0
 20
0.0
 30
0.0
  3
SW_NOTE_0_25
  1

  0
ENDBLK
  5
157
330
155
100
AcDbEntity
  8
0
100
AcDbBlockEnd
  0
BLOCK
  5
15A
330
159
100
AcDbEntity
  8
0
100
AcDbBlockBegin
  2
SW_NOTE_0_26
 70
     0
 10
0.0
 20
0.0
 30
0.0
  3
SW_NOTE_0_26
  1

  0
ENDBLK
  5
15B
330
159
100
AcDbEntity
  8
0
100
AcDbBlockEnd
  0
BLOCK
  5
15E
330
15D
100
AcDbEntity
  8
0
100
AcDbBlockBegin
  2
SW_NOTE_0_27
 70
     0
 10
0.0
 20
0.0
 30
0.0
  3
SW_NOTE_0_27
  1

  0
ENDBLK
  5
15F
330
15D
100
AcDbEntity
  8
0
100
AcDbBlockEnd
  0
BLOCK
  5
162
330
161
100
AcDbEntity
  8
0
100
AcDbBlockBegin
  2
SW_NOTE_0_28
 70
     0
 10
0.0
 20
0.0
 30
0.0
  3
SW_NOTE_0_28
  1

  0
ENDBLK
  5
163
330
161
100
AcDbEntity
  8
0
100
AcDbBlockEnd
  0
BLOCK
  5
166
330
165
100
AcDbEntity
  8
0
100
AcDbBlockBegin
  2
SW_NOTE_0_29
 70
     0
 10
0.0
 20
0.0
 30
0.0
  3
SW_NOTE_0_29
  1

  0
ENDBLK
  5
167
330
165
100
AcDbEntity
  8
0
100
AcDbBlockEnd
  0
BLOCK
  5
16A
330
169
100
AcDbEntity
  8
0
100
AcDbBlockBegin
  2
SW_NOTE_0_30
 70
     0
 10
0.0
 20
0.0
 30
0.0
  3
SW_NOTE_0_30
  1

  0
ENDBLK
  5
16B
330
169
100
AcDbEntity
  8
0
100
AcDbBlockEnd
  0
BLOCK
  5
16E
330
16D
100
AcDbEntity
  8
0
100
AcDbBlockBegin
  2
SW_NOTE_0_31
 70
     0
 10
0.0
 20
0.0
 30
0.0
  3
SW_NOTE_0_31
  1

  0
ENDBLK
  5
16F
330
16D
100
AcDbEntity
  8
0
100
AcDbBlockEnd
  0
BLOCK
  5
172
330
171
100
AcDbEntity
  8
0
100
AcDbBlockBegin
  2
SW_NOTE_0_32
 70
     0
 10
0.0
 20
0.0
 30
0.0
  3
SW_NOTE_0_32
  1

  0
ENDBLK
  5
173
330
171
100
AcDbEntity
  8
0
100
AcDbBlockEnd
  0
BLOCK
  5
176
330
175
100
AcDbEntity
  8
0
100
AcDbBlockBegin
  2
SW_NOTE_0_33
 70
     0
 10
0.0
 20
0.0
 30
0.0
  3
SW_NOTE_0_33
  1

  0
ENDBLK
  5
177
330
175
100
AcDbEntity
  8
0
100
AcDbBlockEnd
  0
BLOCK
  5
17A
330
179
100
AcDbEntity
  8
0
100
AcDbBlockBegin
  2
SW_NOTE_0_34
 70
     0
 10
0.0
 20
0.0
 30
0.0
  3
SW_NOTE_0_34
  1

  0
ENDBLK
  5
17B
330
179
100
AcDbEntity
  8
0
100
AcDbBlockEnd
  0
BLOCK
  5
17E
330
17D
100
AcDbEntity
  8
0
100
AcDbBlockBegin
  2
SW_NOTE_0_35
 70
     0
 10
0.0
 20
0.0
 30
0.0
  3
SW_NOTE_0_35
  1

  0
ENDBLK
  5
17F
330
17D
100
AcDbEntity
  8
0
100
AcDbBlockEnd
  0
BLOCK
  5
182
330
181
100
AcDbEntity
  8
0
100
AcDbBlockBegin
  2
SW_NOTE_0_36
 70
     0
 10
0.0
 20
0.0
 30
0.0
  3
SW_NOTE_0_36
  1

  0
ENDBLK
  5
183
330
181
100
AcDbEntity
  8
0
100
AcDbBlockEnd
  0
BLOCK
  5
186
330
185
100
AcDbEntity
  8
0
100
AcDbBlockBegin
  2
SW_NOTE_0_37
 70
     0
 10
0.0
 20
0.0
 30
0.0
  3
SW_NOTE_0_37
  1

  0
ENDBLK
  5
187
330
185
100
AcDbEntity
  8
0
100
AcDbBlockEnd
  0
BLOCK
  5
18A
330
189
100
AcDbEntity
  8
0
100
AcDbBlockBegin
  2
SW_NOTE_0_38
 70
     0
 10
0.0
 20
0.0
 30
0.0
  3
SW_NOTE_0_38
  1

  0
ENDBLK
  5
18B
330
189
100
AcDbEntity
  8
0
100
AcDbBlockEnd
  0
BLOCK
  5
18E
330
18D
100
AcDbEntity
  8
0
100
AcDbBlockBegin
  2
SW_NOTE_0_39
 70
     0
 10
0.0
 20
0.0
 30
0.0
  3
SW_NOTE_0_39
  1

  0
MTEXT
  5
190
330
18D
100
AcDbEntity
  8
0
  6
Continuous
 62
     0
370
     0
100
AcDbMText
 10
0.0
 20
2.5781354795
 30
0.0
 40
2.0
 41
0.0
 71
     1
 72
     1
  1
VALIDE PAR
  7
SLDTEXTSTYLE3
 73
     1
 44
1.0
  0
ENDBLK
  5
18F
330
18D
100
AcDbEntity
  8
0
100
AcDbBlockEnd
  0
BLOCK
  5
193
330
192
100
AcDbEntity
  8
0
100
AcDbBlockBegin
  2
SW_NOTE_0_40
 70
     0
 10
0.0
 20
0.0
 30
0.0
  3
SW_NOTE_0_40
  1

  0
MTEXT
  5
195
330
192
100
AcDbEntity
  8
0
  6
Continuous
 62
     0
370
     0
100
AcDbMText
 10
0.0
 20
2.5781354795
 30
0.0
 40
2.0
 41
0.0
 71
     1
 72
     1
  1
DESSINE PAR
  7
SLDTEXTSTYLE3
 73
     1
 44
1.0
  0
ENDBLK
  5
194
330
192
100
AcDbEntity
  8
0
100
AcDbBlockEnd
  0
BLOCK
  5
198
330
197
100
AcDbEntity
  8
0
100
AcDbBlockBegin
  2
SW_NOTE_0_41
 70
     0
 10
0.0
 20
0.0
 30
0.0
  3
SW_NOTE_0_41
  1

  0
MTEXT
  5
19A
330
197
100
AcDbEntity
  8
0
  6
Continuous
 62
     0
370
     0
100
AcDbMText
 10
0.0
 20
2.5781354795
 30
0.0
 40
2.0
 41
0.0
 71
     1
 72
     1
  1
DESCRIPTION
  7
SLDTEXTSTYLE3
 73
     1
 44
1.0
  0
ENDBLK
  5
199
330
197
100
AcDbEntity
  8
0
100
AcDbBlockEnd
  0
BLOCK
  5
19D
330
19C
100
AcDbEntity
  8
0
100
AcDbBlockBegin
  2
SW_NOTE_0_42
 70
     0
 10
0.0
 20
0.0
 30
0.0
  3
SW_NOTE_0_42
  1

  0
MTEXT
  5
19F
330
19C
100
AcDbEntity
  8
0
  6
Continuous
 62
     0
370
     0
100
AcDbMText
 10
0.0
 20
2.5781354795
 30
0.0
 40
2.0
 41
0.0
 71
     1
 72
     1
  1
DATE
  7
SLDTEXTSTYLE3
 73
     1
 44
1.0
  0
ENDBLK
  5
19E
330
19C
100
AcDbEntity
  8
0
100
AcDbBlockEnd
  0
BLOCK
  5
1A2
330
1A1
100
AcDbEntity
  8
0
100
AcDbBlockBegin
  2
SW_NOTE_0_43
 70
     0
 10
0.0
 20
0.0
 30
0.0
  3
SW_NOTE_0_43
  1

  0
MTEXT
  5
1A4
330
1A1
100
AcDbEntity
  8
0
  6
Continuous
 62
     0
370
     0
100
AcDbMText
 10
0.0
 20
2.5781354795
 30
0.0
 40
2.0
 41
0.0
 71
     1
 72
     1
  1
IND
  7
SLDTEXTSTYLE3
 73
     1
 44
1.0
  0
ENDBLK
  5
1A3
330
1A1
100
AcDbEntity
  8
0
100
AcDbBlockEnd
  0
BLOCK
  5
1A7
330
1A6
100
AcDbEntity
  8
0
100
AcDbBlockBegin
  2
SW_NOTE_0_44
 70
     0
 10
0.0
 20
0.0
 30
0.0
  3
SW_NOTE_0_44
  1

  0
MTEXT
  5
1A9
330
1A6
100
AcDbEntity
  8
0
  6
Continuous
 62
     0
370
     0
100
AcDbMText
 10
0.0
 20
2.1914151576
 30
0.0
 40
1.7
 41
0.0
 71
     1
 72
     1
  1
CE DOCUMENT EST LA PROPRIETE D'OPUS IT :
  7
SLDTEXTSTYLE3
 73
     1
 44
1.0
  0
ENDBLK
  5
1A8
330
1A6
100
AcDbEntity
  8
0
100
AcDbBlockEnd
  0
BLOCK
  5
1AC
330
1AB
100
AcDbEntity
  8
0
100
AcDbBlockBegin
  2
SW_NOTE_0_45
 70
     0
 10
0.0
 20
0.0
 30
0.0
  3
SW_NOTE_0_45
  1

  0
MTEXT
  5
1AE
330
1AB
100
AcDbEntity
  8
0
  6
Continuous
 62
     0
370
     0
100
AcDbMText
 10
0.0
 20
3.2226693494
 30
0.0
 40
2.5
 41
0.0
 71
     1
 72
     1
  1
FORMAT
  7
SLDTEXTSTYLE0
 73
     1
 44
1.0
  0
ENDBLK
  5
1AD
330
1AB
100
AcDbEntity
  8
0
100
AcDbBlockEnd
  0
BLOCK
  5
1B1
330
1B0
100
AcDbEntity
  8
0
100
AcDbBlockBegin
  2
SW_NOTE_0_46
 70
     0
 10
0.0
 20
0.0
 30
0.0
  3
SW_NOTE_0_46
  1

  0
MTEXT
  5
1B3
330
1B0
100
AcDbEntity
  8
0
  6
Continuous
 62
     0
370
     0
100
AcDbMText
 10
0.0
 20
3.2226693494
 30
0.0
 40
2.5
 41
0.0
 71
     1
 72
     1
  1
Ra 3.2 MAX
  7
SLDTEXTSTYLE0
 73
     1
 44
1.0
  0
ENDBLK
  5
1B2
330
1B0
100
AcDbEntity
  8
0
100
AcDbBlockEnd
  0
BLOCK
  5
1B6
330
1B5
100
AcDbEntity
  8
0
100
AcDbBlockBegin
  2
SW_NOTE_0_47
 70
     0
 10
0.0
 20
0.0
 30
0.0
  3
SW_NOTE_0_47
  1

  0
MTEXT
  5
1B8
330
1B5
100
AcDbEntity
  8
0
  6
Continuous
 62
     0
370
     0
100
AcDbMText
 10
0.0
 20
3.2226693494
 30
0.0
 40
2.5
 41
0.0
 71
     1
 72
     1
  1
USINAGE
  7
SLDTEXTSTYLE0
 73
     1
 44
1.0
  0
ENDBLK
  5
1B7
330
1B5
100
AcDbEntity
  8
0
100
AcDbBlockEnd
  0
BLOCK
  5
1BB
330
1BA
100
AcDbEntity
  8
0
100
AcDbBlockBegin
  2
SW_NOTE_0_48
 70
     0
 10
0.0
 20
0.0
 30
0.0
  3
SW_NOTE_0_48
  1

  0
MTEXT
  5
1BD
330
1BA
100
AcDbEntity
  8
0
  6
Continuous
 62
     0
370
     0
100
AcDbMText
 10
0.0
 20
2.1914151576
 30
0.0
 40
1.7
 41
0.0
 71
     1
 72
     1
  1
CE PLAN A ETE REALISE EN CAO, TOUTE MODIFICATION NE POURRA ETRE EXECUTEE QU'EN CAO
  7
SLDTEXTSTYLE3
 73
     1
 44
1.0
  0
ENDBLK
  5
1BC
330
1BA
100
AcDbEntity
  8
0
100
AcDbBlockEnd
  0
BLOCK
  5
1C0
330
1BF
100
AcDbEntity
  8
0
100
AcDbBlockBegin
  2
SW_NOTE_0_49
 70
     0
 10
0.0
 20
0.0
 30
0.0
  3
SW_NOTE_0_49
  1

  0
MTEXT
  5
1C2
330
1BF
100
AcDbEntity
  8
0
  6
Continuous
 62
     0
370
     0
100
AcDbMText
 10
0.0
 20
3.2226693494
 30
0.0
 40
2.5
 41
0.0
 71
     1
 72
     1
  1
FICHIER 3D ASSOCIE
  7
SLDTEXTSTYLE0
 73
     1
 44
1.0
  0
ENDBLK
  5
1C1
330
1BF
100
AcDbEntity
  8
0
100
AcDbBlockEnd
  0
BLOCK
  5
1C5
330
1C4
100
AcDbEntity
  8
0
100
AcDbBlockBegin
  2
SW_NOTE_0_50
 70
     0
 10
0.0
 20
0.0
 30
0.0
  3
SW_NOTE_0_50
  1

  0
MTEXT
  5
1C7
330
1C4
100
AcDbEntity
  8
0
  6
Continuous
 62
     0
370
     0
100
AcDbMText
 10
0.0
 20
3.2226693494
 30
0.0
 40
2.5
 41
0.0
 71
     1
 72
     1
  1
PAR
  7
SLDTEXTSTYLE0
 73
     1
 44
1.0
  0
ENDBLK
  5
1C6
330
1C4
100
AcDbEntity
  8
0
100
AcDbBlockEnd
  0
BLOCK
  5
1CA
330
1C9
100
AcDbEntity
  8
0
100
AcDbBlockBegin
  2
SW_NOTE_0_51
 70
     0
 10
0.0
 20
0.0
 30
0.0
  3
SW_NOTE_0_51
  1

  0
MTEXT
  5
1CC
330
1C9
100
AcDbEntity
  8
0
  6
Continuous
 62
     0
370
     0
100
AcDbMText
 10
0.0
 20
3.2226693494
 30
0.0
 40
2.5
 41
0.0
 71
     1
 72
     1
  1
DESSINE
  7
SLDTEXTSTYLE0
 73
     1
 44
1.0
  0
ENDBLK
  5
1CB
330
1C9
100
AcDbEntity
  8
0
100
AcDbBlockEnd
  0
BLOCK
  5
1CF
330
1CE
100
AcDbEntity
  8
0
100
AcDbBlockBegin
  2
SW_NOTE_0_52
 70
     0
 10
0.0
 20
0.0
 30
0.0
  3
SW_NOTE_0_52
  1

  0
MTEXT
  5
1D1
330
1CE
100
AcDbEntity
  8
0
  6
Continuous
 62
     0
370
     0
100
AcDbMText
 10
0.0
 20
3.2226693494
 30
0.0
 40
2.5
 41
0.0
 71
     1
 72
     1
  1
LE
  7
SLDTEXTSTYLE0
 73
     1
 44
1.0
  0
ENDBLK
  5
1D0
330
1CE
100
AcDbEntity
  8
0
100
AcDbBlockEnd
  0
BLOCK
  5
1D4
330
1D3
100
AcDbEntity
  8
0
100
AcDbBlockBegin
  2
SW_NOTE_0_53
 70
     0
 10
0.0
 20
0.0
 30
0.0
  3
SW_NOTE_0_53
  1

  0
MTEXT
  5
1D6
330
1D3
100
AcDbEntity
  8
0
  6
Continuous
 62
     0
370
     0
100
AcDbMText
 10
0.0
 20
3.2226693494
 30
0.0
 40
2.5
 41
0.0
 71
     1
 72
     1
  1
LE
  7
SLDTEXTSTYLE0
 73
     1
 44
1.0
  0
ENDBLK
  5
1D5
330
1D3
100
AcDbEntity
  8
0
100
AcDbBlockEnd
  0
BLOCK
  5
1D9
330
1D8
100
AcDbEntity
  8
0
100
AcDbBlockBegin
  2
SW_NOTE_0_54
 70
     0
 10
0.0
 20
0.0
 30
0.0
  3
SW_NOTE_0_54
  1

  0
MTEXT
  5
1DB
330
1D8
100
AcDbEntity
  8
0
  6
Continuous
 62
     0
370
     0
100
AcDbMText
 10
0.0
 20
3.2226693494
 30
0.0
 40
2.5
 41
0.0
 71
     1
 72
     1
  1
PAR
  7
SLDTEXTSTYLE0
 73
     1
 44
1.0
  0
ENDBLK
  5
1DA
330
1D8
100
AcDbEntity
  8
0
100
AcDbBlockEnd
  0
BLOCK
  5
1DE
330
1DD
100
AcDbEntity
  8
0
100
AcDbBlockBegin
  2
SW_NOTE_0_55
 70
     0
 10
0.0
 20
0.0
 30
0.0
  3
SW_NOTE_0_55
  1

  0
MTEXT
  5
1E0
330
1DD
100
AcDbEntity
  8
0
  6
Continuous
 62
     0
370
     0
100
AcDbMText
 10
0.0
 20
3.2226693494
 30
0.0
 40
2.5
 41
0.0
 71
     1
 72
     1
  1
VALIDE
  7
SLDTEXTSTYLE0
 73
     1
 44
1.0
  0
ENDBLK
  5
1DF
330
1DD
100
AcDbEntity
  8
0
100
AcDbBlockEnd
  0
BLOCK
  5
1E3
330
1E2
100
AcDbEntity
  8
0
100
AcDbBlockBegin
  2
SW_NOTE_0_56
 70
     0
 10
0.0
 20
0.0
 30
0.0
  3
SW_NOTE_0_56
  1

  0
MTEXT
  5
1E5
330
1E2
100
AcDbEntity
  8
0
  6
Continuous
 62
     0
370
     0
100
AcDbMText
 10
0.0
 20
3.2226693494
 30
0.0
 40
2.5
 41
0.0
 71
     1
 72
     1
  1
TRAITEMENT
  7
SLDTEXTSTYLE0
 73
     1
 44
1.0
  0
ENDBLK
  5
1E4
330
1E2
100
AcDbEntity
  8
0
100
AcDbBlockEnd
  0
BLOCK
  5
1E8
330
1E7
100
AcDbEntity
  8
0
100
AcDbBlockBegin
  2
SW_NOTE_0_57
 70
     0
 10
0.0
 20
0.0
 30
0.0
  3
SW_NOTE_0_57
  1

  0
MTEXT
  5
1EA
330
1E7
100
AcDbEntity
  8
SLD-0
 62
     0
100
AcDbMText
 10
1.7797851562
 20
5.4382545272
 30
0.0
 40
4.21875
 41
0.0
 71
     2
 72
     1
  1
e
  7
SLDTEXTSTYLE3
 73
     1
 44
1.0
  0
ENDBLK
  5
1E9
330
1E7
100
AcDbEntity
  8
0
100
AcDbBlockEnd
  0
BLOCK
  5
1ED
330
1EC
100
AcDbEntity
  8
0
100
AcDbBlockBegin
  2
SW_NOTE_0_58
 70
     0
 10
0.0
 20
0.0
 30
0.0
  3
SW_NOTE_0_58
  1

  0
MTEXT
  5
1EF
330
1EC
100
AcDbEntity
  8
SLD-0
 62
     0
100
AcDbMText
 10
-5.4382545272
 20
1.4501953125
 30
0.0
 40
4.21875
 41
0.0
 71
     2
 72
     1
  1
e
  7
SLDTEXTSTYLE0
 11
6.123233995736766E-17
 21
1.0
 31
0.0
 73
     1
 44
1.0
  0
ENDBLK
  5
1EE
330
1EC
100
AcDbEntity
  8
0
100
AcDbBlockEnd
  0
BLOCK
  5
1F2
330
1F1
100
AcDbEntity
  8
0
100
AcDbBlockBegin
  2
SW_NOTE_0_59
 70
     0
 10
0.0
 20
0.0
 30
0.0
  3
SW_NOTE_0_59
  1

  0
MTEXT
  5
1F4
330
1F1
100
AcDbEntity
  8
SLD-0
 62
     0
100
AcDbMText
 10
-2.8199837145
 20
4.8708695935
 30
0.0
 40
4.21875
 41
0.0
 71
     2
 72
     1
  1
a
  7
SLDTEXTSTYLE0
 11
0.7071067811865983
 21
0.7071067811864968
 31
0.0
 73
     1
 44
1.0
  0
ENDBLK
  5
1F3
330
1F1
100
AcDbEntity
  8
0
100
AcDbBlockEnd
  0
BLOCK
  5
222
330
221
100
AcDbEntity
  8
0
100
AcDbBlockBegin
  2
Cartouche OPUS V1_1
 70
     2
 10
0.0
 20
0.0
 30
0.0
  3
Cartouche OPUS V1_1
  1

  0
CIRCLE
  5
224
330
221
100
AcDbEntity
  8
0
  6
Continuous
 62
     7
370
    35
100
AcDbCircle
 10
1170.8885811528
 20
44.5248092219
 30
0.0
 40
2.499999999999893
  0
CIRCLE
  5
225
330
221
100
AcDbEntity
  8
0
  6
Continuous
 62
     7
370
    35
100
AcDbCircle
 10
1170.8885811528
 20
44.6059403459
 30
0.0
 40
4.999999999999785
  0
LINE
  5
226
330
221
100
AcDbEntity
  8
0
  6
Continuous
 62
     7
370
    18
100
AcDbLine
 10
1108.2404037712
 20
19.87
 30
0.0
 11
1108.2404037712
 21
9.87
 31
0.0
  0
LINE
  5
227
330
221
100
AcDbEntity
  8
0
  6
Continuous
 62
     7
370
    18
100
AcDbLine
 10
1081.9908661242
 20
80.87
 30
0.0
 11
1081.9908661242
 21
105.3937238882
 31
0.0
  0
LINE
  5
228
330
221
100
AcDbEntity
  8
0
  6
Continuous
 62
     7
370
    18
100
AcDbLine
 10
988.86
 20
111.3937238882
 30
0.0
 11
988.86
 21
147.3937238882
 31
0.0
  0
LINE
  5
229
330
221
100
AcDbEntity
  8
0
  6
Continuous
 62
     7
370
    18
100
AcDbLine
 10
1081.9908661242
 20
99.3374727332
 30
0.0
 11
1130.4254330621
 21
99.3374727332
 31
0.0
  0
LINE
  5
22A
330
221
100
AcDbEntity
  8
0
  6
Continuous
 62
     7
370
    18
100
AcDbLine
 10
1081.9908661242
 20
92.4683483101
 30
0.0
 11
1130.4254330621
 21
92.4683483101
 31
0.0
  0
LINE
  5
22B
330
221
100
AcDbEntity
  8
0
  6
Continuous
 62
     7
370
    18
100
AcDbLine
 10
1130.4254330621
 20
105.3937238882
 30
0.0
 11
1130.4254330621
 21
80.87
 31
0.0
  0
LINE
  5
22C
330
221
100
AcDbEntity
  8
0
  6
Continuous
 62
     7
370
    18
100
AcDbLine
 10
1106.2081495931
 20
99.3374727332
 30
0.0
 11
1106.2081495931
 21
80.87
 31
0.0
  0
LINE
  5
22D
330
221
100
AcDbEntity
  8
0
  6
Continuous
 62
     7
370
    18
100
AcDbLine
 10
1130.4254330621
 20
99.3374727332
 30
0.0
 11
1178.86
 21
99.3374727332
 31
0.0
  0
LINE
  5
22E
330
221
100
AcDbEntity
  8
0
  6
Continuous
 62
     7
370
    18
100
AcDbLine
 10
1068.86
 20
76.7050662177
 30
0.0
 11
1068.86
 21
80.87
 31
0.0
  0
LINE
  5
22F
330
221
100
AcDbEntity
  8
0
  6
Continuous
 62
     7
370
    18
100
AcDbLine
 10
1130.4254330621
 20
92.4683483101
 30
0.0
 11
1178.86
 21
92.4683483101
 31
0.0
  0
LINE
  5
230
330
221
100
AcDbEntity
  8
0
  6
Continuous
 62
     7
370
    18
100
AcDbLine
 10
1154.6427165311
 20
99.3374727332
 30
0.0
 11
1154.6427165311
 21
80.87
 31
0.0
  0
LINE
  5
231
330
221
100
AcDbEntity
  8
0
  6
Continuous
 62
     7
370
    18
100
AcDbLine
 10
988.86
 20
117.3937238882
 30
0.0
 11
1178.86
 21
117.3937238882
 31
0.0
  0
LINE
  5
232
330
221
100
AcDbEntity
  8
0
  6
Continuous
 62
     7
370
    18
100
AcDbLine
 10
988.86
 20
111.3937238882
 30
0.0
 11
1178.86
 21
111.3937238882
 31
0.0
  0
LINE
  5
233
330
221
100
AcDbEntity
  8
0
  6
Continuous
 62
     7
370
    18
100
AcDbLine
 10
988.86
 20
147.3937238882
 30
0.0
 11
1178.86
 21
147.3937238882
 31
0.0
  0
LINE
  5
234
330
221
100
AcDbEntity
  8
0
  6
Continuous
 62
     7
370
    18
100
AcDbLine
 10
988.86
 20
123.3937238882
 30
0.0
 11
1178.86
 21
123.3937238882
 31
0.0
  0
LINE
  5
235
330
221
100
AcDbEntity
  8
0
  6
Continuous
 62
     7
370
    18
100
AcDbLine
 10
1149.8162973836
 20
34.87
 30
0.0
 11
1149.8162973836
 21
54.87
 31
0.0
  0
LINE
  5
236
330
221
100
AcDbEntity
  8
0
  6
Continuous
 62
     7
370
    18
100
AcDbLine
 10
1068.86
 20
63.5366666667
 30
0.0
 11
1178.86
 21
63.5366666667
 31
0.0
  0
LINE
  5
237
330
221
100
AcDbEntity
  8
SLD-0
100
AcDbLine
 10
1009.9255274221
 20
47.4104806357
 30
0.0
 11
1012.895375903
 21
44.4406321548
 31
0.0
  0
LINE
  5
238
330
221
100
AcDbEntity
  8
0
  6
Continuous
 62
     7
370
    18
100
AcDbLine
 10
988.86
 20
34.87
 30
0.0
 11
1178.86
 21
34.87
 31
0.0
  0
LINE
  5
239
330
221
100
AcDbEntity
  8
0
  6
Continuous
 62
     7
370
    18
100
AcDbLine
 10
1028.86
 20
54.87
 30
0.0
 11
1178.86
 21
54.87
 31
0.0
  0
LINE
  5
23A
330
221
100
AcDbEntity
  8
0
  6
Continuous
 62
     7
370
    18
100
AcDbLine
 10
1164.1580647406
 20
34.87
 30
0.0
 11
1164.1580647406
 21
19.87
 31
0.0
  0
LINE
  5
23B
330
221
100
AcDbEntity
  8
0
  6
Continuous
 62
     7
370
    18
100
AcDbLine
 10
1028.86
 20
76.7050662177
 30
0.0
 11
1028.86
 21
54.87
 31
0.0
  0
LINE
  5
23C
330
221
100
AcDbEntity
  8
0
  6
Continuous
 62
     7
370
    18
100
AcDbLine
 10
988.86
 20
76.7050662177
 30
0.0
 11
1068.86
 21
76.7050662177
 31
0.0
  0
LINE
  5
23D
330
221
100
AcDbEntity
  8
0
  6
Continuous
 62
     7
370
    35
100
AcDbLine
 10
1152.4962453931
 20
47.0693647756
 30
0.0
 11
1152.4962453931
 21
42.0693647756
 31
0.0
  0
LINE
  5
23E
330
221
100
AcDbEntity
  8
0
  6
Continuous
 62
     7
370
    35
100
AcDbLine
 10
1152.4962453931
 20
42.0693647756
 30
0.0
 11
1162.4962453931
 21
39.5693647756
 31
0.0
  0
LINE
  5
23F
330
221
100
AcDbEntity
  8
0
  6
Continuous
 62
     7
370
    35
100
AcDbLine
 10
1162.4962453931
 20
39.5693647756
 30
0.0
 11
1162.4962453931
 21
49.5693647756
 31
0.0
  0
LINE
  5
240
330
221
100
AcDbEntity
  8
0
  6
Continuous
 62
     7
370
    35
100
AcDbLine
 10
1162.4962453931
 20
49.5693647756
 30
0.0
 11
1152.4962453931
 21
47.0693647756
 31
0.0
  0
LINE
  5
241
330
221
100
AcDbEntity
  8
SLD-0
100
AcDbLine
 10
1012.895375903
 20
44.4406321548
 30
0.0
 11
1009.9255274221
 21
44.4406321548
 31
0.0
  0
LINE
  5
242
330
221
100
AcDbEntity
  8
0
  6
Continuous
 62
     7
370
    18
100
AcDbLine
 10
1149.8162973836
 20
34.87
 30
0.0
 11
1149.8162973836
 21
19.8699998277
 31
0.0
  0
LINE
  5
243
330
221
100
AcDbEntity
  8
0
  6
Continuous
 62
     7
370
    18
100
AcDbLine
 10
1028.86
 20
34.87
 30
0.0
 11
1028.86
 21
19.87
 31
0.0
  0
LINE
  5
244
330
221
100
AcDbEntity
  8
0
  6
Continuous
 62
     7
370
    18
100
AcDbLine
 10
1008.86
 20
34.87
 30
0.0
 11
1008.86
 21
19.87
 31
0.0
  0
LINE
  5
245
330
221
100
AcDbEntity
  8
0
  6
Continuous
 62
     7
370
    18
100
AcDbLine
 10
1178.86
 20
72.2033333333
 30
0.0
 11
1068.86
 21
72.2033333333
 31
0.0
  0
LINE
  5
246
330
221
100
AcDbEntity
  8
0
  6
Continuous
 62
     7
370
    18
100
AcDbLine
 10
1149.8162973836
 20
72.2033333333
 30
0.0
 11
1149.8162973836
 21
80.87
 31
0.0
  0
LINE
  5
247
330
221
100
AcDbEntity
  8
0
  6
Continuous
 62
     7
370
    25
100
AcDbLine
 10
1178.86
 20
105.3937238882
 30
0.0
 11
988.86
 21
105.3937238882
 31
0.0
  0
LINE
  5
248
330
221
100
AcDbEntity
  8
0
  6
Continuous
 62
     7
370
    25
100
AcDbLine
 10
988.86
 20
9.87
 30
0.0
 11
988.86
 21
105.3937238882
 31
0.0
  0
LINE
  5
249
330
221
100
AcDbEntity
  8
0
  6
Continuous
 62
     7
370
    18
100
AcDbLine
 10
998.86
 20
147.3937238882
 30
0.0
 11
998.86
 21
111.3937238882
 31
0.0
  0
LINE
  5
24A
330
221
100
AcDbEntity
  8
0
  6
Continuous
 62
     7
370
    18
100
AcDbLine
 10
988.86
 20
129.3937238882
 30
0.0
 11
1178.86
 21
129.3937238882
 31
0.0
  0
LINE
  5
24B
330
221
100
AcDbEntity
  8
0
  6
Continuous
 62
     7
370
    18
100
AcDbLine
 10
1018.86
 20
147.3937238882
 30
0.0
 11
1018.86
 21
111.3937238882
 31
0.0
  0
LINE
  5
24C
330
221
100
AcDbEntity
  8
0
  6
Continuous
 62
     7
370
    18
100
AcDbLine
 10
1161.1935401507
 20
111.3937238882
 30
0.0
 11
1161.1935401507
 21
147.3937238882
 31
0.0
  0
LINE
  5
24D
330
221
100
AcDbEntity
  8
0
  6
Continuous
 62
     7
370
    18
100
AcDbLine
 10
1036.7584565369
 20
57.0772409291
 30
0.0
 11
1039.7584565369
 21
63.0772409291
 31
0.0
  0
LINE
  5
24E
330
221
100
AcDbEntity
  8
0
  6
Continuous
 62
     7
370
    18
100
AcDbLine
 10
1035.2584565369
 20
60.0772409291
 30
0.0
 11
1038.2584565369
 21
60.0772409291
 31
0.0
  0
LINE
  5
24F
330
221
100
AcDbEntity
  8
0
  6
Continuous
 62
     7
370
    18
100
AcDbLine
 10
1036.7584565369
 20
57.0772409291
 30
0.0
 11
1035.2584565369
 21
60.0772409291
 31
0.0
  0
LINE
  5
250
330
221
100
AcDbEntity
  8
0
  6
Continuous
 62
     7
370
    18
100
AcDbLine
 10
1039.7584565369
 20
63.0772409291
 30
0.0
 11
1050.4174528437
 21
63.0772409291
 31
0.0
  0
LINE
  5
251
330
221
100
AcDbEntity
  8
SLD-0
100
AcDbLine
 10
1009.9255274221
 20
44.4406321548
 30
0.0
 11
1009.9255274221
 21
47.4104806357
 31
0.0
  0
LINE
  5
252
330
221
100
AcDbEntity
  8
SLD-0
 62
   221
100
AcDbLine
 10
1002.6339407607
 20
44.4406321548
 30
0.0
 11
1002.6339407607
 21
56.4875717134
 31
0.0
  0
LINE
  5
253
330
221
100
AcDbEntity
  8
SLD-0
 62
   221
100
AcDbLine
 10
1002.6339407607
 20
40.9906321548
 30
0.0
 11
1002.6339407607
 21
44.4406321548
 31
0.0
  0
LINE
  5
254
330
221
100
AcDbEntity
  8
0
  6
Continuous
 62
     7
370
    18
100
AcDbLine
 10
1178.86
 20
19.87
 30
0.0
 11
988.86
 21
19.87
 31
0.0
  0
LINE
  5
255
330
221
100
AcDbEntity
  8
SLD-0
 62
   221
100
AcDbLine
 10
1002.5454024956
 20
44.4406321548
 30
0.0
 11
1004.5745657607
 21
44.4406321548
 31
0.0
  0
LINE
  5
256
330
221
100
AcDbEntity
  8
SLD-0
 62
   221
100
AcDbLine
 10
1002.5454024956
 20
41.4406321548
 30
0.0
 11
1004.5745657607
 21
41.4406321548
 31
0.0
  0
LINE
  5
257
330
221
100
AcDbEntity
  8
SLD-0
 62
   221
100
AcDbLine
 10
1005.7255274221
 20
58.0861061819
 30
0.0
 11
1010.3755274221
 21
58.0861061819
 31
0.0
  0
LINE
  5
258
330
221
100
AcDbEntity
  8
SLD-0
 62
   221
100
AcDbLine
 10
1009.9255274221
 20
59.4871071346
 30
0.0
 11
1009.9255274221
 21
56.1454811819
 31
0.0
  0
LINE
  5
259
330
221
100
AcDbEntity
  8
SLD-0
 62
   221
100
AcDbLine
 10
1006.1755274221
 20
59.4871071346
 30
0.0
 11
1006.1755274221
 21
56.1454811819
 31
0.0
  0
LINE
  5
25A
330
221
100
AcDbEntity
  8
SLD-0
 62
   221
100
AcDbLine
 10
1013.9604355384
 20
43.3755725194
 30
0.0
 11
1018.2449037506
 21
47.6600407316
 31
0.0
  0
LINE
  5
25B
330
221
100
AcDbEntity
  8
SLD-0
 62
   221
100
AcDbLine
 10
1012.1573132464
 20
41.5724502274
 30
0.0
 11
1013.9604355384
 21
43.3755725194
 31
0.0
  0
LINE
  5
25C
330
221
100
AcDbEntity
  8
SLD-0
 62
   221
100
AcDbLine
 10
1011.4104516625
 20
45.9255563952
 30
0.0
 11
1015.3326646357
 21
42.0033434221
 31
0.0
  0
LINE
  5
25D
330
221
100
AcDbEntity
  8
SLD-0
 62
   221
100
AcDbLine
 10
1009.9255274221
 20
44.4406321548
 30
0.0
 11
1013.8477403952
 21
40.5184191816
 31
0.0
  0
LINE
  5
25E
330
221
100
AcDbEntity
  8
SLD-0
100
AcDbLine
 10
1009.9255274221
 20
44.4406321548
 30
0.0
 11
1009.9255274221
 21
59.4871071346
 31
0.0
  0
LINE
  5
25F
330
221
100
AcDbEntity
  8
SLD-0
100
AcDbLine
 10
1006.1755274221
 20
44.4406321548
 30
0.0
 11
1006.1755274221
 21
59.4871071346
 31
0.0
  0
LINE
  5
260
330
221
100
AcDbEntity
  8
SLD-0
100
AcDbLine
 10
998.4725779388
 20
44.4406321548
 30
0.0
 11
1019.4564768832
 21
44.4406321548
 31
0.0
  0
LINE
  5
261
330
221
100
AcDbEntity
  8
SLD-0
100
AcDbLine
 10
998.4725779388
 20
41.4406321548
 30
0.0
 11
1019.4564768832
 21
41.4406321548
 31
0.0
  0
LINE
  5
262
330
221
100
AcDbEntity
  8
0
  6
Continuous
 62
     7
370
    18
100
AcDbLine
 10
1142.1626801113
 20
147.3937238882
 30
0.0
 11
1142.1626801113
 21
111.3937238882
 31
0.0
  0
LINE
  5
263
330
221
100
AcDbEntity
  8
0
  6
Continuous
 62
     7
370
    18
100
AcDbLine
 10
988.86
 20
135.3937238882
 30
0.0
 11
1178.86
 21
135.3937238882
 31
0.0
  0
LINE
  5
264
330
221
100
AcDbEntity
  8
0
  6
Continuous
 62
     7
370
    18
100
AcDbLine
 10
988.86
 20
141.3937238882
 30
0.0
 11
1178.86
 21
141.3937238882
 31
0.0
  0
LINE
  5
265
330
221
100
AcDbEntity
  8
0
  6
CENTERX2
 62
     7
370
    18
100
AcDbLine
 10
1150.3828918411
 20
44.5248092219
 30
0.0
 11
1177.5148639717
 21
44.5248092219
 31
0.0
  0
LINE
  5
266
330
221
100
AcDbEntity
  8
0
  6
CENTERX2
 62
     7
370
    18
100
AcDbLine
 10
1170.8885811528
 20
50.9080533132
 30
0.0
 11
1170.8885811528
 21
38.1415651307
 31
0.0
  0
LINE
  5
267
330
221
100
AcDbEntity
  8
0
  6
Continuous
 62
     7
370
    18
100
AcDbLine
 10
1068.86
 20
76.7050662177
 30
0.0
 11
1068.86
 21
54.87
 31
0.0
  0
LINE
  5
268
330
221
100
AcDbEntity
  8
0
  6
Continuous
 62
     7
370
    18
100
AcDbLine
 10
1028.86
 20
54.87
 30
0.0
 11
1028.86
 21
34.87
 31
0.0
  0
LINE
  5
269
330
221
100
AcDbEntity
  8
0
  6
Continuous
 62
     7
370
    18
100
AcDbLine
 10
1081.9908661242
 20
80.87
 30
0.0
 11
988.86
 21
80.87
 31
0.0
  0
LINE
  5
26A
330
221
100
AcDbEntity
  8
0
  6
Continuous
 62
     7
370
    18
100
AcDbLine
 10
1081.9908661242
 20
80.87
 30
0.0
 11
1178.86
 21
80.87
 31
0.0
  0
HATCH
  5
26B
330
221
100
AcDbEntity
  8
0
  6
Continuous
 62
   179
100
AcDbHatch
 10
0.0
 20
0.0
 30
0.0
210
0.0
220
0.0
230
1.0
  2
ANSI31
 70
     0
 71
     0
 91
        1
 92
        0
 93
        3
 72
     1
 10
1012.89537590304
 20
44.44063215475447
 11
1009.925527422056
 21
44.44063215475447
 72
     1
 10
1009.925527422056
 20
44.44063215475447
 11
1009.925527422056
 21
47.41048063573911
 72
     1
 10
1009.925527422056
 20
47.41048063573911
 11
1012.89537590304
 21
44.44063215475447
 97
        0
 75
     0
 76
     1
 52
0.0
 41
1.0
 77
     0
 78
     1
 53
45.0
 43
0.0
 44
0.0
 45
-2.245064030267288
 46
2.245064030267288
 79
     0
 98
        1
 10
0.0
 20
0.0
  0
HATCH
  5
26C
330
221
100
AcDbEntity
  8
0
  6
Continuous
 62
     7
100
AcDbHatch
 10
0.0
 20
0.0
 30
0.0
210
0.0
220
0.0
230
1.0
  2
SOLID
 70
     1
 71
     0
 91
        1
 92
        0
 93
        3
 72
     1
 10
1009.925527422056
 20
47.41048063573911
 11
1012.89537590304
 21
44.44063215475447
 72
     1
 10
1012.89537590304
 20
44.44063215475447
 11
1009.925527422056
 21
44.44063215475447
 72
     1
 10
1009.925527422056
 20
44.44063215475447
 11
1009.925527422056
 21
47.41048063573911
 97
        0
 75
     0
 76
     1
 98
        1
 10
0.0
 20
0.0
  0
INSERT
  5
272
330
221
100
AcDbEntity
  8
0
  6
Continuous
 62
     7
370
     0
100
AcDbBlockReference
  2
SW_NOTE_0_60
 10
991.9375044843
 20
71.7578536868
 30
0.0
  0
INSERT
  5
276
330
221
100
AcDbEntity
  8
0
  6
Continuous
 62
     7
370
     0
100
AcDbBlockReference
  2
SW_NOTE_0_61
 10
0.0
 20
0.0
 30
0.0
  0
INSERT
  5
27A
330
221
100
AcDbEntity
  8
0
  6
Continuous
 62
     7
370
     0
100
AcDbBlockReference
  2
SW_NOTE_0_62
 10
0.0
 20
0.0
 30
0.0
  0
INSERT
  5
27E
330
221
100
AcDbEntity
  8
0
  6
Continuous
 62
     7
370
     0
100
AcDbBlockReference
  2
SW_NOTE_0_63
 10
0.0
 20
0.0
 30
0.0
  0
INSERT
  5
284
330
221
100
AcDbEntity
  8
0
  6
Continuous
 62
     7
370
     0
100
AcDbBlockReference
  2
SW_NOTE_0_64
 10
1070.4493619664
 20
68.0750875356
 30
0.0
  0
INSERT
  5
289
330
221
100
AcDbEntity
  8
0
  6
Continuous
 62
     7
370
     0
100
AcDbBlockReference
  2
SW_NOTE_0_65
 10
1151.1193962747
 20
77.2368085873
 30
0.0
  0
INSERT
  5
28F
330
221
100
AcDbEntity
  8
0
  6
Continuous
 62
     7
370
     0
100
AcDbBlockReference
  2
SW_NOTE_0_66
 10
1070.4347717288
 20
77.2368085873
 30
0.0
  0
INSERT
  5
297
330
221
100
AcDbEntity
  8
0
  6
Continuous
 62
     7
370
     0
100
AcDbBlockReference
  2
SW_NOTE_0_67
 10
991.9083136088
 20
63.9832518022
 30
0.0
  0
INSERT
  5
29E
330
221
100
AcDbEntity
  8
0
  6
Continuous
 62
     7
370
     0
100
AcDbBlockReference
  2
SW_NOTE_0_68
 10
1031.9245520879
 20
64.0993214053
 30
0.0
  0
INSERT
  5
2A3
330
221
100
AcDbEntity
  8
0
  6
Continuous
 62
     7
370
     0
100
AcDbBlockReference
  2
SW_NOTE_0_69
 10
1009.7421948363
 20
77.1169825294
 30
0.0
  0
INSERT
  5
2A8
330
221
100
AcDbEntity
  8
0
  6
Continuous
 62
     7
370
     0
100
AcDbBlockReference
  2
SW_NOTE_0_70
 10
1165.9760216239
 20
29.6870480748
 30
0.0
  0
INSERT
  5
2AD
330
221
100
AcDbEntity
  8
0
  6
Continuous
 62
     7
370
     0
100
AcDbBlockReference
  2
SW_NOTE_0_71
 10
1151.0336835358
 20
29.6242522663
 30
0.0
  0
INSERT
  5
2B2
330
221
100
AcDbEntity
  8
0
  6
Continuous
 62
     7
370
     0
100
AcDbBlockReference
  2
SW_NOTE_0_72
 10
992.1920021783
 20
30.0078842898
 30
0.0
  0
INSERT
  5
2B8
330
221
100
AcDbEntity
  8
0
  6
Continuous
 62
     7
370
     0
100
AcDbBlockReference
  2
SW_NOTE_0_73
 10
990.0773037019
 20
14.7019784383
 30
0.0
  0
INSERT
  5
2BC
330
221
100
AcDbEntity
  8
0
  6
Continuous
 62
     7
370
     0
100
AcDbBlockReference
  2
SW_NOTE_0_74
 10
0.0
 20
0.0
 30
0.0
  0
INSERT
  5
2C0
330
221
100
AcDbEntity
  8
0
  6
Continuous
 62
     7
370
     0
100
AcDbBlockReference
  2
SW_NOTE_0_75
 10
0.0
 20
0.0
 30
0.0
  0
INSERT
  5
2C4
330
221
100
AcDbEntity
  8
0
  6
Continuous
 62
     7
370
     0
100
AcDbBlockReference
  2
SW_NOTE_0_76
 10
0.0
 20
0.0
 30
0.0
  0
INSERT
  5
2C8
330
221
100
AcDbEntity
  8
0
  6
Continuous
 62
     7
370
     0
100
AcDbBlockReference
  2
SW_NOTE_0_77
 10
0.0
 20
0.0
 30
0.0
  0
INSERT
  5
2CC
330
221
100
AcDbEntity
  8
0
  6
Continuous
 62
     7
370
     0
100
AcDbBlockReference
  2
SW_NOTE_0_78
 10
0.0
 20
0.0
 30
0.0
  0
INSERT
  5
2D0
330
221
100
AcDbEntity
  8
0
  6
Continuous
 62
     7
370
     0
100
AcDbBlockReference
  2
SW_NOTE_0_79
 10
0.0
 20
0.0
 30
0.0
  0
INSERT
  5
2D4
330
221
100
AcDbEntity
  8
0
  6
Continuous
 62
     7
370
     0
100
AcDbBlockReference
  2
SW_NOTE_0_80
 10
0.0
 20
0.0
 30
0.0
  0
INSERT
  5
2D8
330
221
100
AcDbEntity
  8
0
  6
Continuous
 62
     7
370
     0
100
AcDbBlockReference
  2
SW_NOTE_0_81
 10
0.0
 20
0.0
 30
0.0
  0
INSERT
  5
2DC
330
221
100
AcDbEntity
  8
0
  6
Continuous
 62
     7
370
     0
100
AcDbBlockReference
  2
SW_NOTE_0_82
 10
0.0
 20
0.0
 30
0.0
  0
INSERT
  5
2E0
330
221
100
AcDbEntity
  8
0
  6
Continuous
 62
     7
370
     0
100
AcDbBlockReference
  2
SW_NOTE_0_83
 10
0.0
 20
0.0
 30
0.0
  0
INSERT
  5
2E4
330
221
100
AcDbEntity
  8
0
  6
Continuous
 62
     7
370
     0
100
AcDbBlockReference
  2
SW_NOTE_0_84
 10
0.0
 20
0.0
 30
0.0
  0
INSERT
  5
2E8
330
221
100
AcDbEntity
  8
0
  6
Continuous
 62
     7
370
     0
100
AcDbBlockReference
  2
SW_NOTE_0_85
 10
0.0
 20
0.0
 30
0.0
  0
INSERT
  5
2EC
330
221
100
AcDbEntity
  8
0
  6
Continuous
 62
     7
370
     0
100
AcDbBlockReference
  2
SW_NOTE_0_86
 10
0.0
 20
0.0
 30
0.0
  0
INSERT
  5
2F0
330
221
100
AcDbEntity
  8
0
  6
Continuous
 62
     7
370
     0
100
AcDbBlockReference
  2
SW_NOTE_0_87
 10
0.0
 20
0.0
 30
0.0
  0
INSERT
  5
2F4
330
221
100
AcDbEntity
  8
0
  6
Continuous
 62
     7
370
     0
100
AcDbBlockReference
  2
SW_NOTE_0_88
 10
0.0
 20
0.0
 30
0.0
  0
INSERT
  5
2F9
330
221
100
AcDbEntity
  8
0
  6
Continuous
 62
     7
370
     0
100
AcDbBlockReference
  2
SW_NOTE_0_89
 10
1162.8147749787
 20
112.9169024842
 30
0.0
  0
INSERT
  5
2FE
330
221
100
AcDbEntity
  8
0
  6
Continuous
 62
     7
370
     0
100
AcDbBlockReference
  2
SW_NOTE_0_90
 10
1143.6625734918
 20
112.9169024842
 30
0.0
  0
INSERT
  5
303
330
221
100
AcDbEntity
  8
0
  6
Continuous
 62
     7
370
     0
100
AcDbBlockReference
  2
SW_NOTE_0_91
 10
1072.8888583192
 20
112.9169024842
 30
0.0
  0
INSERT
  5
308
330
221
100
AcDbEntity
  8
0
  6
Continuous
 62
     7
370
     0
100
AcDbBlockReference
  2
SW_NOTE_0_92
 10
1004.8913230272
 20
112.9947216963
 30
0.0
  0
INSERT
  5
30D
330
221
100
AcDbEntity
  8
0
  6
Continuous
 62
     7
370
     0
100
AcDbBlockReference
  2
SW_NOTE_0_93
 10
991.629270626
 20
112.9169024842
 30
0.0
  0
INSERT
  5
312
330
221
100
AcDbEntity
  8
0
  6
Continuous
 62
     7
370
     0
100
AcDbBlockReference
  2
SW_NOTE_0_94
 10
990.0773037019
 20
17.1733579142
 30
0.0
  0
INSERT
  5
317
330
221
100
AcDbEntity
  8
0
  6
Continuous
 62
     7
370
     0
100
AcDbBlockReference
  2
SW_NOTE_0_95
 10
1012.76042606
 20
30.0078842898
 30
0.0
  0
INSERT
  5
31C
330
221
100
AcDbEntity
  8
0
  6
Continuous
 62
     7
370
     0
100
AcDbBlockReference
  2
SW_NOTE_0_96
 10
1039.8005665947
 20
57.3152074543
 30
0.0
  0
INSERT
  5
321
330
221
100
AcDbEntity
  8
0
  6
Continuous
 62
     7
370
     0
100
AcDbBlockReference
  2
SW_NOTE_0_97
 10
1031.9245520879
 20
71.7578536868
 30
0.0
  0
INSERT
  5
326
330
221
100
AcDbEntity
  8
0
  6
Continuous
 62
     7
370
     0
100
AcDbBlockReference
  2
SW_NOTE_0_98
 10
989.9454262369
 20
10.0419023584
 30
0.0
  0
INSERT
  5
32B
330
221
100
AcDbEntity
  8
0
  6
Continuous
 62
     7
370
     0
100
AcDbBlockReference
  2
SW_NOTE_0_99
 10
1109.5419135541
 20
15.8904111296
 30
0.0
  0
INSERT
  5
330
330
221
100
AcDbEntity
  8
0
  6
Continuous
 62
     7
370
     0
100
AcDbBlockReference
  2
SW_NOTE_0_100
 10
1090.8993571243
 20
93.6810164423
 30
0.0
  0
INSERT
  5
335
330
221
100
AcDbEntity
  8
0
  6
Continuous
 62
     7
370
     0
100
AcDbBlockReference
  2
SW_NOTE_0_101
 10
1097.7579482099
 20
100.080906715
 30
0.0
  0
INSERT
  5
33A
330
221
100
AcDbEntity
  8
0
  6
Continuous
 62
     7
370
     0
100
AcDbBlockReference
  2
SW_NOTE_0_102
 10
1116.8412776863
 20
93.4596957273
 30
0.0
  0
INSERT
  5
33F
330
221
100
AcDbEntity
  8
0
  6
Continuous
 62
     7
370
     0
100
AcDbBlockReference
  2
SW_NOTE_0_103
 10
1164.8077093601
 20
93.4596957273
 30
0.0
  0
INSERT
  5
344
330
221
100
AcDbEntity
  8
0
  6
Continuous
 62
     7
370
     0
100
AcDbBlockReference
  2
SW_NOTE_0_104
 10
1139.1299164571
 20
93.4596957273
 30
0.0
  0
INSERT
  5
349
330
221
100
AcDbEntity
  8
0
  6
Continuous
 62
     7
370
     0
100
AcDbBlockReference
  2
SW_NOTE_0_105
 10
1147.9723150482
 20
100.080906715
 30
0.0
  0
INSERT
  5
34E
330
221
100
AcDbEntity
  8
0
  6
Continuous
 62
     7
370
     0
100
AcDbBlockReference
  2
SW_NOTE_0_106
 10
1070.2289929985
 20
59.3091511769
 30
0.0
  0
INSERT
  5
353
330
221
100
AcDbEntity
  8
SLD-0
 62
   179
100
AcDbBlockReference
  2
SW_NOTE_0_107
 10
1010.953117187
 20
57.3113549176
 30
0.0
  0
INSERT
  5
358
330
221
100
AcDbEntity
  8
SLD-0
 62
   179
100
AcDbBlockReference
  2
SW_NOTE_0_108
 10
1000.3866115888
 20
41.4299606429
 30
0.0
  0
INSERT
  5
35D
330
221
100
AcDbEntity
  8
SLD-0
 62
   179
100
AcDbBlockReference
  2
SW_NOTE_0_109
 10
1017.4571668429
 20
34.4335663389
 30
0.0
  0
ATTDEF
  5
35E
330
221
100
AcDbEntity
  8
0
  6
Continuous
 62
     7
370
     0
100
AcDbText
 10
1014.3465368568
 20
23.8630128235
 30
0.0
 40
4.5
  1
A2
 41
0.75
  7
SLDTEXTSTYLE3
 11
1014.3465368568
 21
21.5353077507
 31
0.0
100
AcDbAttributeDefinition
  3
Format ?
  2
AUTOATTR38
 70
     0
 74
     1
  0
ATTDEF
  5
35F
330
221
100
AcDbEntity
  8
0
  6
Continuous
 62
     7
370
     0
100
AcDbText
 10
1051.5127901729
 20
24.7177756429
 30
0.0
 40
9.525
  1
GUS-P1307
 41
0.7
  7
SLDTEXTSTYLE0
 11
1051.5127901729
 21
19.7907999056
 31
0.0
100
AcDbAttributeDefinition
  3
Titre 1 ?
  2
NUMERO
 70
     0
 74
     1
  0
ATTDEF
  5
360
330
221
100
AcDbEntity
  8
0
  6
Continuous
 62
     7
370
     0
100
AcDbText
 10
1166.86
 20
23.838128152
 30
0.0
 40
4.5
  1
2/2
 41
0.75
  7
SLDTEXTSTYLE3
 11
1166.86
 21
21.5104230793
 31
0.0
100
AcDbAttributeDefinition
  3
Planche 1/1 ?
  2
AUTOATTR0
 70
     0
 74
     1
  0
ATTDEF
  5
361
330
221
100
AcDbEntity
  8
0
  6
Continuous
 62
     7
370
     0
100
AcDbText
 10
994.974988212
 20
23.8630128235
 30
0.0
 40
4.5
  1
1:1
 41
0.75
  7
SLDTEXTSTYLE3
 11
994.974988212
 21
21.5353077507
 31
0.0
100
AcDbAttributeDefinition
  3
Echelle ?
  2
AUTOATTR2
 70
     0
 74
     1
  0
ATTDEF
  5
362
330
221
100
AcDbEntity
  8
0
  6
Continuous
 62
     7
370
     0
100
AcDbText
 10
1070.6754411999
 20
38.7263156708
 30
0.0
 40
4.2333333333
  1
FAUTEUIL GUS
 41
0.7
  7
SLDTEXTSTYLE0
 11
1070.6754411999
 21
36.5365486765
 31
0.0
100
AcDbAttributeDefinition
  3

  2
AUTOATTR35
 70
     0
 74
     1
  0
ATTDEF
  5
363
330
221
100
AcDbEntity
  8
0
  6
Continuous
 62
     7
370
     0
100
AcDbText
 10
1042.9557655953
 20
47.1802860741
 30
0.0
 40
7.4083333333
  1
PLAQUE MOTEUR
 41
0.8431403406
  7
SLDTEXTSTYLE4
 11
1042.9557655953
 21
43.3481938339
 31
0.0
100
AcDbAttributeDefinition
  3
Titre 1 ?
  2
DESIGNATION
 70
     0
 74
     1
  0
ATTDEF
  5
364
330
221
100
AcDbEntity
  8
0
  6
Continuous
 62
     7
370
     0
100
AcDbText
 10
1150.7528706218
 20
23.838128152
 30
0.0
 40
4.5
  1
A00
 41
0.75
  7
SLDTEXTSTYLE3
 11
1150.7528706218
 21
21.5104230793
 31
0.0
100
AcDbAttributeDefinition
  3
Format ?
  2
AUTOATTR37
 70
     0
 74
     1
  0
ATTDEF
  5
365
330
221
100
AcDbEntity
  8
0
  6
Continuous
 62
     7
370
     0
100
AcDbText
 10
0.0
 20
0.0
 30
0.0
 40
3.5
  1

100
AcDbAttributeDefinition
  3

  2
AUTOATTR14
 70
     0
  0
ATTDEF
  5
366
330
221
100
AcDbEntity
  8
0
  6
Continuous
 62
     7
370
     0
100
AcDbText
 10
0.0
 20
0.0
 30
0.0
 40
3.5
  1

100
AcDbAttributeDefinition
  3

  2
AUTOATTR15
 70
     0
  0
ATTDEF
  5
367
330
221
100
AcDbEntity
  8
0
  6
Continuous
 62
     7
370
     0
100
AcDbText
 10
0.0
 20
0.0
 30
0.0
 40
3.5
  1

100
AcDbAttributeDefinition
  3

  2
AUTOATTR16
 70
     0
  0
ATTDEF
  5
368
330
221
100
AcDbEntity
  8
0
  6
Continuous
 62
     7
370
     0
100
AcDbText
 10
0.0
 20
0.0
 30
0.0
 40
3.5
  1

100
AcDbAttributeDefinition
  3

  2
AUTOATTR17
 70
     0
  0
ATTDEF
  5
369
330
221
100
AcDbEntity
  8
0
  6
Continuous
 62
     7
370
     0
100
AcDbText
 10
0.0
 20
0.0
 30
0.0
 40
3.5
  1

100
AcDbAttributeDefinition
  3

  2
AUTOATTR18
 70
     0
  0
ATTDEF
  5
36A
330
221
100
AcDbEntity
  8
0
  6
Continuous
 62
     7
370
     0
100
AcDbText
 10
1092.1139861112
 20
86.053149077
 30
0.0
 40
2.1166666667
  1
STD
 41
0.7
  7
SLDTEXTSTYLE0
 11
1092.1139861112
 21
84.9582655798
 31
0.0
100
AcDbAttributeDefinition
  3

  2
DESSINE_PAR
 70
     0
 74
     1
  0
ATTDEF
  5
36B
330
221
100
AcDbEntity
  8
0
  6
Continuous
 62
     7
370
     0
100
AcDbText
 10
0.0
 20
0.0
 30
0.0
 40
3.5
  1

100
AcDbAttributeDefinition
  3

  2
VALIDE_PAR
 70
     0
  0
ATTDEF
  5
36C
330
221
100
AcDbEntity
  8
0
  6
Continuous
 62
     7
370
     0
100
AcDbText
 10
1109.6206633539
 20
85.9752036658
 30
0.0
 40
2.1166666667
  1
04/12/2020
 41
0.7
  7
SLDTEXTSTYLE0
 11
1109.6206633539
 21
84.8803201686
 31
0.0
100
AcDbAttributeDefinition
  3

  2
DESSINE_LE
 70
     0
 74
     1
  0
ATTDEF
  5
36D
330
221
100
AcDbEntity
  8
0
  6
Continuous
 62
     7
370
     0
100
AcDbText
 10
0.0
 20
0.0
 30
0.0
 40
3.5
  1

100
AcDbAttributeDefinition
  3

  2
VALIDE_LE
 70
     0
  0
ATTDEF
  5
36E
330
221
100
AcDbEntity
  8
0
  6
Continuous
 62
     7
370
     0
100
AcDbText
 10
1070.4347717288
 20
74.2887785033
 30
0.0
 40
2.1166666667
  1
3.1325 (2017A) T4
 41
0.7
  7
SLDTEXTSTYLE0
 11
1070.4347717288
 21
73.1938950062
 31
0.0
100
AcDbAttributeDefinition
  3

  2
AUTOATTR13
 70
     0
 74
     1
  0
ATTDEF
  5
36F
330
221
100
AcDbEntity
  8
0
  6
Continuous
 62
     7
370
     0
100
AcDbText
 10
0.0
 20
0.0
 30
0.0
 40
3.5
  1

100
AcDbAttributeDefinition
  3

  2
AUTOATTR33
 70
     0
  0
ATTDEF
  5
370
330
221
100
AcDbEntity
  8
0
  6
Continuous
 62
     7
370
     0
100
AcDbText
 10
1070.4347717288
 20
56.7715961553
 30
0.0
 40
2.1166666667
  1
MICROBILLAGE
 41
0.7
  7
SLDTEXTSTYLE0
 11
1070.4347717288
 21
55.6767126581
 31
0.0
100
AcDbAttributeDefinition
  3

  2
AUTOATTR34
 70
     0
 74
     1
  0
ATTDEF
  5
371
330
221
100
AcDbEntity
  8
0
  6
Continuous
 62
     7
370
     0
100
AcDbText
 10
1150.9068775988
 20
74.2951865813
 30
0.0
 40
2.1166666667
  1
0.04 Kg
 41
0.7
  7
SLDTEXTSTYLE0
 11
1150.9068775988
 21
73.2003030842
 31
0.0
100
AcDbAttributeDefinition
  3

  2
AUTOATTR36
 70
     0
 74
     1
  0
ATTDEF
  5
372
330
221
100
AcDbEntity
  8
0
  6
Continuous
 62
     7
370
     0
100
AcDbText
 10
1109.6899263121
 20
12.4160723304
 30
0.0
 40
2.1166666667
  1
GUS-P1307_FIXATION MOTEUR
  7
SLDTEXTSTYLE5
 11
1109.6899263121
 21
11.3211888332
 31
0.0
100
AcDbAttributeDefinition
  3

  2
AUTOATTR39
 70
     0
 74
     1
  0
ATTDEF
  5
373
330
221
100
AcDbEntity
  8
0
  6
Continuous
 62
     7
370
     0
100
AcDbText
 10
0.0
 20
0.0
 30
0.0
 40
3.5
  1

100
AcDbAttributeDefinition
  3

  2
AUTOATTR3
 70
     0
  0
ATTDEF
  5
374
330
221
100
AcDbEntity
  8
0
  6
Continuous
 62
     7
370
     0
100
AcDbText
 10
0.0
 20
0.0
 30
0.0
 40
3.5
  1

100
AcDbAttributeDefinition
  3

  2
AUTOATTR4
 70
     0
  0
ATTDEF
  5
375
330
221
100
AcDbEntity
  8
0
  6
Continuous
 62
     7
370
     0
100
AcDbText
 10
0.0
 20
0.0
 30
0.0
 40
3.5
  1

100
AcDbAttributeDefinition
  3

  2
AUTOATTR5
 70
     0
  0
ATTDEF
  5
376
330
221
100
AcDbEntity
  8
0
  6
Continuous
 62
     7
370
     0
100
AcDbText
 10
0.0
 20
0.0
 30
0.0
 40
3.5
  1

100
AcDbAttributeDefinition
  3

  2
AUTOATTR6
 70
     0
  0
ATTDEF
  5
377
330
221
100
AcDbEntity
  8
0
  6
Continuous
 62
     7
370
     0
100
AcDbText
 10
0.0
 20
0.0
 30
0.0
 40
3.5
  1

100
AcDbAttributeDefinition
  3

  2
AUTOATTR7
 70
     0
  0
ATTDEF
  5
378
330
221
100
AcDbEntity
  8
0
  6
Continuous
 62
     7
370
     0
100
AcDbText
 10
0.0
 20
0.0
 30
0.0
 40
3.5
  1

100
AcDbAttributeDefinition
  3

  2
AUTOATTR20
 70
     0
  0
ATTDEF
  5
379
330
221
100
AcDbEntity
  8
0
  6
Continuous
 62
     7
370
     0
100
AcDbText
 10
0.0
 20
0.0
 30
0.0
 40
3.5
  1

100
AcDbAttributeDefinition
  3

  2
AUTOATTR21
 70
     0
  0
ATTDEF
  5
37A
330
221
100
AcDbEntity
  8
0
  6
Continuous
 62
     7
370
     0
100
AcDbText
 10
0.0
 20
0.0
 30
0.0
 40
3.5
  1

100
AcDbAttributeDefinition
  3

  2
AUTOATTR22
 70
     0
  0
ATTDEF
  5
37B
330
221
100
AcDbEntity
  8
0
  6
Continuous
 62
     7
370
     0
100
AcDbText
 10
0.0
 20
0.0
 30
0.0
 40
3.5
  1

100
AcDbAttributeDefinition
  3

  2
AUTOATTR10
 70
     0
  0
ATTDEF
  5
37C
330
221
100
AcDbEntity
  8
0
  6
Continuous
 62
     7
370
     0
100
AcDbText
 10
0.0
 20
0.0
 30
0.0
 40
3.5
  1

100
AcDbAttributeDefinition
  3

  2
AUTOATTR23
 70
     0
  0
ATTDEF
  5
37D
330
221
100
AcDbEntity
  8
0
  6
Continuous
 62
     7
370
     0
100
AcDbText
 10
0.0
 20
0.0
 30
0.0
 40
3.5
  1

100
AcDbAttributeDefinition
  3

  2
AUTOATTR24
 70
     0
  0
ATTDEF
  5
37E
330
221
100
AcDbEntity
  8
0
  6
Continuous
 62
     7
370
     0
100
AcDbText
 10
0.0
 20
0.0
 30
0.0
 40
3.5
  1

100
AcDbAttributeDefinition
  3

  2
AUTOATTR8
 70
     0
  0
ATTDEF
  5
37F
330
221
100
AcDbEntity
  8
0
  6
Continuous
 62
     7
370
     0
100
AcDbText
 10
0.0
 20
0.0
 30
0.0
 40
3.5
  1

100
AcDbAttributeDefinition
  3

  2
AUTOATTR25
 70
     0
  0
ATTDEF
  5
380
330
221
100
AcDbEntity
  8
0
  6
Continuous
 62
     7
370
     0
100
AcDbText
 10
0.0
 20
0.0
 30
0.0
 40
3.5
  1

100
AcDbAttributeDefinition
  3

  2
AUTOATTR26
 70
     0
  0
ATTDEF
  5
381
330
221
100
AcDbEntity
  8
0
  6
Continuous
 62
     7
370
     0
100
AcDbText
 10
0.0
 20
0.0
 30
0.0
 40
3.5
  1

100
AcDbAttributeDefinition
  3

  2
AUTOATTR9
 70
     0
  0
ATTDEF
  5
382
330
221
100
AcDbEntity
  8
0
  6
Continuous
 62
     7
370
     0
100
AcDbText
 10
0.0
 20
0.0
 30
0.0
 40
3.5
  1

100
AcDbAttributeDefinition
  3

  2
AUTOATTR27
 70
     0
  0
ATTDEF
  5
383
330
221
100
AcDbEntity
  8
0
  6
Continuous
 62
     7
370
     0
100
AcDbText
 10
0.0
 20
0.0
 30
0.0
 40
3.5
  1

100
AcDbAttributeDefinition
  3

  2
AUTOATTR28
 70
     0
  0
ATTDEF
  5
384
330
221
100
AcDbEntity
  8
0
  6
Continuous
 62
     7
370
     0
100
AcDbText
 10
0.0
 20
0.0
 30
0.0
 40
3.5
  1

100
AcDbAttributeDefinition
  3

  2
AUTOATTR11
 70
     0
  0
ATTDEF
  5
385
330
221
100
AcDbEntity
  8
0
  6
Continuous
 62
     7
370
     0
100
AcDbText
 10
0.0
 20
0.0
 30
0.0
 40
3.5
  1

100
AcDbAttributeDefinition
  3

  2
AUTOATTR29
 70
     0
  0
ATTDEF
  5
386
330
221
100
AcDbEntity
  8
0
  6
Continuous
 62
     7
370
     0
100
AcDbText
 10
0.0
 20
0.0
 30
0.0
 40
3.5
  1

100
AcDbAttributeDefinition
  3

  2
AUTOATTR30
 70
     0
  0
INSERT
  5
3D0
330
221
100
AcDbEntity
  8
0
  6
Continuous
 62
     7
100
AcDbBlockReference
  2
_OBLIQUE_0
 10
1009.9255274221
 20
58.0861061819
 30
0.0
  0
INSERT
  5
3D1
330
221
100
AcDbEntity
  8
0
  6
Continuous
 62
     7
100
AcDbBlockReference
  2
_OBLIQUE_0
 10
1002.6339407607
 20
44.4406321548
 30
0.0
 50
90.0
  0
INSERT
  5
3D2
330
221
100
AcDbEntity
  8
0
  6
Continuous
 62
     7
100
AcDbBlockReference
  2
_OBLIQUE_0
 10
1013.9604355384
 20
43.3755725194
 30
0.0
 50
45.0
  0
INSERT
  5
3D3
330
221
100
AcDbEntity
  8
0
  6
Continuous
 62
     7
100
AcDbBlockReference
  2
_OBLIQUE_0
 10
1006.1755274221
 20
58.0861061818
 30
0.0
 50
180.0
  0
INSERT
  5
3D4
330
221
100
AcDbEntity
  8
0
  6
Continuous
 62
     7
100
AcDbBlockReference
  2
_OBLIQUE_0
 10
1002.6339407607
 20
41.4406321548
 30
0.0
 50
270.0
  0
INSERT
  5
3D5
330
221
100
AcDbEntity
  8
0
  6
Continuous
 62
     7
100
AcDbBlockReference
  2
_OBLIQUE_0
 10
1012.4755112979
 20
41.8906482788
 30
0.0
 50
225.0
  0
ENDBLK
  5
223
330
221
100
AcDbEntity
  8
0
100
AcDbBlockEnd
  0
BLOCK
  5
26E
330
26D
100
AcDbEntity
  8
0
100
AcDbBlockBegin
  2
SW_NOTE_0_60
 70
     0
 10
0.0
 20
0.0
 30
0.0
  3
SW_NOTE_0_60
  1

  0
MTEXT
  5
270
330
26D
100
AcDbEntity
  8
0
  6
Continuous
 62
     0
370
     0
100
AcDbMText
 10
0.0
 20
3.2226693494
 30
0.0
 40
2.5
 41
0.0
 71
     1
 72
     1
  1
MECANO-SOUDURE
  7
SLDTEXTSTYLE0
 73
     1
 44
1.0
  0
MTEXT
  5
271
330
26D
100
AcDbEntity
  8
0
  6
Continuous
 62
     0
370
     0
100
AcDbMText
 10
0.0
 20
-0.0551083447
 30
0.0
 40
2.5
 41
0.0
 71
     1
 72
     1
  1
ET TOLERIE
  7
SLDTEXTSTYLE0
 73
     1
 44
1.0
  0
ENDBLK
  5
26F
330
26D
100
AcDbEntity
  8
0
100
AcDbBlockEnd
  0
BLOCK
  5
274
330
273
100
AcDbEntity
  8
0
100
AcDbBlockBegin
  2
SW_NOTE_0_61
 70
     0
 10
0.0
 20
0.0
 30
0.0
  3
SW_NOTE_0_61
  1

  0
ENDBLK
  5
275
330
273
100
AcDbEntity
  8
0
100
AcDbBlockEnd
  0
BLOCK
  5
278
330
277
100
AcDbEntity
  8
0
100
AcDbBlockBegin
  2
SW_NOTE_0_62
 70
     0
 10
0.0
 20
0.0
 30
0.0
  3
SW_NOTE_0_62
  1

  0
ENDBLK
  5
279
330
277
100
AcDbEntity
  8
0
100
AcDbBlockEnd
  0
BLOCK
  5
27C
330
27B
100
AcDbEntity
  8
0
100
AcDbBlockBegin
  2
SW_NOTE_0_63
 70
     0
 10
0.0
 20
0.0
 30
0.0
  3
SW_NOTE_0_63
  1

  0
ENDBLK
  5
27D
330
27B
100
AcDbEntity
  8
0
100
AcDbBlockEnd
  0
BLOCK
  5
280
330
27F
100
AcDbEntity
  8
0
100
AcDbBlockBegin
  2
SW_NOTE_0_64
 70
     0
 10
0.0
 20
0.0
 30
0.0
  3
SW_NOTE_0_64
  1

  0
MTEXT
  5
282
330
27F
100
AcDbEntity
  8
0
  6
Continuous
 62
     0
370
     0
100
AcDbMText
 10
0.0
 20
3.2226693494
 30
0.0
 40
2.5
 41
0.0
 71
     1
 72
     1
  1
REVETEMENT
  7
SLDTEXTSTYLE0
 73
     1
 44
1.0
  0
MTEXT
  5
283
330
27F
100
AcDbEntity
  8
0
  6
Continuous
 62
     0
370
     0
100
AcDbMText
 10
21.8090265989
 20
2.7336910296
 30
0.0
 40
2.0
 41
0.0
 71
     1
 72
     1
  1
(Si peinture: 1 couche antirouille avant peinture)
  7
SLDTEXTSTYLE0
 73
     1
 44
1.0
  0
ENDBLK
  5
281
330
27F
100
AcDbEntity
  8
0
100
AcDbBlockEnd
  0
BLOCK
  5
286
330
285
100
AcDbEntity
  8
0
100
AcDbBlockBegin
  2
SW_NOTE_0_65
 70
     0
 10
0.0
 20
0.0
 30
0.0
  3
SW_NOTE_0_65
  1

  0
MTEXT
  5
288
330
285
100
AcDbEntity
  8
0
  6
Continuous
 62
     0
370
     0
100
AcDbMText
 10
0.0
 20
3.2226693494
 30
0.0
 40
2.5
 41
0.0
 71
     1
 72
     1
  1
MASSE
  7
SLDTEXTSTYLE0
 73
     1
 44
1.0
  0
ENDBLK
  5
287
330
285
100
AcDbEntity
  8
0
100
AcDbBlockEnd
  0
BLOCK
  5
28B
330
28A
100
AcDbEntity
  8
0
100
AcDbBlockBegin
  2
SW_NOTE_0_66
 70
     0
 10
0.0
 20
0.0
 30
0.0
  3
SW_NOTE_0_66
  1

  0
MTEXT
  5
28D
330
28A
100
AcDbEntity
  8
0
  6
Continuous
 62
     0
370
     0
100
AcDbMText
 10
0.0
 20
3.2226693494
 30
0.0
 40
2.5
 41
0.0
 71
     1
 72
     1
  1
MATIERE
  7
SLDTEXTSTYLE0
 73
     1
 44
1.0
  0
MTEXT
  5
28E
330
28A
100
AcDbEntity
  8
0
  6
Continuous
 62
     0
370
     0
100
AcDbMText
 10
15.8611107618
 20
2.7336910296
 30
0.0
 40
2.0
 41
0.0
 71
     1
 72
     1
  1
(ou voir tableau de débits)
  7
SLDTEXTSTYLE0
 73
     1
 44
1.0
  0
ENDBLK
  5
28C
330
28A
100
AcDbEntity
  8
0
100
AcDbBlockEnd
  0
BLOCK
  5
291
330
290
100
AcDbEntity
  8
0
100
AcDbBlockBegin
  2
SW_NOTE_0_67
 70
     0
 10
0.0
 20
0.0
 30
0.0
  3
SW_NOTE_0_67
  1

  0
MTEXT
  5
293
330
290
100
AcDbEntity
  8
0
  6
Continuous
 62
     0
370
     0
100
AcDbMText
 10
0.0
 20
3.2226693494
 30
0.0
 40
2.5
 41
0.0
 71
     1
 72
     1
  1
NORME:
  7
SLDTEXTSTYLE0
 73
     1
 44
1.0
  0
MTEXT
  5
294
330
290
100
AcDbEntity
  8
0
  6
Continuous
 62
     0
370
     0
100
AcDbMText
 10
11.895833537
 20
3.2226693494
 30
0.0
 40
2.5
 41
0.0
 71
     1
 72
     1
  1
ISO 13920 BF
  7
SLDTEXTSTYLE0
 73
     1
 44
1.0
  0
MTEXT
  5
295
330
290
100
AcDbEntity
  8
0
  6
Continuous
 62
     0
370
     0
100
AcDbMText
 10
0.0
 20
-0.0440868155
 30
0.0
 40
2.0
 41
0.0
 71
     1
 72
     1
  1
a = 0,7 e mini
  7
SLDTEXTSTYLE1
 73
     1
 44
1.0
  0
MTEXT
  5
296
330
290
100
AcDbEntity
  8
0
  6
Continuous
 62
     0
370
     0
100
AcDbMText
 10
0.0
 20
-2.6663091105
 30
0.0
 40
2.0
 41
0.0
 71
     1
 72
     1
  1
a = 3 mini
  7
SLDTEXTSTYLE2
 73
     1
 44
1.0
  0
ENDBLK
  5
292
330
290
100
AcDbEntity
  8
0
100
AcDbBlockEnd
  0
BLOCK
  5
299
330
298
100
AcDbEntity
  8
0
100
AcDbBlockBegin
  2
SW_NOTE_0_68
 70
     0
 10
0.0
 20
0.0
 30
0.0
  3
SW_NOTE_0_68
  1

  0
MTEXT
  5
29B
330
298
100
AcDbEntity
  8
0
  6
Continuous
 62
     0
370
     0
100
AcDbMText
 10
0.0
 20
3.2226693494
 30
0.0
 40
2.5
 41
0.0
 71
     1
 72
     1
  1
NORME:
  7
SLDTEXTSTYLE0
 73
     1
 44
1.0
  0
MTEXT
  5
29C
330
298
100
AcDbEntity
  8
0
  6
Continuous
 62
     0
370
     0
100
AcDbMText
 10
11.895833537
 20
3.2226693494
 30
0.0
 40
2.5
 41
0.0
 71
     1
 72
     1
  1
ISO 2768
  7
SLDTEXTSTYLE0
 73
     1
 44
1.0
  0
MTEXT
  5
29D
330
298
100
AcDbEntity
  8
0
  6
Continuous
 62
     0
370
     0
100
AcDbMText
 10
29.7395829111
 20
3.2226693494
 30
0.0
 40
2.5
 41
0.0
 71
     1
 72
     1
  1
mK
  7
SLDTEXTSTYLE0
 73
     1
 44
1.0
  0
ENDBLK
  5
29A
330
298
100
AcDbEntity
  8
0
100
AcDbBlockEnd
  0
BLOCK
  5
2A0
330
29F
100
AcDbEntity
  8
0
100
AcDbBlockBegin
  2
SW_NOTE_0_69
 70
     0
 10
0.0
 20
0.0
 30
0.0
  3
SW_NOTE_0_69
  1

  0
MTEXT
  5
2A2
330
29F
100
AcDbEntity
  8
0
  6
Continuous
 62
     0
370
     0
100
AcDbMText
 10
0.0
 20
3.2226693494
 30
0.0
 40
2.5
 41
0.0
 71
     1
 72
     1
  1
TOLERANCE GENERALE
  7
SLDTEXTSTYLE0
 73
     1
 44
1.0
  0
ENDBLK
  5
2A1
330
29F
100
AcDbEntity
  8
0
100
AcDbBlockEnd
  0
BLOCK
  5
2A5
330
2A4
100
AcDbEntity
  8
0
100
AcDbBlockBegin
  2
SW_NOTE_0_70
 70
     0
 10
0.0
 20
0.0
 30
0.0
  3
SW_NOTE_0_70
  1

  0
MTEXT
  5
2A7
330
2A4
100
AcDbEntity
  8
0
  6
Continuous
 62
     0
370
     0
100
AcDbMText
 10
0.0
 20
3.2226693494
 30
0.0
 40
2.5
 41
0.0
 71
     1
 72
     1
  1
FOLIO
  7
SLDTEXTSTYLE0
 73
     1
 44
1.0
  0
ENDBLK
  5
2A6
330
2A4
100
AcDbEntity
  8
0
100
AcDbBlockEnd
  0
BLOCK
  5
2AA
330
2A9
100
AcDbEntity
  8
0
100
AcDbBlockBegin
  2
SW_NOTE_0_71
 70
     0
 10
0.0
 20
0.0
 30
0.0
  3
SW_NOTE_0_71
  1

  0
MTEXT
  5
2AC
330
2A9
100
AcDbEntity
  8
0
  6
Continuous
 62
     0
370
     0
100
AcDbMText
 10
0.0
 20
3.2226693494
 30
0.0
 40
2.5
 41
0.0
 71
     1
 72
     1
  1
INDICE
  7
SLDTEXTSTYLE0
 73
     1
 44
1.0
  0
ENDBLK
  5
2AB
330
2A9
100
AcDbEntity
  8
0
100
AcDbBlockEnd
  0
BLOCK
  5
2AF
330
2AE
100
AcDbEntity
  8
0
100
AcDbBlockBegin
  2
SW_NOTE_0_72
 70
     0
 10
0.0
 20
0.0
 30
0.0
  3
SW_NOTE_0_72
  1

  0
MTEXT
  5
2B1
330
2AE
100
AcDbEntity
  8
0
  6
Continuous
 62
     0
370
     0
100
AcDbMText
 10
0.0
 20
3.2226693494
 30
0.0
 40
2.5
 41
0.0
 71
     1
 72
     1
  1
ECHELLE
  7
SLDTEXTSTYLE0
 73
     1
 44
1.0
  0
ENDBLK
  5
2B0
330
2AE
100
AcDbEntity
  8
0
100
AcDbBlockEnd
  0
BLOCK
  5
2B4
330
2B3
100
AcDbEntity
  8
0
100
AcDbBlockBegin
  2
SW_NOTE_0_73
 70
     0
 10
0.0
 20
0.0
 30
0.0
  3
SW_NOTE_0_73
  1

  0
MTEXT
  5
2B6
330
2B3
100
AcDbEntity
  8
0
  6
Continuous
 62
     0
370
     0
100
AcDbMText
 10
0.0
 20
2.1914151576
 30
0.0
 40
1.7
 41
0.0
 71
     1
 72
     1
  1
IL NE PEUT ETRE COMMUNIQUE A DES TIERS ET/OU REPRODUIT
  7
SLDTEXTSTYLE3
 73
     1
 44
1.0
  0
MTEXT
  5
2B7
330
2B3
100
AcDbEntity
  8
0
  6
Continuous
 62
     0
370
     0
100
AcDbMText
 10
0.0
 20
-0.0067792288
 30
0.0
 40
1.7
 41
0.0
 71
     1
 72
     1
  1
SANS AUTORISATION ECRITE ET SON CONTENU NE PEUT ETRE DIVULGUE
  7
SLDTEXTSTYLE3
 73
     1
 44
1.0
  0
ENDBLK
  5
2B5
330
2B3
100
AcDbEntity
  8
0
100
AcDbBlockEnd
  0
BLOCK
  5
2BA
330
2B9
100
AcDbEntity
  8
0
100
AcDbBlockBegin
  2
SW_NOTE_0_74
 70
     0
 10
0.0
 20
0.0
 30
0.0
  3
SW_NOTE_0_74
  1

  0
ENDBLK
  5
2BB
330
2B9
100
AcDbEntity
  8
0
100
AcDbBlockEnd
  0
BLOCK
  5
2BE
330
2BD
100
AcDbEntity
  8
0
100
AcDbBlockBegin
  2
SW_NOTE_0_75
 70
     0
 10
0.0
 20
0.0
 30
0.0
  3
SW_NOTE_0_75
  1

  0
ENDBLK
  5
2BF
330
2BD
100
AcDbEntity
  8
0
100
AcDbBlockEnd
  0
BLOCK
  5
2C2
330
2C1
100
AcDbEntity
  8
0
100
AcDbBlockBegin
  2
SW_NOTE_0_76
 70
     0
 10
0.0
 20
0.0
 30
0.0
  3
SW_NOTE_0_76
  1

  0
ENDBLK
  5
2C3
330
2C1
100
AcDbEntity
  8
0
100
AcDbBlockEnd
  0
BLOCK
  5
2C6
330
2C5
100
AcDbEntity
  8
0
100
AcDbBlockBegin
  2
SW_NOTE_0_77
 70
     0
 10
0.0
 20
0.0
 30
0.0
  3
SW_NOTE_0_77
  1

  0
ENDBLK
  5
2C7
330
2C5
100
AcDbEntity
  8
0
100
AcDbBlockEnd
  0
BLOCK
  5
2CA
330
2C9
100
AcDbEntity
  8
0
100
AcDbBlockBegin
  2
SW_NOTE_0_78
 70
     0
 10
0.0
 20
0.0
 30
0.0
  3
SW_NOTE_0_78
  1

  0
ENDBLK
  5
2CB
330
2C9
100
AcDbEntity
  8
0
100
AcDbBlockEnd
  0
BLOCK
  5
2CE
330
2CD
100
AcDbEntity
  8
0
100
AcDbBlockBegin
  2
SW_NOTE_0_79
 70
     0
 10
0.0
 20
0.0
 30
0.0
  3
SW_NOTE_0_79
  1

  0
ENDBLK
  5
2CF
330
2CD
100
AcDbEntity
  8
0
100
AcDbBlockEnd
  0
BLOCK
  5
2D2
330
2D1
100
AcDbEntity
  8
0
100
AcDbBlockBegin
  2
SW_NOTE_0_80
 70
     0
 10
0.0
 20
0.0
 30
0.0
  3
SW_NOTE_0_80
  1

  0
ENDBLK
  5
2D3
330
2D1
100
AcDbEntity
  8
0
100
AcDbBlockEnd
  0
BLOCK
  5
2D6
330
2D5
100
AcDbEntity
  8
0
100
AcDbBlockBegin
  2
SW_NOTE_0_81
 70
     0
 10
0.0
 20
0.0
 30
0.0
  3
SW_NOTE_0_81
  1

  0
ENDBLK
  5
2D7
330
2D5
100
AcDbEntity
  8
0
100
AcDbBlockEnd
  0
BLOCK
  5
2DA
330
2D9
100
AcDbEntity
  8
0
100
AcDbBlockBegin
  2
SW_NOTE_0_82
 70
     0
 10
0.0
 20
0.0
 30
0.0
  3
SW_NOTE_0_82
  1

  0
ENDBLK
  5
2DB
330
2D9
100
AcDbEntity
  8
0
100
AcDbBlockEnd
  0
BLOCK
  5
2DE
330
2DD
100
AcDbEntity
  8
0
100
AcDbBlockBegin
  2
SW_NOTE_0_83
 70
     0
 10
0.0
 20
0.0
 30
0.0
  3
SW_NOTE_0_83
  1

  0
ENDBLK
  5
2DF
330
2DD
100
AcDbEntity
  8
0
100
AcDbBlockEnd
  0
BLOCK
  5
2E2
330
2E1
100
AcDbEntity
  8
0
100
AcDbBlockBegin
  2
SW_NOTE_0_84
 70
     0
 10
0.0
 20
0.0
 30
0.0
  3
SW_NOTE_0_84
  1

  0
ENDBLK
  5
2E3
330
2E1
100
AcDbEntity
  8
0
100
AcDbBlockEnd
  0
BLOCK
  5
2E6
330
2E5
100
AcDbEntity
  8
0
100
AcDbBlockBegin
  2
SW_NOTE_0_85
 70
     0
 10
0.0
 20
0.0
 30
0.0
  3
SW_NOTE_0_85
  1

  0
ENDBLK
  5
2E7
330
2E5
100
AcDbEntity
  8
0
100
AcDbBlockEnd
  0
BLOCK
  5
2EA
330
2E9
100
AcDbEntity
  8
0
100
AcDbBlockBegin
  2
SW_NOTE_0_86
 70
     0
 10
0.0
 20
0.0
 30
0.0
  3
SW_NOTE_0_86
  1

  0
ENDBLK
  5
2EB
330
2E9
100
AcDbEntity
  8
0
100
AcDbBlockEnd
  0
BLOCK
  5
2EE
330
2ED
100
AcDbEntity
  8
0
100
AcDbBlockBegin
  2
SW_NOTE_0_87
 70
     0
 10
0.0
 20
0.0
 30
0.0
  3
SW_NOTE_0_87
  1

  0
ENDBLK
  5
2EF
330
2ED
100
AcDbEntity
  8
0
100
AcDbBlockEnd
  0
BLOCK
  5
2F2
330
2F1
100
AcDbEntity
  8
0
100
AcDbBlockBegin
  2
SW_NOTE_0_88
 70
     0
 10
0.0
 20
0.0
 30
0.0
  3
SW_NOTE_0_88
  1

  0
ENDBLK
  5
2F3
330
2F1
100
AcDbEntity
  8
0
100
AcDbBlockEnd
  0
BLOCK
  5
2F6
330
2F5
100
AcDbEntity
  8
0
100
AcDbBlockBegin
  2
SW_NOTE_0_89
 70
     0
 10
0.0
 20
0.0
 30
0.0
  3
SW_NOTE_0_89
  1

  0
MTEXT
  5
2F8
330
2F5
100
AcDbEntity
  8
0
  6
Continuous
 62
     0
370
     0
100
AcDbMText
 10
0.0
 20
2.5781354795
 30
0.0
 40
2.0
 41
0.0
 71
     1
 72
     1
  1
VALIDE PAR
  7
SLDTEXTSTYLE3
 73
     1
 44
1.0
  0
ENDBLK
  5
2F7
330
2F5
100
AcDbEntity
  8
0
100
AcDbBlockEnd
  0
BLOCK
  5
2FB
330
2FA
100
AcDbEntity
  8
0
100
AcDbBlockBegin
  2
SW_NOTE_0_90
 70
     0
 10
0.0
 20
0.0
 30
0.0
  3
SW_NOTE_0_90
  1

  0
MTEXT
  5
2FD
330
2FA
100
AcDbEntity
  8
0
  6
Continuous
 62
     0
370
     0
100
AcDbMText
 10
0.0
 20
2.5781354795
 30
0.0
 40
2.0
 41
0.0
 71
     1
 72
     1
  1
DESSINE PAR
  7
SLDTEXTSTYLE3
 73
     1
 44
1.0
  0
ENDBLK
  5
2FC
330
2FA
100
AcDbEntity
  8
0
100
AcDbBlockEnd
  0
BLOCK
  5
300
330
2FF
100
AcDbEntity
  8
0
100
AcDbBlockBegin
  2
SW_NOTE_0_91
 70
     0
 10
0.0
 20
0.0
 30
0.0
  3
SW_NOTE_0_91
  1

  0
MTEXT
  5
302
330
2FF
100
AcDbEntity
  8
0
  6
Continuous
 62
     0
370
     0
100
AcDbMText
 10
0.0
 20
2.5781354795
 30
0.0
 40
2.0
 41
0.0
 71
     1
 72
     1
  1
DESCRIPTION
  7
SLDTEXTSTYLE3
 73
     1
 44
1.0
  0
ENDBLK
  5
301
330
2FF
100
AcDbEntity
  8
0
100
AcDbBlockEnd
  0
BLOCK
  5
305
330
304
100
AcDbEntity
  8
0
100
AcDbBlockBegin
  2
SW_NOTE_0_92
 70
     0
 10
0.0
 20
0.0
 30
0.0
  3
SW_NOTE_0_92
  1

  0
MTEXT
  5
307
330
304
100
AcDbEntity
  8
0
  6
Continuous
 62
     0
370
     0
100
AcDbMText
 10
0.0
 20
2.5781354795
 30
0.0
 40
2.0
 41
0.0
 71
     1
 72
     1
  1
DATE
  7
SLDTEXTSTYLE3
 73
     1
 44
1.0
  0
ENDBLK
  5
306
330
304
100
AcDbEntity
  8
0
100
AcDbBlockEnd
  0
BLOCK
  5
30A
330
309
100
AcDbEntity
  8
0
100
AcDbBlockBegin
  2
SW_NOTE_0_93
 70
     0
 10
0.0
 20
0.0
 30
0.0
  3
SW_NOTE_0_93
  1

  0
MTEXT
  5
30C
330
309
100
AcDbEntity
  8
0
  6
Continuous
 62
     0
370
     0
100
AcDbMText
 10
0.0
 20
2.5781354795
 30
0.0
 40
2.0
 41
0.0
 71
     1
 72
     1
  1
IND
  7
SLDTEXTSTYLE3
 73
     1
 44
1.0
  0
ENDBLK
  5
30B
330
309
100
AcDbEntity
  8
0
100
AcDbBlockEnd
  0
BLOCK
  5
30F
330
30E
100
AcDbEntity
  8
0
100
AcDbBlockBegin
  2
SW_NOTE_0_94
 70
     0
 10
0.0
 20
0.0
 30
0.0
  3
SW_NOTE_0_94
  1

  0
MTEXT
  5
311
330
30E
100
AcDbEntity
  8
0
  6
Continuous
 62
     0
370
     0
100
AcDbMText
 10
0.0
 20
2.1914151576
 30
0.0
 40
1.7
 41
0.0
 71
     1
 72
     1
  1
CE DOCUMENT EST LA PROPRIETE D'OPUS IT :
  7
SLDTEXTSTYLE3
 73
     1
 44
1.0
  0
ENDBLK
  5
310
330
30E
100
AcDbEntity
  8
0
100
AcDbBlockEnd
  0
BLOCK
  5
314
330
313
100
AcDbEntity
  8
0
100
AcDbBlockBegin
  2
SW_NOTE_0_95
 70
     0
 10
0.0
 20
0.0
 30
0.0
  3
SW_NOTE_0_95
  1

  0
MTEXT
  5
316
330
313
100
AcDbEntity
  8
0
  6
Continuous
 62
     0
370
     0
100
AcDbMText
 10
0.0
 20
3.2226693494
 30
0.0
 40
2.5
 41
0.0
 71
     1
 72
     1
  1
FORMAT
  7
SLDTEXTSTYLE0
 73
     1
 44
1.0
  0
ENDBLK
  5
315
330
313
100
AcDbEntity
  8
0
100
AcDbBlockEnd
  0
BLOCK
  5
319
330
318
100
AcDbEntity
  8
0
100
AcDbBlockBegin
  2
SW_NOTE_0_96
 70
     0
 10
0.0
 20
0.0
 30
0.0
  3
SW_NOTE_0_96
  1

  0
MTEXT
  5
31B
330
318
100
AcDbEntity
  8
0
  6
Continuous
 62
     0
370
     0
100
AcDbMText
 10
0.0
 20
3.2226693494
 30
0.0
 40
2.5
 41
0.0
 71
     1
 72
     1
  1
Ra 3.2 MAX
  7
SLDTEXTSTYLE0
 73
     1
 44
1.0
  0
ENDBLK
  5
31A
330
318
100
AcDbEntity
  8
0
100
AcDbBlockEnd
  0
BLOCK
  5
31E
330
31D
100
AcDbEntity
  8
0
100
AcDbBlockBegin
  2
SW_NOTE_0_97
 70
     0
 10
0.0
 20
0.0
 30
0.0
  3
SW_NOTE_0_97
  1

  0
MTEXT
  5
320
330
31D
100
AcDbEntity
  8
0
  6
Continuous
 62
     0
370
     0
100
AcDbMText
 10
0.0
 20
3.2226693494
 30
0.0
 40
2.5
 41
0.0
 71
     1
 72
     1
  1
USINAGE
  7
SLDTEXTSTYLE0
 73
     1
 44
1.0
  0
ENDBLK
  5
31F
330
31D
100
AcDbEntity
  8
0
100
AcDbBlockEnd
  0
BLOCK
  5
323
330
322
100
AcDbEntity
  8
0
100
AcDbBlockBegin
  2
SW_NOTE_0_98
 70
     0
 10
0.0
 20
0.0
 30
0.0
  3
SW_NOTE_0_98
  1

  0
MTEXT
  5
325
330
322
100
AcDbEntity
  8
0
  6
Continuous
 62
     0
370
     0
100
AcDbMText
 10
0.0
 20
2.1914151576
 30
0.0
 40
1.7
 41
0.0
 71
     1
 72
     1
  1
CE PLAN A ETE REALISE EN CAO, TOUTE MODIFICATION NE POURRA ETRE EXECUTEE QU'EN CAO
  7
SLDTEXTSTYLE3
 73
     1
 44
1.0
  0
ENDBLK
  5
324
330
322
100
AcDbEntity
  8
0
100
AcDbBlockEnd
  0
BLOCK
  5
328
330
327
100
AcDbEntity
  8
0
100
AcDbBlockBegin
  2
SW_NOTE_0_99
 70
     0
 10
0.0
 20
0.0
 30
0.0
  3
SW_NOTE_0_99
  1

  0
MTEXT
  5
32A
330
327
100
AcDbEntity
  8
0
  6
Continuous
 62
     0
370
     0
100
AcDbMText
 10
0.0
 20
3.2226693494
 30
0.0
 40
2.5
 41
0.0
 71
     1
 72
     1
  1
FICHIER 3D ASSOCIE
  7
SLDTEXTSTYLE0
 73
     1
 44
1.0
  0
ENDBLK
  5
329
330
327
100
AcDbEntity
  8
0
100
AcDbBlockEnd
  0
BLOCK
  5
32D
330
32C
100
AcDbEntity
  8
0
100
AcDbBlockBegin
  2
SW_NOTE_0_100
 70
     0
 10
0.0
 20
0.0
 30
0.0
  3
SW_NOTE_0_100
  1

  0
MTEXT
  5
32F
330
32C
100
AcDbEntity
  8
0
  6
Continuous
 62
     0
370
     0
100
AcDbMText
 10
0.0
 20
3.2226693494
 30
0.0
 40
2.5
 41
0.0
 71
     1
 72
     1
  1
PAR
  7
SLDTEXTSTYLE0
 73
     1
 44
1.0
  0
ENDBLK
  5
32E
330
32C
100
AcDbEntity
  8
0
100
AcDbBlockEnd
  0
BLOCK
  5
332
330
331
100
AcDbEntity
  8
0
100
AcDbBlockBegin
  2
SW_NOTE_0_101
 70
     0
 10
0.0
 20
0.0
 30
0.0
  3
SW_NOTE_0_101
  1

  0
MTEXT
  5
334
330
331
100
AcDbEntity
  8
0
  6
Continuous
 62
     0
370
     0
100
AcDbMText
 10
0.0
 20
3.2226693494
 30
0.0
 40
2.5
 41
0.0
 71
     1
 72
     1
  1
DESSINE
  7
SLDTEXTSTYLE0
 73
     1
 44
1.0
  0
ENDBLK
  5
333
330
331
100
AcDbEntity
  8
0
100
AcDbBlockEnd
  0
BLOCK
  5
337
330
336
100
AcDbEntity
  8
0
100
AcDbBlockBegin
  2
SW_NOTE_0_102
 70
     0
 10
0.0
 20
0.0
 30
0.0
  3
SW_NOTE_0_102
  1

  0
MTEXT
  5
339
330
336
100
AcDbEntity
  8
0
  6
Continuous
 62
     0
370
     0
100
AcDbMText
 10
0.0
 20
3.2226693494
 30
0.0
 40
2.5
 41
0.0
 71
     1
 72
     1
  1
LE
  7
SLDTEXTSTYLE0
 73
     1
 44
1.0
  0
ENDBLK
  5
338
330
336
100
AcDbEntity
  8
0
100
AcDbBlockEnd
  0
BLOCK
  5
33C
330
33B
100
AcDbEntity
  8
0
100
AcDbBlockBegin
  2
SW_NOTE_0_103
 70
     0
 10
0.0
 20
0.0
 30
0.0
  3
SW_NOTE_0_103
  1

  0
MTEXT
  5
33E
330
33B
100
AcDbEntity
  8
0
  6
Continuous
 62
     0
370
     0
100
AcDbMText
 10
0.0
 20
3.2226693494
 30
0.0
 40
2.5
 41
0.0
 71
     1
 72
     1
  1
LE
  7
SLDTEXTSTYLE0
 73
     1
 44
1.0
  0
ENDBLK
  5
33D
330
33B
100
AcDbEntity
  8
0
100
AcDbBlockEnd
  0
BLOCK
  5
341
330
340
100
AcDbEntity
  8
0
100
AcDbBlockBegin
  2
SW_NOTE_0_104
 70
     0
 10
0.0
 20
0.0
 30
0.0
  3
SW_NOTE_0_104
  1

  0
MTEXT
  5
343
330
340
100
AcDbEntity
  8
0
  6
Continuous
 62
     0
370
     0
100
AcDbMText
 10
0.0
 20
3.2226693494
 30
0.0
 40
2.5
 41
0.0
 71
     1
 72
     1
  1
PAR
  7
SLDTEXTSTYLE0
 73
     1
 44
1.0
  0
ENDBLK
  5
342
330
340
100
AcDbEntity
  8
0
100
AcDbBlockEnd
  0
BLOCK
  5
346
330
345
100
AcDbEntity
  8
0
100
AcDbBlockBegin
  2
SW_NOTE_0_105
 70
     0
 10
0.0
 20
0.0
 30
0.0
  3
SW_NOTE_0_105
  1

  0
MTEXT
  5
348
330
345
100
AcDbEntity
  8
0
  6
Continuous
 62
     0
370
     0
100
AcDbMText
 10
0.0
 20
3.2226693494
 30
0.0
 40
2.5
 41
0.0
 71
     1
 72
     1
  1
VALIDE
  7
SLDTEXTSTYLE0
 73
     1
 44
1.0
  0
ENDBLK
  5
347
330
345
100
AcDbEntity
  8
0
100
AcDbBlockEnd
  0
BLOCK
  5
34B
330
34A
100
AcDbEntity
  8
0
100
AcDbBlockBegin
  2
SW_NOTE_0_106
 70
     0
 10
0.0
 20
0.0
 30
0.0
  3
SW_NOTE_0_106
  1

  0
MTEXT
  5
34D
330
34A
100
AcDbEntity
  8
0
  6
Continuous
 62
     0
370
     0
100
AcDbMText
 10
0.0
 20
3.2226693494
 30
0.0
 40
2.5
 41
0.0
 71
     1
 72
     1
  1
TRAITEMENT
  7
SLDTEXTSTYLE0
 73
     1
 44
1.0
  0
ENDBLK
  5
34C
330
34A
100
AcDbEntity
  8
0
100
AcDbBlockEnd
  0
BLOCK
  5
350
330
34F
100
AcDbEntity
  8
0
100
AcDbBlockBegin
  2
SW_NOTE_0_107
 70
     0
 10
0.0
 20
0.0
 30
0.0
  3
SW_NOTE_0_107
  1

  0
MTEXT
  5
352
330
34F
100
AcDbEntity
  8
SLD-0
 62
     0
100
AcDbMText
 10
1.7797851562
 20
5.4382545272
 30
0.0
 40
4.21875
 41
0.0
 71
     2
 72
     1
  1
e
  7
SLDTEXTSTYLE3
 73
     1
 44
1.0
  0
ENDBLK
  5
351
330
34F
100
AcDbEntity
  8
0
100
AcDbBlockEnd
  0
BLOCK
  5
355
330
354
100
AcDbEntity
  8
0
100
AcDbBlockBegin
  2
SW_NOTE_0_108
 70
     0
 10
0.0
 20
0.0
 30
0.0
  3
SW_NOTE_0_108
  1

  0
MTEXT
  5
357
330
354
100
AcDbEntity
  8
SLD-0
 62
     0
100
AcDbMText
 10
-5.4382545272
 20
1.4501953125
 30
0.0
 40
4.21875
 41
0.0
 71
     2
 72
     1
  1
e
  7
SLDTEXTSTYLE0
 11
6.123233995736766E-17
 21
1.0
 31
0.0
 73
     1
 44
1.0
  0
ENDBLK
  5
356
330
354
100
AcDbEntity
  8
0
100
AcDbBlockEnd
  0
BLOCK
  5
35A
330
359
100
AcDbEntity
  8
0
100
AcDbBlockBegin
  2
SW_NOTE_0_109
 70
     0
 10
0.0
 20
0.0
 30
0.0
  3
SW_NOTE_0_109
  1

  0
MTEXT
  5
35C
330
359
100
AcDbEntity
  8
SLD-0
 62
     0
100
AcDbMText
 10
-2.8199837145
 20
4.8708695935
 30
0.0
 40
4.21875
 41
0.0
 71
     2
 72
     1
  1
a
  7
SLDTEXTSTYLE0
 11
0.7071067811865983
 21
0.7071067811864968
 31
0.0
 73
     1
 44
1.0
  0
ENDBLK
  5
35B
330
359
100
AcDbEntity
  8
0
100
AcDbBlockEnd
  0
BLOCK
  5
388
330
387
100
AcDbEntity
  8
0
100
AcDbBlockBegin
  2
CADRE A2_OPUS_V1_1
 70
     0
 10
0.0
 20
0.0
 30
0.0
  3
CADRE A2_OPUS_V1_1
  1

  0
LINE
  5
38A
330
387
100
AcDbEntity
  8
0
  6
Continuous
 62
     7
370
    25
100
AcDbLine
 10
604.9999990427
 20
409.9999994493
 30
0.0
 11
1178.9999990427
 21
409.9999994493
 31
0.0
  0
LINE
  5
38B
330
387
100
AcDbEntity
  8
0
  6
Continuous
 62
     7
370
    25
100
AcDbLine
 10
604.9999990427
 20
9.9999994493
 30
0.0
 11
604.9999990427
 21
409.9999994493
 31
0.0
  0
LINE
  5
38C
330
387
100
AcDbEntity
  8
0
  6
Continuous
 62
     7
370
    25
100
AcDbLine
 10
1178.9999990427
 20
9.9999994493
 30
0.0
 11
604.9999990427
 21
9.9999994493
 31
0.0
  0
LINE
  5
38D
330
387
100
AcDbEntity
  8
0
  6
Continuous
 62
     7
370
    25
100
AcDbLine
 10
1178.9999990427
 20
409.9999994493
 30
0.0
 11
1178.9999990427
 21
9.9999994493
 31
0.0
  0
LINE
  5
38E
330
387
100
AcDbEntity
  8
0
  6
Continuous
 62
     7
370
    25
100
AcDbLine
 10
1178.9999990427
 20
296.9999994493
 30
0.0
 11
1188.9999990427
 21
296.9999994493
 31
0.0
  0
LINE
  5
38F
330
387
100
AcDbEntity
  8
0
  6
Continuous
 62
     7
370
    25
100
AcDbLine
 10
978.9999990427
 20
9.9999994493
 30
0.0
 11
978.9999990427
 21
-0.0000005507
 31
0.0
  0
LINE
  5
390
330
387
100
AcDbEntity
  8
0
  6
Continuous
 62
     7
370
    25
100
AcDbLine
 10
768.9999990427
 20
9.9999994493
 30
0.0
 11
768.9999990427
 21
-0.0000005507
 31
0.0
  0
LINE
  5
391
330
387
100
AcDbEntity
  8
0
  6
Continuous
 62
     7
370
    25
100
AcDbLine
 10
978.9999990426
 20
419.9999994493
 30
0.0
 11
978.9999990426
 21
409.9999994493
 31
0.0
  0
LINE
  5
392
330
387
100
AcDbEntity
  8
0
  6
Continuous
 62
     7
370
    25
100
AcDbLine
 10
768.9999990426
 20
419.9999994493
 30
0.0
 11
768.9999990426
 21
409.9999994493
 31
0.0
  0
LINE
  5
393
330
387
100
AcDbEntity
  8
0
  6
Continuous
 62
     7
370
    25
100
AcDbLine
 10
594.9999990427
 20
296.9999994493
 30
0.0
 11
604.9999990427
 21
296.9999994493
 31
0.0
  0
INSERT
  5
398
330
387
100
AcDbEntity
  8
0
  6
Continuous
 62
     7
370
    18
100
AcDbBlockReference
  2
SW_NOTE_0_110
 10
1087.7709578202
 20
0.8342294417
 30
0.0
  0
INSERT
  5
39D
330
387
100
AcDbEntity
  8
0
  6
Continuous
 62
     7
370
    18
100
AcDbBlockReference
  2
SW_NOTE_0_111
 10
865.3129979078
 20
0.8342294417
 30
0.0
  0
INSERT
  5
3A2
330
387
100
AcDbEntity
  8
0
  6
Continuous
 62
     7
370
    18
100
AcDbBlockReference
  2
SW_NOTE_0_112
 10
661.83546142
 20
0.8342294417
 30
0.0
  0
INSERT
  5
3A7
330
387
100
AcDbEntity
  8
0
  6
Continuous
 62
     7
370
    18
100
AcDbBlockReference
  2
SW_NOTE_0_113
 10
1182.7047736308
 20
157.5170224934
 30
0.0
  0
INSERT
  5
3AC
330
387
100
AcDbEntity
  8
0
  6
Continuous
 62
     7
370
    18
100
AcDbBlockReference
  2
SW_NOTE_0_114
 10
1182.2527435782
 20
354.7377692781
 30
0.0
  0
INSERT
  5
3B1
330
387
100
AcDbEntity
  8
0
  6
Continuous
 62
     7
370
    18
100
AcDbBlockReference
  2
SW_NOTE_0_115
 10
1087.7709578201
 20
410.8342294417
 30
0.0
  0
INSERT
  5
3B6
330
387
100
AcDbEntity
  8
0
  6
Continuous
 62
     7
370
    18
100
AcDbBlockReference
  2
SW_NOTE_0_116
 10
865.3129979077
 20
410.8342294417
 30
0.0
  0
INSERT
  5
3BB
330
387
100
AcDbEntity
  8
0
  6
Continuous
 62
     7
370
    18
100
AcDbBlockReference
  2
SW_NOTE_0_117
 10
661.83546142
 20
410.8342294417
 30
0.0
  0
INSERT
  5
3C0
330
387
100
AcDbEntity
  8
0
  6
Continuous
 62
     7
370
    18
100
AcDbBlockReference
  2
SW_NOTE_0_118
 10
598.7047736308
 20
157.5170224933
 30
0.0
  0
INSERT
  5
3C5
330
387
100
AcDbEntity
  8
0
  6
Continuous
 62
     7
370
    18
100
AcDbBlockReference
  2
SW_NOTE_0_119
 10
598.2527435781
 20
354.737769278
 30
0.0
  0
ENDBLK
  5
389
330
387
100
AcDbEntity
  8
0
100
AcDbBlockEnd
  0
BLOCK
  5
395
330
394
100
AcDbEntity
  8
0
100
AcDbBlockBegin
  2
SW_NOTE_0_110
 70
     0
 10
0.0
 20
0.0
 30
0.0
  3
SW_NOTE_0_110
  1

  0
MTEXT
  5
397
330
394
100
AcDbEntity
  8
0
  6
Continuous
 62
     0
370
    18
100
AcDbMText
 10
0.0
 20
6.4453386989
 30
0.0
 40
5.0
 41
0.0
 71
     1
 72
     1
  1
A
  7
SLDTEXTSTYLE0
 73
     1
 44
1.0
  0
ENDBLK
  5
396
330
394
100
AcDbEntity
  8
0
100
AcDbBlockEnd
  0
BLOCK
  5
39A
330
399
100
AcDbEntity
  8
0
100
AcDbBlockBegin
  2
SW_NOTE_0_111
 70
     0
 10
0.0
 20
0.0
 30
0.0
  3
SW_NOTE_0_111
  1

  0
MTEXT
  5
39C
330
399
100
AcDbEntity
  8
0
  6
Continuous
 62
     0
370
    18
100
AcDbMText
 10
0.0
 20
6.4453386989
 30
0.0
 40
5.0
 41
0.0
 71
     1
 72
     1
  1
B
  7
SLDTEXTSTYLE0
 73
     1
 44
1.0
  0
ENDBLK
  5
39B
330
399
100
AcDbEntity
  8
0
100
AcDbBlockEnd
  0
BLOCK
  5
39F
330
39E
100
AcDbEntity
  8
0
100
AcDbBlockBegin
  2
SW_NOTE_0_112
 70
     0
 10
0.0
 20
0.0
 30
0.0
  3
SW_NOTE_0_112
  1

  0
MTEXT
  5
3A1
330
39E
100
AcDbEntity
  8
0
  6
Continuous
 62
     0
370
    18
100
AcDbMText
 10
0.0
 20
6.4453386989
 30
0.0
 40
5.0
 41
0.0
 71
     1
 72
     1
  1
C
  7
SLDTEXTSTYLE0
 73
     1
 44
1.0
  0
ENDBLK
  5
3A0
330
39E
100
AcDbEntity
  8
0
100
AcDbBlockEnd
  0
BLOCK
  5
3A4
330
3A3
100
AcDbEntity
  8
0
100
AcDbBlockBegin
  2
SW_NOTE_0_113
 70
     0
 10
0.0
 20
0.0
 30
0.0
  3
SW_NOTE_0_113
  1

  0
MTEXT
  5
3A6
330
3A3
100
AcDbEntity
  8
0
  6
Continuous
 62
     0
370
    18
100
AcDbMText
 10
0.0
 20
6.4453386989
 30
0.0
 40
5.0
 41
0.0
 71
     1
 72
     1
  1
1
  7
SLDTEXTSTYLE0
 73
     1
 44
1.0
  0
ENDBLK
  5
3A5
330
3A3
100
AcDbEntity
  8
0
100
AcDbBlockEnd
  0
BLOCK
  5
3A9
330
3A8
100
AcDbEntity
  8
0
100
AcDbBlockBegin
  2
SW_NOTE_0_114
 70
     0
 10
0.0
 20
0.0
 30
0.0
  3
SW_NOTE_0_114
  1

  0
MTEXT
  5
3AB
330
3A8
100
AcDbEntity
  8
0
  6
Continuous
 62
     0
370
    18
100
AcDbMText
 10
0.0
 20
6.4453386989
 30
0.0
 40
5.0
 41
0.0
 71
     1
 72
     1
  1
2
  7
SLDTEXTSTYLE0
 73
     1
 44
1.0
  0
ENDBLK
  5
3AA
330
3A8
100
AcDbEntity
  8
0
100
AcDbBlockEnd
  0
BLOCK
  5
3AE
330
3AD
100
AcDbEntity
  8
0
100
AcDbBlockBegin
  2
SW_NOTE_0_115
 70
     0
 10
0.0
 20
0.0
 30
0.0
  3
SW_NOTE_0_115
  1

  0
MTEXT
  5
3B0
330
3AD
100
AcDbEntity
  8
0
  6
Continuous
 62
     0
370
    18
100
AcDbMText
 10
0.0
 20
6.4453386989
 30
0.0
 40
5.0
 41
0.0
 71
     1
 72
     1
  1
A
  7
SLDTEXTSTYLE0
 73
     1
 44
1.0
  0
ENDBLK
  5
3AF
330
3AD
100
AcDbEntity
  8
0
100
AcDbBlockEnd
  0
BLOCK
  5
3B3
330
3B2
100
AcDbEntity
  8
0
100
AcDbBlockBegin
  2
SW_NOTE_0_116
 70
     0
 10
0.0
 20
0.0
 30
0.0
  3
SW_NOTE_0_116
  1

  0
MTEXT
  5
3B5
330
3B2
100
AcDbEntity
  8
0
  6
Continuous
 62
     0
370
    18
100
AcDbMText
 10
0.0
 20
6.4453386989
 30
0.0
 40
5.0
 41
0.0
 71
     1
 72
     1
  1
B
  7
SLDTEXTSTYLE0
 73
     1
 44
1.0
  0
ENDBLK
  5
3B4
330
3B2
100
AcDbEntity
  8
0
100
AcDbBlockEnd
  0
BLOCK
  5
3B8
330
3B7
100
AcDbEntity
  8
0
100
AcDbBlockBegin
  2
SW_NOTE_0_117
 70
     0
 10
0.0
 20
0.0
 30
0.0
  3
SW_NOTE_0_117
  1

  0
MTEXT
  5
3BA
330
3B7
100
AcDbEntity
  8
0
  6
Continuous
 62
     0
370
    18
100
AcDbMText
 10
0.0
 20
6.4453386989
 30
0.0
 40
5.0
 41
0.0
 71
     1
 72
     1
  1
C
  7
SLDTEXTSTYLE0
 73
     1
 44
1.0
  0
ENDBLK
  5
3B9
330
3B7
100
AcDbEntity
  8
0
100
AcDbBlockEnd
  0
BLOCK
  5
3BD
330
3BC
100
AcDbEntity
  8
0
100
AcDbBlockBegin
  2
SW_NOTE_0_118
 70
     0
 10
0.0
 20
0.0
 30
0.0
  3
SW_NOTE_0_118
  1

  0
MTEXT
  5
3BF
330
3BC
100
AcDbEntity
  8
0
  6
Continuous
 62
     0
370
    18
100
AcDbMText
 10
0.0
 20
6.4453386989
 30
0.0
 40
5.0
 41
0.0
 71
     1
 72
     1
  1
1
  7
SLDTEXTSTYLE0
 73
     1
 44
1.0
  0
ENDBLK
  5
3BE
330
3BC
100
AcDbEntity
  8
0
100
AcDbBlockEnd
  0
BLOCK
  5
3C2
330
3C1
100
AcDbEntity
  8
0
100
AcDbBlockBegin
  2
SW_NOTE_0_119
 70
     0
 10
0.0
 20
0.0
 30
0.0
  3
SW_NOTE_0_119
  1

  0
MTEXT
  5
3C4
330
3C1
100
AcDbEntity
  8
0
  6
Continuous
 62
     0
370
    18
100
AcDbMText
 10
0.0
 20
6.4453386989
 30
0.0
 40
5.0
 41
0.0
 71
     1
 72
     1
  1
2
  7
SLDTEXTSTYLE0
 73
     1
 44
1.0
  0
ENDBLK
  5
3C3
330
3C1
100
AcDbEntity
  8
0
100
AcDbBlockEnd
  0
BLOCK
  5
3C7
330
3C6
100
AcDbEntity
  8
0
100
AcDbBlockBegin
  2
_OBLIQUE_0
 70
     0
 10
0.0
 20
0.0
 30
0.0
  3
_OBLIQUE_0
  1

  0
LINE
  5
3C9
330
3C6
100
AcDbEntity
  8
SLD-0
  6
Continuous
 62
   221
100
AcDbLine
 10
-0.5
 20
-0.5
 30
0.0
 11
0.5
 21
0.5
 31
0.0
  0
ENDBLK
  5
3C8
330
3C6
100
AcDbEntity
  8
0
100
AcDbBlockEnd
  0
BLOCK
  5
43C
330
43B
100
AcDbEntity
  8
0
100
AcDbBlockBegin
  2
$TD_AUDIT_GENERATED_(0)
 70
     0
 10
0.0
 20
0.0
 30
0.0
  3
$TD_AUDIT_GENERATED_(0)
  1

  0
ENDBLK
  5
43D
330
43B
100
AcDbEntity
  8
0
100
AcDbBlockEnd
  0
ENDSEC
  0
SECTION
  2
ENTITIES
  0
SPLINE
  5
3D6
330
1F
100
AcDbEntity
  8
0
  6
Continuous
 62
     7
370
    25
100
AcDbSpline
210
0.0
220
0.0
230
1.0
 70
     8
 71
     3
 72
    14
 73
    10
 74
     0
 42
0.00000001
 43
0.00000001
 40
0.0
 40
0.0
 40
0.0
 40
0.0
 40
0.25
 40
0.25
 40
0.5
 40
0.5
 40
0.75
 40
0.75
 40
1.0
 40
1.0
 40
1.0
 40
1.0
 10
195.5921534324346
 20
246.750085961777
 30
0.0
 10
195.4985890444837
 20
246.6124898438516
 30
0.0
 10
195.3974574260459
 20
246.4771275564815
 30
0.0
 10
195.1779669444889
 20
246.2109055146461
 30
0.0
 10
195.0578744379276
 20
246.0784344015224
 30
0.0
 10
194.8086407621205
 20
245.8291843734622
 30
0.0
 10
194.6793954548741
 20
245.7118776924382
 30
0.0
 10
194.4120279233371
 20
245.4911338910337
 30
0.0
 10
194.2744576760107
 20
245.3883150544238
 30
0.0
 10
194.1367258705976
 20
245.2946583999399
 30
0.0
  0
ARC
  5
3D7
330
1F
100
AcDbEntity
  8
0
  6
Continuous
 62
     7
370
    25
100
AcDbCircle
 10
198.4686639305
 20
242.4181479019
 30
0.0
 40
5.200000000000024
100
AcDbArc
 50
146.4148883221
 51
123.5851116779
  0
CIRCLE
  5
3D8
330
1F
100
AcDbEntity
  8
0
  6
Continuous
 62
     7
370
    25
100
AcDbCircle
 10
198.4686639305
 20
242.4181479019
 30
0.0
 40
2.150000000000006
  0
ARC
  5
3D9
330
1F
100
AcDbEntity
  8
0
  6
Continuous
 62
     7
370
    25
100
AcDbCircle
 10
183.6194215256
 20
257.2673903068
 30
0.0
 40
5.199999999999985
100
AcDbArc
 50
326.4148883221
 51
303.5851116779
  0
CIRCLE
  5
3DA
330
1F
100
AcDbEntity
  8
0
  6
Continuous
 62
     7
370
    25
100
AcDbCircle
 10
183.6194215256
 20
257.2673903068
 30
0.0
 40
2.150000000000006
  0
SPLINE
  5
3DB
330
1F
100
AcDbEntity
  8
0
  6
Continuous
 62
     7
370
    25
100
AcDbSpline
210
0.0
220
0.0
230
1.0
 70
     8
 71
     3
 72
    14
 73
    10
 74
     0
 42
0.00000001
 43
0.00000001
 40
0.0
 40
0.0
 40
0.0
 40
0.0
 40
0.25
 40
0.25
 40
0.5
 40
0.5
 40
0.75
 40
0.75
 40
1.0
 40
1.0
 40
1.0
 40
1.0
 10
186.4959320236046
 20
252.9354522469328
 30
0.0
 10
186.5894964115556
 20
253.0730483648582
 30
0.0
 10
186.6906280299933
 20
253.2084106522283
 30
0.0
 10
186.9101185115503
 20
253.4746326940636
 30
0.0
 10
187.0302110181117
 20
253.6071038071873
 30
0.0
 10
187.2794446939188
 20
253.8563538352476
 30
0.0
 10
187.4086900011652
 20
253.9736605162716
 30
0.0
 10
187.6760575327022
 20
254.1944043176761
 30
0.0
 10
187.8136277800286
 20
254.297223154286
 30
0.0
 10
187.9513595854417
 20
254.3908798087699
 30
0.0
  0
ARC
  5
3DC
330
1F
100
AcDbEntity
  8
0
  6
Continuous
 62
     7
370
    25
100
AcDbCircle
 10
183.6194215256
 20
242.4181479019
 30
0.0
 40
5.199999999999985
100
AcDbArc
 50
56.4148883221
 51
33.5851116779
  0
CIRCLE
  5
3DD
330
1F
100
AcDbEntity
  8
0
  6
Continuous
 62
     7
370
    25
100
AcDbCircle
 10
183.6194215256
 20
242.4181479019
 30
0.0
 40
2.150000000000006
  0
SPLINE
  5
3DE
330
1F
100
AcDbEntity
  8
0
  6
Continuous
 62
     7
370
    25
100
AcDbSpline
210
0.0
220
0.0
230
1.0
 70
     8
 71
     3
 72
    14
 73
    10
 74
     0
 42
0.00000001
 43
0.00000001
 40
0.0
 40
0.0
 40
0.0
 40
0.0
 40
0.2500000000000002
 40
0.2500000000000002
 40
0.5000000000000004
 40
0.5000000000000004
 40
0.7500000000000002
 40
0.7500000000000002
 40
1.0
 40
1.0
 40
1.0
 40
1.0
 10
187.9513595854417
 20
245.2946583999399
 30
0.0
 10
187.8137634675164
 20
245.3882227878909
 30
0.0
 10
187.6784011801462
 20
245.4893544063286
 30
0.0
 10
187.4121791383109
 20
245.7088448878856
 30
0.0
 10
187.2797080251872
 20
245.8289373944469
 30
0.0
 10
187.0304579971269
 20
246.0781710702541
 30
0.0
 10
186.913151316103
 20
246.2074163775005
 30
0.0
 10
186.6924075146984
 20
246.4747839090375
 30
0.0
 10
186.5895886780885
 20
246.6123541563639
 30
0.0
 10
186.4959320236046
 20
246.750085961777
 30
0.0
  0
ARC
  5
3DF
330
1F
100
AcDbEntity
  8
0
  6
Continuous
 62
     7
370
    25
100
AcDbCircle
 10
198.4686639305
 20
257.2673903068
 30
0.0
 40
5.200000000000008
100
AcDbArc
 50
236.4148883221
 51
213.5851116779
  0
CIRCLE
  5
3E0
330
1F
100
AcDbEntity
  8
0
  6
Continuous
 62
     7
370
    25
100
AcDbCircle
 10
198.4686639305
 20
257.2673903068
 30
0.0
 40
2.150000000000006
  0
SPLINE
  5
3E1
330
1F
100
AcDbEntity
  8
0
  6
Continuous
 62
     7
370
    25
100
AcDbSpline
210
0.0
220
0.0
230
1.0
 70
     8
 71
     3
 72
    14
 73
    10
 74
     0
 42
0.00000001
 43
0.00000001
 40
0.0
 40
0.0
 40
0.0
 40
0.0
 40
0.25
 40
0.25
 40
0.5
 40
0.5
 40
0.75
 40
0.75
 40
1.0
 40
1.0
 40
1.0
 40
1.0
 10
194.1367258705976
 20
254.3908798087699
 30
0.0
 10
194.2743219885229
 20
254.2973154208189
 30
0.0
 10
194.4096842758931
 20
254.1961838023812
 30
0.0
 10
194.6759063177284
 20
253.9766933208242
 30
0.0
 10
194.8083774308521
 20
253.8566008142628
 30
0.0
 10
195.0576274589123
 20
253.6073671384557
 30
0.0
 10
195.1749341399363
 20
253.4781218312093
 30
0.0
 10
195.3956779413409
 20
253.2107542996723
 30
0.0
 10
195.4984967779507
 20
253.0731840523459
 30
0.0
 10
195.5921534324346
 20
252.9354522469328
 30
0.0
  0
LINE
  5
3E2
330
1F
100
AcDbEntity
  8
0
  6
Continuous
 62
     7
370
    25
100
AcDbLine
 10
212.044042728
 20
270.3427691044
 30
0.0
 11
211.044042728
 21
271.3427691044
 31
0.0
  0
LINE
  5
3E3
330
1F
100
AcDbEntity
  8
0
  6
Continuous
 62
     7
370
    25
100
AcDbLine
 10
201.044042728
 20
191.8427691044
 30
0.0
 11
203.044042728
 21
189.8427691044
 31
0.0
  0
LINE
  5
3E4
330
1F
100
AcDbEntity
  8
0
  6
Continuous
 62
     7
370
    25
100
AcDbLine
 10
202.3773760614
 20
195.9857465004
 30
0.0
 11
201.044042728
 21
194.1001284172
 31
0.0
  0
ARC
  5
3E5
330
1F
100
AcDbEntity
  8
0
  6
Continuous
 62
     7
370
    25
100
AcDbCircle
 10
201.544042728
 20
198.3427691044
 30
0.0
 40
2.5
100
AcDbArc
 50
289.4712206345
 51
0.0
  0
ARC
  5
3E6
330
1F
100
AcDbEntity
  8
0
  6
Continuous
 62
     7
370
    25
100
AcDbCircle
 10
201.544042728
 20
221.3427691044
 30
0.0
 40
2.5
100
AcDbArc
 50
0.0
 51
90.0
  0
ARC
  5
3E7
330
1F
100
AcDbEntity
  8
0
  6
Continuous
 62
     7
370
    25
100
AcDbCircle
 10
180.544042728
 20
221.3427691044
 30
0.0
 40
2.5
100
AcDbArc
 50
90.0
 51
180.0
  0
LINE
  5
3E8
330
1F
100
AcDbEntity
  8
0
  6
Continuous
 62
     7
370
    25
100
AcDbLine
 10
181.044042728
 20
194.1001284172
 30
0.0
 11
179.7107093947
 21
195.9857465004
 31
0.0
  0
LINE
  5
3E9
330
1F
100
AcDbEntity
  8
0
  6
Continuous
 62
     7
370
    25
100
AcDbLine
 10
181.044042728
 20
194.1001284172
 30
0.0
 11
181.044042728
 21
191.8427691044
 31
0.0
  0
LINE
  5
3EA
330
1F
100
AcDbEntity
  8
0
  6
Continuous
 62
     7
370
    25
100
AcDbLine
 10
179.044042728
 20
189.8427691044
 30
0.0
 11
181.044042728
 21
191.8427691044
 31
0.0
  0
LINE
  5
3EB
330
1F
100
AcDbEntity
  8
0
  6
Continuous
 62
     7
370
    25
100
AcDbLine
 10
171.044042728
 20
271.3427691044
 30
0.0
 11
170.044042728
 21
270.3427691044
 31
0.0
  0
LINE
  5
3EC
330
1F
100
AcDbEntity
  8
0
  6
Continuous
 62
     7
370
    25
100
AcDbLine
 10
201.044042728
 20
191.8427691044
 30
0.0
 11
201.044042728
 21
194.1001284172
 31
0.0
  0
LINE
  5
3ED
330
1F
100
AcDbEntity
  8
0
  6
Continuous
 62
     7
370
    25
100
AcDbLine
 10
170.044042728
 20
189.8427691044
 30
0.0
 11
179.044042728
 21
189.8427691044
 31
0.0
  0
LINE
  5
3EE
330
1F
100
AcDbEntity
  8
0
  6
Continuous
 62
     7
370
    25
100
AcDbLine
 10
201.544042728
 20
223.8427691044
 30
0.0
 11
180.544042728
 21
223.8427691044
 31
0.0
  0
LINE
  5
3EF
330
1F
100
AcDbEntity
  8
0
  6
Continuous
 62
     7
370
    25
100
AcDbLine
 10
211.044042728
 20
271.3427691044
 30
0.0
 11
171.044042728
 21
271.3427691044
 31
0.0
  0
LINE
  5
3F0
330
1F
100
AcDbEntity
  8
0
  6
Continuous
 62
     7
370
    25
100
AcDbLine
 10
178.044042728
 20
198.3427691044
 30
0.0
 11
178.044042728
 21
221.3427691044
 31
0.0
  0
ARC
  5
3F1
330
1F
100
AcDbEntity
  8
0
  6
Continuous
 62
     7
370
    25
100
AcDbCircle
 10
180.544042728
 20
198.3427691044
 30
0.0
 40
2.500000000000013
100
AcDbArc
 50
180.0
 51
250.5287793655
  0
LINE
  5
3F2
330
1F
100
AcDbEntity
  8
0
  6
Continuous
 62
     7
370
    25
100
AcDbLine
 10
170.044042728
 20
270.3427691044
 30
0.0
 11
170.044042728
 21
189.8427691044
 31
0.0
  0
LINE
  5
3F3
330
1F
100
AcDbEntity
  8
0
  6
Continuous
 62
     7
370
    25
100
AcDbLine
 10
212.044042728
 20
189.8427691044
 30
0.0
 11
212.044042728
 21
270.3427691044
 31
0.0
  0
LINE
  5
3F4
330
1F
100
AcDbEntity
  8
0
  6
Continuous
 62
     7
370
    25
100
AcDbLine
 10
204.044042728
 20
198.3427691044
 30
0.0
 11
204.044042728
 21
221.3427691044
 31
0.0
  0
LINE
  5
3F5
330
1F
100
AcDbEntity
  8
0
  6
Continuous
 62
     7
370
    25
100
AcDbLine
 10
203.044042728
 20
189.8427691044
 30
0.0
 11
212.044042728
 21
189.8427691044
 31
0.0
  0
ARC
  5
3F6
330
1F
100
AcDbEntity
  8
0
  6
Continuous
 62
     7
370
    25
100
AcDbCircle
 10
191.044042728
 20
249.8427691044
 30
0.0
 40
5.500000000000018
100
AcDbArc
 50
55.7845747047
 51
124.2154252953
  0
ARC
  5
3F7
330
1F
100
AcDbEntity
  8
0
  6
Continuous
 62
     7
370
    25
100
AcDbCircle
 10
191.044042728
 20
249.8427691044
 30
0.0
 40
5.500000000000018
100
AcDbArc
 50
325.7845747047
 51
34.2154252953
  0
ARC
  5
3F8
330
1F
100
AcDbEntity
  8
0
  6
Continuous
 62
     7
370
    25
100
AcDbCircle
 10
191.044042728
 20
249.8427691044
 30
0.0
 40
5.500000000000002
100
AcDbArc
 50
235.7845747047
 51
304.2154252953
  0
ARC
  5
3F9
330
1F
100
AcDbEntity
  8
0
  6
Continuous
 62
     7
370
    25
100
AcDbCircle
 10
191.044042728
 20
249.8427691044
 30
0.0
 40
5.500000000000018
100
AcDbArc
 50
145.7845747047
 51
214.2154252953
  0
CIRCLE
  5
3FA
330
1F
100
AcDbEntity
  8
0
  6
Continuous
 62
     7
370
    25
100
AcDbCircle
 10
200.2364308834
 20
200.6503809489
 30
0.0
 40
1.700000000000017
  0
ARC
  5
3FB
330
1F
100
AcDbEntity
  8
0
  6
Continuous
 62
     7
370
    25
100
AcDbCircle
 10
200.2364308834
 20
200.6503809489
 30
0.0
 40
3.650000000000004
100
AcDbArc
 50
167.1900638794
 51
102.8099361206
  0
SPLINE
  5
3FC
330
1F
100
AcDbEntity
  8
0
  6
Continuous
 62
     7
370
    25
100
AcDbSpline
210
0.0
220
0.0
230
1.0
 70
     8
 71
     3
 72
    18
 73
    14
 74
     0
 42
0.00000001
 43
0.00000001
 40
0.0
 40
0.0
 40
0.0
 40
0.0
 40
0.2500000000000002
 40
0.2500000000000002
 40
0.3750000000000002
 40
0.3750000000000002
 40
0.5000000000000003
 40
0.5000000000000003
 40
0.6250000000000004
 40
0.6250000000000004
 40
0.7500000000000004
 40
0.7500000000000004
 40
1.0
 40
1.0
 40
1.0
 40
1.0
 10
199.4271616333826
 20
204.2095358037942
 30
0.0
 10
199.2634966142105
 20
203.9659770439907
 30
0.0
 10
199.084328212311
 20
203.7214778974677
 30
0.0
 10
198.775535499519
 20
203.3419523324901
 30
0.0
 10
198.664662929425
 20
203.2120856394788
 30
0.0
 10
198.4335568756924
 20
202.9554694791903
 30
0.0
 10
198.3125776141177
 20
202.8277410547652
 30
0.0
 10
198.0587294714541
 20
202.5739048314138
 30
0.0
 10
197.9311452298297
 20
202.4530710907635
 30
0.0
 10
197.6745135641728
 20
202.2219637602041
 30
0.0
 10
197.5446376475735
 20
202.1110911166191
 30
0.0
 10
197.1652504594326
 20
201.8024251337552
 30
0.0
 10
196.9208006822074
 20
201.6232922997191
 30
0.0
 10
196.6772760285806
 20
201.4596501989921
 30
0.0
  0
CIRCLE
  5
3FD
330
1F
100
AcDbEntity
  8
0
  6
Continuous
 62
     7
370
    25
100
AcDbCircle
 10
181.8516545726
 20
200.6503809489
 30
0.0
 40
1.699999999999989
  0
ARC
  5
3FE
330
1F
100
AcDbEntity
  8
0
  6
Continuous
 62
     7
370
    25
100
AcDbCircle
 10
181.8516545726
 20
200.6503809489
 30
0.0
 40
3.649999999999992
100
AcDbArc
 50
77.1900638794
 51
12.8099361206
  0
SPLINE
  5
3FF
330
1F
100
AcDbEntity
  8
0
  6
Continuous
 62
     7
370
    25
100
AcDbSpline
210
0.0
220
0.0
230
1.0
 70
     8
 71
     3
 72
    18
 73
    14
 74
     0
 42
0.00000001
 43
0.00000001
 40
0.0
 40
0.0
 40
0.0
 40
0.0
 40
0.2499999999999992
 40
0.2499999999999992
 40
0.3749999999999993
 40
0.3749999999999993
 40
0.4999999999999994
 40
0.4999999999999994
 40
0.6249999999999996
 40
0.6249999999999996
 40
0.7499999999999997
 40
0.7499999999999997
 40
1.0
 40
1.0
 40
1.0
 40
1.0
 10
185.4108094274588
 20
201.459650198992
 30
0.0
 10
185.1672506676554
 20
201.6233152181641
 30
0.0
 10
184.9227515211324
 20
201.8024836200636
 30
0.0
 10
184.5432259561548
 20
202.1112763328556
 30
0.0
 10
184.4133592631435
 20
202.2221489029496
 30
0.0
 10
184.156743102855
 20
202.4532549566822
 30
0.0
 10
184.0290146784299
 20
202.5742342182569
 30
0.0
 10
183.7751784550785
 20
202.8280823609205
 30
0.0
 10
183.6543447144282
 20
202.9556666025449
 30
0.0
 10
183.4232373838688
 20
203.2122982682019
 30
0.0
 10
183.3123647402838
 20
203.3421741848011
 30
0.0
 10
183.0036987574199
 20
203.721561372942
 30
0.0
 10
182.8245659233838
 20
203.9660111501672
 30
0.0
 10
182.6609238226568
 20
204.209535803794
 30
0.0
  0
CIRCLE
  5
400
330
1F
100
AcDbEntity
  8
0
  6
Continuous
 62
     7
370
    25
100
AcDbCircle
 10
181.8516545726
 20
219.0351572598
 30
0.0
 40
1.700000000000017
  0
ARC
  5
401
330
1F
100
AcDbEntity
  8
0
  6
Continuous
 62
     7
370
    25
100
AcDbCircle
 10
181.8516545726
 20
219.0351572598
 30
0.0
 40
3.650000000000032
100
AcDbArc
 50
347.1900638794
 51
282.8099361206
  0
SPLINE
  5
402
330
1F
100
AcDbEntity
  8
0
  6
Continuous
 62
     7
370
    25
100
AcDbSpline
210
0.0
220
0.0
230
1.0
 70
     8
 71
     3
 72
    18
 73
    14
 74
     0
 42
0.00000001
 43
0.00000001
 40
0.0
 40
0.0
 40
0.0
 40
0.0
 40
0.2500000000000004
 40
0.2500000000000004
 40
0.3750000000000002
 40
0.3750000000000002
 40
0.5
 40
0.5
 40
0.6249999999999998
 40
0.6249999999999998
 40
0.7499999999999994
 40
0.7499999999999994
 40
1.0
 40
1.0
 40
1.0
 40
1.0
 10
182.6609238226567
 20
215.4760024049157
 30
0.0
 10
182.8245888418288
 20
215.7195611647191
 30
0.0
 10
183.0037572437284
 20
215.9640603112421
 30
0.0
 10
183.3125499565203
 20
216.3435858762197
 30
0.0
 10
183.4234225266144
 20
216.473452569231
 30
0.0
 10
183.6545285803469
 20
216.7300687295195
 30
0.0
 10
183.7755078419216
 20
216.8577971539446
 30
0.0
 10
184.0293559845852
 20
217.111633377296
 30
0.0
 10
184.1569402262097
 20
217.2324671179463
 30
0.0
 10
184.4135718918666
 20
217.4635744485057
 30
0.0
 10
184.5434478084658
 20
217.5744470920907
 30
0.0
 10
184.9228349966068
 20
217.8831130749546
 30
0.0
 10
185.167284773832
 20
218.0622459089907
 30
0.0
 10
185.4108094274587
 20
218.2258880097177
 30
0.0
  0
CIRCLE
  5
403
330
1F
100
AcDbEntity
  8
0
  6
Continuous
 62
     7
370
    25
100
AcDbCircle
 10
200.2364308834
 20
219.0351572598
 30
0.0
 40
1.699999999999989
  0
ARC
  5
404
330
1F
100
AcDbEntity
  8
0
  6
Continuous
 62
     7
370
    25
100
AcDbCircle
 10
200.2364308834
 20
219.0351572598
 30
0.0
 40
3.650000000000004
100
AcDbArc
 50
257.1900638794
 51
192.8099361206
  0
SPLINE
  5
405
330
1F
100
AcDbEntity
  8
0
  6
Continuous
 62
     7
370
    25
100
AcDbSpline
210
0.0
220
0.0
230
1.0
 70
     8
 71
     3
 72
    18
 73
    14
 74
     0
 42
0.00000001
 43
0.00000001
 40
0.0
 40
0.0
 40
0.0
 40
0.0
 40
0.2499999999999996
 40
0.2499999999999996
 40
0.3749999999999996
 40
0.3749999999999996
 40
0.4999999999999997
 40
0.4999999999999997
 40
0.6249999999999998
 40
0.6249999999999998
 40
0.7499999999999998
 40
0.7499999999999998
 40
1.0
 40
1.0
 40
1.0
 40
1.0
 10
196.6772760285805
 20
218.2258880097177
 30
0.0
 10
196.9208347883839
 20
218.0622229905457
 30
0.0
 10
197.1653339349069
 20
217.8830545886462
 30
0.0
 10
197.5448594998845
 20
217.5742618758541
 30
0.0
 10
197.6747261928958
 20
217.4633893057602
 30
0.0
 10
197.9313423531843
 20
217.2322832520276
 30
0.0
 10
198.0590707776094
 20
217.1113039904529
 30
0.0
 10
198.3129070009608
 20
216.8574558477893
 30
0.0
 10
198.4337407416111
 20
216.7298716061648
 30
0.0
 10
198.6648480721705
 20
216.4732399405079
 30
0.0
 10
198.7757207157555
 20
216.3433640239087
 30
0.0
 10
199.0843866986194
 20
215.9639768357677
 30
0.0
 10
199.2635195326555
 20
215.7195270585426
 30
0.0
 10
199.4271616333824
 20
215.4760024049158
 30
0.0
  0
LINE
  5
406
330
1F
100
AcDbEntity
  8
0
  6
Continuous
 62
     7
370
    25
100
AcDbLine
 10
185.044042728
 20
189.8427691044
 30
0.0
 11
187.044042728
 21
191.8427691044
 31
0.0
  0
ARC
  5
407
330
1F
100
AcDbEntity
  8
0
  6
Continuous
 62
     7
370
    25
100
AcDbCircle
 10
197.694042728
 20
213.5221032833
 30
0.0
 40
2.5
100
AcDbArc
 50
0.0
 51
28.9550243719
  0
ARC
  5
408
330
1F
100
AcDbEntity
  8
0
  6
Continuous
 62
     7
370
    25
100
AcDbCircle
 10
184.394042728
 20
213.5221032833
 30
0.0
 40
2.5
100
AcDbArc
 50
151.0449756281
 51
180.0
  0
LINE
  5
409
330
1F
100
AcDbEntity
  8
0
  6
Continuous
 62
     7
370
    25
100
AcDbLine
 10
181.894042728
 20
206.1634349255
 30
0.0
 11
181.894042728
 21
213.5221032833
 31
0.0
  0
ARC
  5
40A
330
1F
100
AcDbEntity
  8
0
  6
Continuous
 62
     7
370
    25
100
AcDbCircle
 10
184.544042728
 20
199.0487893008
 30
0.0
 40
2.5
100
AcDbArc
 50
0.0
 51
58.9441735487
  0
LINE
  5
40B
330
1F
100
AcDbEntity
  8
0
  6
Continuous
 62
     7
370
    25
100
AcDbLine
 10
187.044042728
 20
199.0487893008
 30
0.0
 11
187.044042728
 21
191.8427691044
 31
0.0
  0
LINE
  5
40C
330
1F
100
AcDbEntity
  8
0
  6
Continuous
 62
     7
370
    25
100
AcDbLine
 10
200.194042728
 20
213.5221032833
 30
0.0
 11
200.194042728
 21
206.1634349255
 31
0.0
  0
LINE
  5
40D
330
1F
100
AcDbEntity
  8
0
  6
Continuous
 62
     7
370
    25
100
AcDbLine
 10
195.044042728
 20
191.8427691044
 30
0.0
 11
195.044042728
 21
199.0487893008
 31
0.0
  0
ARC
  5
40E
330
1F
100
AcDbEntity
  8
0
  6
Continuous
 62
     7
370
    25
100
AcDbCircle
 10
197.694042728
 20
206.1634349255
 30
0.0
 40
2.5
100
AcDbArc
 50
331.0449756281
 51
0.0
  0
ARC
  5
40F
330
1F
100
AcDbEntity
  8
0
  6
Continuous
 62
     7
370
    25
100
AcDbCircle
 10
184.394042728
 20
206.1634349255
 30
0.0
 40
2.5
100
AcDbArc
 50
180.0
 51
208.9550243719
  0
ARC
  5
410
330
1F
100
AcDbEntity
  8
0
  6
Continuous
 62
     7
370
    25
100
AcDbCircle
 10
197.544042728
 20
199.0487893008
 30
0.0
 40
2.500000000000028
100
AcDbArc
 50
121.0558264513
 51
180.0
  0
LINE
  5
411
330
1F
100
AcDbEntity
  8
0
  6
Continuous
 62
     7
370
    25
100
AcDbLine
 10
195.044042728
 20
191.8427691044
 30
0.0
 11
197.044042728
 21
189.8427691044
 31
0.0
  0
ARC
  5
412
330
1F
100
AcDbEntity
  8
0
  6
Continuous
 62
     7
370
    25
100
AcDbCircle
 10
191.044042728
 20
209.8427691044
 30
0.0
 40
10.09999999999999
100
AcDbArc
 50
56.099947374
 51
123.900052626
  0
ARC
  5
413
330
1F
100
AcDbEntity
  8
0
  6
Continuous
 62
     7
370
    25
100
AcDbCircle
 10
191.044042728
 20
209.8427691044
 30
0.0
 40
10.1
100
AcDbArc
 50
28.9550243719
 51
33.900052626
  0
ARC
  5
414
330
1F
100
AcDbEntity
  8
0
  6
Continuous
 62
     7
370
    25
100
AcDbCircle
 10
191.044042728
 20
209.8427691044
 30
0.0
 40
10.09999999999999
100
AcDbArc
 50
146.099947374
 51
151.0449756281
  0
ARC
  5
415
330
1F
100
AcDbEntity
  8
0
  6
Continuous
 62
     7
370
    25
100
AcDbCircle
 10
191.044042728
 20
209.8427691044
 30
0.0
 40
10.10000000000002
100
AcDbArc
 50
236.099947374
 51
238.9441735487
  0
ARC
  5
416
330
1F
100
AcDbEntity
  8
0
  6
Continuous
 62
     7
370
    25
100
AcDbCircle
 10
191.044042728
 20
209.8427691044
 30
0.0
 40
10.1
100
AcDbArc
 50
208.9550243719
 51
213.900052626
  0
ARC
  5
417
330
1F
100
AcDbEntity
  8
0
  6
Continuous
 62
     7
370
    25
100
AcDbCircle
 10
191.044042728
 20
209.8427691044
 30
0.0
 40
10.10000000000002
100
AcDbArc
 50
301.0558264513
 51
303.900052626
  0
ARC
  5
418
330
1F
100
AcDbEntity
  8
0
  6
Continuous
 62
     7
370
    25
100
AcDbCircle
 10
191.044042728
 20
209.8427691044
 30
0.0
 40
10.1
100
AcDbArc
 50
326.099947374
 51
331.0449756281
  0
LINE
  5
419
330
1F
100
AcDbEntity
  8
0
  6
Continuous
 62
     7
370
    25
100
AcDbLine
 10
179.044042728
 20
189.8427691044
 30
0.0
 11
185.044042728
 21
189.8427691044
 31
0.0
  0
LINE
  5
41A
330
1F
100
AcDbEntity
  8
0
  6
Continuous
 62
     7
370
    25
100
AcDbLine
 10
197.044042728
 20
189.8427691044
 30
0.0
 11
203.044042728
 21
189.8427691044
 31
0.0
  0
LINE
  5
41B
330
1F
100
AcDbEntity
  8
0
  6
Continuous
 62
     7
370
    25
100
AcDbLine
 10
354.6702810896
 20
189.8427691044
 30
0.0
 11
339.6702810896
 21
189.8427691044
 31
0.0
  0
LINE
  5
41C
330
1F
100
AcDbEntity
  8
0
  6
Continuous
 62
     7
370
    25
100
AcDbLine
 10
337.6702810896
 20
191.8427691044
 30
0.0
 11
339.6702810896
 21
189.8427691044
 31
0.0
  0
LINE
  5
41D
330
1F
100
AcDbEntity
  8
0
  6
Continuous
 62
     7
370
    25
100
AcDbLine
 10
337.6702810896
 20
199.0487893008
 30
0.0
 11
337.6702810896
 21
191.8427691044
 31
0.0
  0
ARC
  5
41E
330
1F
100
AcDbEntity
  8
0
  6
Continuous
 62
     7
370
    25
100
AcDbCircle
 10
340.1702810896
 20
199.0487893008
 30
0.0
 40
2.500000000000021
100
AcDbArc
 50
121.0558264513
 51
180.0
  0
ARC
  5
41F
330
1F
100
AcDbEntity
  8
0
  6
Continuous
 62
     7
370
    25
100
AcDbCircle
 10
340.3202810896
 20
206.1634349255
 30
0.0
 40
2.500000000000057
100
AcDbArc
 50
331.0449756281
 51
0.0
  0
LINE
  5
420
330
1F
100
AcDbEntity
  8
0
  6
Continuous
 62
     7
370
    25
100
AcDbLine
 10
342.8202810896
 20
213.5221032833
 30
0.0
 11
342.8202810896
 21
206.1634349255
 31
0.0
  0
ARC
  5
421
330
1F
100
AcDbEntity
  8
0
  6
Continuous
 62
     7
370
    25
100
AcDbCircle
 10
340.3202810896
 20
213.5221032833
 30
0.0
 40
2.500000000000057
100
AcDbArc
 50
0.0
 51
28.9550243719
  0
ARC
  5
422
330
1F
100
AcDbEntity
  8
0
  6
Continuous
 62
     7
370
    25
100
AcDbCircle
 10
327.0202810896
 20
213.5221032833
 30
0.0
 40
2.5
100
AcDbArc
 50
151.0449756281
 51
180.0
  0
LINE
  5
423
330
1F
100
AcDbEntity
  8
0
  6
Continuous
 62
     7
370
    25
100
AcDbLine
 10
324.5202810896
 20
206.1634349255
 30
0.0
 11
324.5202810896
 21
213.5221032833
 31
0.0
  0
ARC
  5
424
330
1F
100
AcDbEntity
  8
0
  6
Continuous
 62
     7
370
    25
100
AcDbCircle
 10
327.0202810896
 20
206.1634349255
 30
0.0
 40
2.5
100
AcDbArc
 50
180.0
 51
208.9550243719
  0
ARC
  5
425
330
1F
100
AcDbEntity
  8
0
  6
Continuous
 62
     7
370
    25
100
AcDbCircle
 10
333.6702810896
 20
209.8427691044
 30
0.0
 40
10.10000000000001
100
AcDbArc
 50
208.9550243719
 51
238.9441735487
  0
ARC
  5
426
330
1F
100
AcDbEntity
  8
0
  6
Continuous
 62
     7
370
    25
100
AcDbCircle
 10
327.1702810896
 20
199.0487893008
 30
0.0
 40
2.5
100
AcDbArc
 50
0.0
 51
58.9441735487
  0
LINE
  5
427
330
1F
100
AcDbEntity
  8
0
  6
Continuous
 62
     7
370
    25
100
AcDbLine
 10
329.6702810896
 20
191.8427691044
 30
0.0
 11
329.6702810896
 21
199.0487893008
 31
0.0
  0
LINE
  5
428
330
1F
100
AcDbEntity
  8
0
  6
Continuous
 62
     7
370
    25
100
AcDbLine
 10
327.6702810896
 20
189.8427691044
 30
0.0
 11
329.6702810896
 21
191.8427691044
 31
0.0
  0
LINE
  5
429
330
1F
100
AcDbEntity
  8
0
  6
Continuous
 62
     7
370
    25
100
AcDbLine
 10
312.6702810896
 20
189.8427691044
 30
0.0
 11
312.6702810896
 21
270.3427691044
 31
0.0
  0
LINE
  5
42A
330
1F
100
AcDbEntity
  8
0
  6
Continuous
 62
     7
370
    25
100
AcDbLine
 10
313.6702810896
 20
271.3427691044
 30
0.0
 11
312.6702810896
 21
270.3427691044
 31
0.0
  0
LINE
  5
42B
330
1F
100
AcDbEntity
  8
0
  6
Continuous
 62
     7
370
    25
100
AcDbLine
 10
313.6702810896
 20
271.3427691044
 30
0.0
 11
353.6702810896
 21
271.3427691044
 31
0.0
  0
LINE
  5
42C
330
1F
100
AcDbEntity
  8
0
  6
Continuous
 62
     7
370
    25
100
AcDbLine
 10
354.6702810896
 20
270.3427691044
 30
0.0
 11
353.6702810896
 21
271.3427691044
 31
0.0
  0
LINE
  5
42D
330
1F
100
AcDbEntity
  8
0
  6
Continuous
 62
     7
370
    25
100
AcDbLine
 10
354.6702810896
 20
270.3427691044
 30
0.0
 11
354.6702810896
 21
189.8427691044
 31
0.0
  0
CIRCLE
  5
42E
330
1F
100
AcDbEntity
  8
0
  6
Continuous
 62
     7
370
    25
100
AcDbCircle
 10
324.4778929342
 20
219.0351572598
 30
0.0
 40
1.699999999999989
  0
CIRCLE
  5
42F
330
1F
100
AcDbEntity
  8
0
  6
Continuous
 62
     7
370
    25
100
AcDbCircle
 10
342.862669245
 20
219.0351572598
 30
0.0
 40
1.700000000000017
  0
CIRCLE
  5
430
330
1F
100
AcDbEntity
  8
0
  6
Continuous
 62
     7
370
    25
100
AcDbCircle
 10
342.862669245
 20
200.6503809489
 30
0.0
 40
1.699999999999989
  0
CIRCLE
  5
431
330
1F
100
AcDbEntity
  8
0
  6
Continuous
 62
     7
370
    25
100
AcDbCircle
 10
324.4778929342
 20
200.6503809489
 30
0.0
 40
1.700000000000017
  0
CIRCLE
  5
432
330
1F
100
AcDbEntity
  8
0
  6
Continuous
 62
     7
370
    25
100
AcDbCircle
 10
341.0949022921
 20
242.4181479019
 30
0.0
 40
2.150000000000006
  0
CIRCLE
  5
433
330
1F
100
AcDbEntity
  8
0
  6
Continuous
 62
     7
370
    25
100
AcDbCircle
 10
326.2456598871
 20
242.4181479019
 30
0.0
 40
2.150000000000006
  0
CIRCLE
  5
434
330
1F
100
AcDbEntity
  8
0
  6
Continuous
 62
     7
370
    25
100
AcDbCircle
 10
326.2456598871
 20
257.2673903068
 30
0.0
 40
2.150000000000006
  0
CIRCLE
  5
435
330
1F
100
AcDbEntity
  8
0
  6
Continuous
 62
     7
370
    25
100
AcDbCircle
 10
333.6702810896
 20
249.8427691044
 30
0.0
 40
6.5
  0
CIRCLE
  5
436
330
1F
100
AcDbEntity
  8
0
  6
Continuous
 62
     7
370
    25
100
AcDbCircle
 10
341.0949022921
 20
257.2673903068
 30
0.0
 40
2.150000000000006
  0
LINE
  5
437
330
1F
100
AcDbEntity
  8
0
  6
Continuous
 62
     7
370
    25
100
AcDbLine
 10
327.6702810896
 20
189.8427691044
 30
0.0
 11
312.6702810896
 21
189.8427691044
 31
0.0
  0
ARC
  5
438
330
1F
100
AcDbEntity
  8
0
  6
Continuous
 62
     7
370
    25
100
AcDbCircle
 10
333.6702810896
 20
209.8427691044
 30
0.0
 40
10.10000000000002
100
AcDbArc
 50
28.9550243719
 51
151.0449756281
  0
ARC
  5
439
330
1F
100
AcDbEntity
  8
0
  6
Continuous
 62
     7
370
    25
100
AcDbCircle
 10
333.6702810896
 20
209.8427691044
 30
0.0
 40
10.10000000000002
100
AcDbArc
 50
301.0558264513
 51
331.0449756281
  0
CIRCLE
  5
43A
330
1F
100
AcDbEntity
  8
0
  6
Continuous
 62
     7
370
    25
100
AcDbCircle
 10
333.6702810896
 20
249.8427691044
 30
0.0
 40
5.5
  0
ENDSEC
  0
SECTION
  2
OBJECTS
  0
DICTIONARY
  5
C
330
0
100
AcDbDictionary
281
     1
  3
ACAD_GROUP
350
D
  3
ACAD_LAYOUT
350
1A
  3
ACAD_MLINESTYLE
350
17
  3
ACAD_PLOTSETTINGS
350
19
  3
ACAD_PLOTSTYLENAME
350
E
  3
ACAD_SCALELIST
350
47
  3
DWGPROPS
350
43E
  0
DICTIONARY
  5
D
102
{ACAD_REACTORS
330
C
102
}
330
C
100
AcDbDictionary
281
     1
  0
DICTIONARY
  5
1A
102
{ACAD_REACTORS
330
C
102
}
330
C
100
AcDbDictionary
281
     1
  3
Layout1
350
1E
  3
Layout2
350
26
  3
Model
350
22
  0
DICTIONARY
  5
17
102
{ACAD_REACTORS
330
C
102
}
330
C
100
AcDbDictionary
281
     1
  3
Standard
350
18
  0
DICTIONARY
  5
19
102
{ACAD_REACTORS
330
C
102
}
330
C
100
AcDbDictionary
281
     1
  0
ACDBDICTIONARYWDFLT
  5
E
102
{ACAD_REACTORS
330
C
102
}
330
C
100
AcDbDictionary
281
     1
  3
Normal
350
F
100
AcDbDictionaryWithDefault
340
F
  0
DICTIONARY
  5
47
102
{ACAD_REACTORS
330
C
102
}
330
C
100
AcDbDictionary
281
     1
  3
A0
350
48
  3
A1
350
49
  3
A2
350
4A
  3
A3
350
4B
  3
A4
350
4C
  3
A5
350
4D
  3
A6
350
4E
  3
A7
350
4F
  3
A8
350
50
  3
A9
350
51
  3
B0
350
52
  3
B1
350
53
  3
B2
350
54
  3
B3
350
55
  3
B4
350
56
  3
B5
350
57
  3
B6
350
58
  3
B7
350
59
  3
B8
350
5A
  3
B9
350
5B
  3
C0
350
5C
  3
C1
350
5D
  3
C2
350
5E
  3
C3
350
5F
  3
C4
350
60
  3
C5
350
61
  3
C6
350
62
  3
C7
350
63
  3
C8
350
64
  3
C9
350
65
  3
D0
350
66
  3
D1
350
67
  3
D2
350
68
  0
XRECORD
  5
43E
102
{ACAD_REACTORS
330
C
102
}
330
C
100
AcDbXrecord
280
     1
  1
DWGPROPS COOKIE
  2

  3

  4

  6

  7

  8
s.touchard
  9

300
=
301
=
302
=
303
=
304
=
305
=
306
=
307
=
308
=
309
=
 40
0.0
 41
2459206.591840023
 42
2459206.591841296
  1

 90
        0
  0
LAYOUT
  5
1E
102
{ACAD_REACTORS
330
1A
102
}
330
1A
100
AcDbPlotSettings
  1

  2
none_device
  4

  6

 40
0.0
 41
0.0
 42
0.0
 43
0.0
 44
0.0
 45
0.0
 46
0.0
 47
0.0
 48
0.0
 49
0.0
140
0.0
141
0.0
142
1.0
143
1.0
 70
   688
 72
     1
 73
     0
 74
     5
  7

 75
    16
147
1.0
148
0.0
149
0.0
100
AcDbLayout
  1
Layout1
 70
     1
 71
     1
 10
0.0
 20
0.0
 11
420.0
 21
297.0
 12
0.0
 22
0.0
 32
0.0
 14
1.0000000000E+20
 24
1.0000000000E+20
 34
1.0000000000E+20
 15
-1.0000000000E+20
 25
-1.0000000000E+20
 35
-1.0000000000E+20
146
0.0
 13
0.0
 23
0.0
 33
0.0
 16
1.0
 26
0.0
 36
0.0
 17
0.0
 27
1.0
 37
0.0
 76
     0
330
1B
  0
LAYOUT
  5
26
102
{ACAD_REACTORS
330
1A
102
}
330
1A
100
AcDbPlotSettings
  1

  2
none_device
  4

  6

 40
0.0
 41
0.0
 42
0.0
 43
0.0
 44
0.0
 45
0.0
 46
0.0
 47
0.0
 48
0.0
 49
0.0
140
0.0
141
0.0
142
1.0
143
1.0
 70
   688
 72
     1
 73
     0
 74
     5
  7

 75
    16
147
1.0
148
0.0
149
0.0
100
AcDbLayout
  1
Layout2
 70
     1
 71
     2
 10
0.0
 20
0.0
 11
0.0
 21
0.0
 12
0.0
 22
0.0
 32
0.0
 14
0.0
 24
0.0
 34
0.0
 15
0.0
 25
0.0
 35
0.0
146
0.0
 13
0.0
 23
0.0
 33
0.0
 16
1.0
 26
0.0
 36
0.0
 17
0.0
 27
1.0
 37
0.0
 76
     0
330
23
  0
LAYOUT
  5
22
102
{ACAD_REACTORS
330
1A
102
}
330
1A
100
AcDbPlotSettings
  1

  2
none_device
  4
Letter_(8.50_x_11.00_Inches)
  6

 40
6.35
 41
6.35
 42
6.35000508
 43
6.35000508
 44
215.9
 45
279.4
 46
0.0
 47
0.0
 48
0.0
 49
0.0
140
0.0
141
0.0
142
1.0
143
1.0
 70
  1712
 72
     1
 73
     0
 74
     0
  7

 75
     0
147
1.0
148
0.0
149
0.0
100
AcDbLayout
  1
Model
 70
     1
 71
     0
 10
0.0
 20
0.0
 11
594.0
 21
420.0
 12
0.0
 22
0.0
 32
0.0
 14
0.0
 24
0.0
 34
0.0
 15
594.0
 25
420.0
 35
0.0
146
0.0
 13
0.0
 23
0.0
 33
0.0
 16
1.0
 26
0.0
 36
0.0
 17
0.0
 27
1.0
 37
0.0
 76
     0
330
1F
331
29
  0
MLINESTYLE
  5
18
102
{ACAD_REACTORS
330
17
102
}
330
17
100
AcDbMlineStyle
  2
Standard
 70
     0
  3

 62
   256
 51
90.0
 52
90.0
 71
     2
 49
0.5
 62
   256
  6
BYLAYER
 49
-0.5
 62
   256
  6
BYLAYER
  0
ACDBPLACEHOLDER
  5
F
102
{ACAD_REACTORS
330
E
102
}
330
E
  0
SCALE
  5
48
102
{ACAD_REACTORS
330
47
102
}
330
47
100
AcDbScale
 70
     0
300
1:1
140
1.0
141
1.0
290
     1
  0
SCALE
  5
49
102
{ACAD_REACTORS
330
47
102
}
330
47
100
AcDbScale
 70
     0
300
1:2
140
1.0
141
2.0
290
     0
  0
SCALE
  5
4A
102
{ACAD_REACTORS
330
47
102
}
330
47
100
AcDbScale
 70
     0
300
1:4
140
1.0
141
4.0
290
     0
  0
SCALE
  5
4B
102
{ACAD_REACTORS
330
47
102
}
330
47
100
AcDbScale
 70
     0
300
1:5
140
1.0
141
5.0
290
     0
  0
SCALE
  5
4C
102
{ACAD_REACTORS
330
47
102
}
330
47
100
AcDbScale
 70
     0
300
1:8
140
1.0
141
8.0
290
     0
  0
SCALE
  5
4D
102
{ACAD_REACTORS
330
47
102
}
330
47
100
AcDbScale
 70
     0
300
1:10
140
1.0
141
10.0
290
     0
  0
SCALE
  5
4E
102
{ACAD_REACTORS
330
47
102
}
330
47
100
AcDbScale
 70
     0
300
1:16
140
1.0
141
16.0
290
     0
  0
SCALE
  5
4F
102
{ACAD_REACTORS
330
47
102
}
330
47
100
AcDbScale
 70
     0
300
1:20
140
1.0
141
20.0
290
     0
  0
SCALE
  5
50
102
{ACAD_REACTORS
330
47
102
}
330
47
100
AcDbScale
 70
     0
300
1:30
140
1.0
141
30.0
290
     0
  0
SCALE
  5
51
102
{ACAD_REACTORS
330
47
102
}
330
47
100
AcDbScale
 70
     0
300
1:40
140
1.0
141
40.0
290
     0
  0
SCALE
  5
52
102
{ACAD_REACTORS
330
47
102
}
330
47
100
AcDbScale
 70
     0
300
1:50
140
1.0
141
50.0
290
     0
  0
SCALE
  5
53
102
{ACAD_REACTORS
330
47
102
}
330
47
100
AcDbScale
 70
     0
300
1:100
140
1.0
141
100.0
290
     0
  0
SCALE
  5
54
102
{ACAD_REACTORS
330
47
102
}
330
47
100
AcDbScale
 70
     0
300
2:1
140
2.0
141
1.0
290
     0
  0
SCALE
  5
55
102
{ACAD_REACTORS
330
47
102
}
330
47
100
AcDbScale
 70
     0
300
4:1
140
4.0
141
1.0
290
     0
  0
SCALE
  5
56
102
{ACAD_REACTORS
330
47
102
}
330
47
100
AcDbScale
 70
     0
300
8:1
140
8.0
141
1.0
290
     0
  0
SCALE
  5
57
102
{ACAD_REACTORS
330
47
102
}
330
47
100
AcDbScale
 70
     0
300
10:1
140
10.0
141
1.0
290
     0
  0
SCALE
  5
58
102
{ACAD_REACTORS
330
47
102
}
330
47
100
AcDbScale
 70
     0
300
100:1
140
100.0
141
1.0
290
     0
  0
SCALE
  5
59
102
{ACAD_REACTORS
330
47
102
}
330
47
100
AcDbScale
 70
     0
300
1/128" = 1'-0"
140
0.0078125
141
12.0
290
     0
  0
SCALE
  5
5A
102
{ACAD_REACTORS
330
47
102
}
330
47
100
AcDbScale
 70
     0
300
1/64" = 1'-0"
140
0.015625
141
12.0
290
     0
  0
SCALE
  5
5B
102
{ACAD_REACTORS
330
47
102
}
330
47
100
AcDbScale
 70
     0
300
1/32" = 1'-0"
140
0.03125
141
12.0
290
     0
  0
SCALE
  5
5C
102
{ACAD_REACTORS
330
47
102
}
330
47
100
AcDbScale
 70
     0
300
1/16" = 1'-0"
140
0.0625
141
12.0
290
     0
  0
SCALE
  5
5D
102
{ACAD_REACTORS
330
47
102
}
330
47
100
AcDbScale
 70
     0
300
3/32" = 1'-0"
140
0.09375
141
12.0
290
     0
  0
SCALE
  5
5E
102
{ACAD_REACTORS
330
47
102
}
330
47
100
AcDbScale
 70
     0
300
1/8" = 1'-0"
140
0.125
141
12.0
290
     0
  0
SCALE
  5
5F
102
{ACAD_REACTORS
330
47
102
}
330
47
100
AcDbScale
 70
     0
300
3/16" = 1'-0"
140
0.1875
141
12.0
290
     0
  0
SCALE
  5
60
102
{ACAD_REACTORS
330
47
102
}
330
47
100
AcDbScale
 70
     0
300
1/4" = 1'-0"
140
0.25
141
12.0
290
     0
  0
SCALE
  5
61
102
{ACAD_REACTORS
330
47
102
}
330
47
100
AcDbScale
 70
     0
300
3/8" = 1'-0"
140
0.375
141
12.0
290
     0
  0
SCALE
  5
62
102
{ACAD_REACTORS
330
47
102
}
330
47
100
AcDbScale
 70
     0
300
1/2" = 1'-0"
140
0.5
141
12.0
290
     0
  0
SCALE
  5
63
102
{ACAD_REACTORS
330
47
102
}
330
47
100
AcDbScale
 70
     0
300
3/4" = 1'-0"
140
0.75
141
12.0
290
     0
  0
SCALE
  5
64
102
{ACAD_REACTORS
330
47
102
}
330
47
100
AcDbScale
 70
     0
300
1" = 1'-0"
140
1.0
141
12.0
290
     0
  0
SCALE
  5
65
102
{ACAD_REACTORS
330
47
102
}
330
47
100
AcDbScale
 70
     0
300
1-1/2" = 1'-0"
140
1.5
141
12.0
290
     0
  0
SCALE
  5
66
102
{ACAD_REACTORS
330
47
102
}
330
47
100
AcDbScale
 70
     0
300
3" = 1'-0"
140
3.0
141
12.0
290
     0
  0
SCALE
  5
67
102
{ACAD_REACTORS
330
47
102
}
330
47
100
AcDbScale
 70
     0
300
6" = 1'-0"
140
6.0
141
12.0
290
     0
  0
SCALE
  5
68
102
{ACAD_REACTORS
330
47
102
}
330
47
100
AcDbScale
 70
     0
300
1'-0" = 1'-0"
140
12.0
141
12.0
290
     0
  0
ENDSEC
  0
EOF
