  0
SECTION
  2
HEADER
  9
$ACADVER
  1
AC1018
  9
$ACADMAINTVER
 70
     0
  9
$DWGCODEPAGE
  3
ANSI_1252
  9
$COMMENTS
  1
File was created by SpaceClaim
  9
$INSBASE
 10
0.0
 20
0.0
 30
0.0
  9
$EXTMIN
 10
-85.62108269306407
 20
-74.89446317861379
 30
1.058849727303843
  9
$EXTMAX
 10
57.31483288728064
 20
17.69485616610921
 30
13.7103150075111
  9
$LIMMIN
 10
0.0
 20
0.0
  9
$LIMMAX
 10
420.0
 20
297.0
  9
$ORTHOMODE
 70
     0
  9
$REGENMODE
 70
     1
  9
$FILLMODE
 70
     1
  9
$QTEXTMODE
 70
     0
  9
$MIRRTEXT
 70
     1
  9
$LTSCALE
 40
1.0
  9
$ATTMODE
 70
     1
  9
$TEXTSIZE
 40
2.5
  9
$TRACEWID
 40
1.0
  9
$TEXTSTYLE
  7
Standard
  9
$CLAYER
  8
0
  9
$CELTYPE
  6
ByLayer
  9
$CECOLOR
 62
   256
  9
$CELTSCALE
 40
1.0
  9
$DISPSILH
 70
     0
  9
$DIMSCALE
 40
1.0
  9
$DIMASZ
 40
2.5
  9
$DIMEXO
 40
0.625
  9
$DIMDLI
 40
3.75
  9
$DIMRND
 40
0.0
  9
$DIMDLE
 40
0.0
  9
$DIMEXE
 40
1.25
  9
$DIMTP
 40
0.0
  9
$DIMTM
 40
0.0
  9
$DIMTXT
 40
2.5
  9
$DIMCEN
 40
2.5
  9
$DIMTSZ
 40
0.0
  9
$DIMTOL
 70
     0
  9
$DIMLIM
 70
     0
  9
$DIMTIH
 70
     1
  9
$DIMTOH
 70
     0
  9
$DIMSE1
 70
     0
  9
$DIMSE2
 70
     0
  9
$DIMTAD
 70
     1
  9
$DIMZIN
 70
     8
  9
$DIMBLK
  1

  9
$DIMASO
 70
     1
  9
$DIMSHO
 70
     1
  9
$DIMPOST
  1
mm
  9
$DIMAPOST
  1

  9
$DIMALT
 70
     0
  9
$DIMALTD
 70
     3
  9
$DIMALTF
 40
0.0393700787401575
  9
$DIMLFAC
 40
1.0
  9
$DIMTOFL
 70
     1
  9
$DIMTVP
 40
0.0
  9
$DIMTIX
 70
     0
  9
$DIMSOXD
 70
     0
  9
$DIMSAH
 70
     0
  9
$DIMBLK1
  1

  9
$DIMBLK2
  1

  9
$DIMSTYLE
  2
ISO-25
  9
$DIMCLRD
 70
     0
  9
$DIMCLRE
 70
     0
  9
$DIMCLRT
 70
     0
  9
$DIMTFAC
 40
1.0
  9
$DIMGAP
 40
0.625
  9
$DIMJUST
 70
     0
  9
$DIMSD1
 70
     0
  9
$DIMSD2
 70
     0
  9
$DIMTOLJ
 70
     0
  9
$DIMTZIN
 70
     8
  9
$DIMALTZ
 70
     0
  9
$DIMALTTZ
 70
     8
  9
$DIMUPT
 70
     0
  9
$DIMDEC
 70
     2
  9
$DIMTDEC
 70
     2
  9
$DIMALTU
 70
     2
  9
$DIMALTTD
 70
     3
  9
$DIMTXSTY
  7
Standard
  9
$DIMAUNIT
 70
     0
  9
$DIMADEC
 70
     1
  9
$DIMALTRND
 40
0.0
  9
$DIMAZIN
 70
     0
  9
$DIMDSEP
 70
    46
  9
$DIMATFIT
 70
     3
  9
$DIMFRAC
 70
     0
  9
$DIMLDRBLK
  1

  9
$DIMLUNIT
 70
     2
  9
$DIMLWD
 70
    -2
  9
$DIMLWE
 70
    -2
  9
$DIMTMOVE
 70
     0
  9
$LUNITS
 70
     2
  9
$LUPREC
 70
     4
  9
$SKETCHINC
 40
1.0
  9
$FILLETRAD
 40
10.0
  9
$AUNITS
 70
     0
  9
$AUPREC
 70
     0
  9
$MENU
  1
.
  9
$ELEVATION
 40
0.0
  9
$PELEVATION
 40
0.0
  9
$THICKNESS
 40
0.0
  9
$LIMCHECK
 70
     0
  9
$CHAMFERA
 40
0.0
  9
$CHAMFERB
 40
0.0
  9
$CHAMFERC
 40
0.0
  9
$CHAMFERD
 40
0.0
  9
$SKPOLY
 70
     0
  9
$TDCREATE
 40
2459202.422809896
  9
$TDUCREATE
 40
2459202.381143229
  9
$TDUPDATE
 40
2459202.422813044
  9
$TDUUPDATE
 40
2459202.381146377
  9
$TDINDWG
 40
0.0000000116
  9
$TDUSRTIMER
 40
0.0000000116
  9
$USRTIMER
 70
     1
  9
$ANGBASE
 50
0.0
  9
$ANGDIR
 70
     0
  9
$PDMODE
 70
     0
  9
$PDSIZE
 40
0.0
  9
$PLINEWID
 40
0.0
  9
$SPLFRAME
 70
     0
  9
$SPLINETYPE
 70
     6
  9
$SPLINESEGS
 70
     8
  9
$HANDSEED
  5
2B2
  9
$SURFTAB1
 70
     6
  9
$SURFTAB2
 70
     6
  9
$SURFTYPE
 70
     6
  9
$SURFU
 70
     6
  9
$SURFV
 70
     6
  9
$UCSBASE
  2

  9
$UCSNAME
  2

  9
$UCSORG
 10
0.0
 20
0.0
 30
0.0
  9
$UCSXDIR
 10
1.0
 20
0.0
 30
0.0
  9
$UCSYDIR
 10
0.0
 20
1.0
 30
0.0
  9
$UCSORTHOREF
  2

  9
$UCSORTHOVIEW
 70
     0
  9
$UCSORGTOP
 10
0.0
 20
0.0
 30
0.0
  9
$UCSORGBOTTOM
 10
0.0
 20
0.0
 30
0.0
  9
$UCSORGLEFT
 10
0.0
 20
0.0
 30
0.0
  9
$UCSORGRIGHT
 10
0.0
 20
0.0
 30
0.0
  9
$UCSORGFRONT
 10
0.0
 20
0.0
 30
0.0
  9
$UCSORGBACK
 10
0.0
 20
0.0
 30
0.0
  9
$PUCSBASE
  2

  9
$PUCSNAME
  2

  9
$PUCSORG
 10
0.0
 20
0.0
 30
0.0
  9
$PUCSXDIR
 10
1.0
 20
0.0
 30
0.0
  9
$PUCSYDIR
 10
0.0
 20
1.0
 30
0.0
  9
$PUCSORTHOREF
  2

  9
$PUCSORTHOVIEW
 70
     0
  9
$PUCSORGTOP
 10
0.0
 20
0.0
 30
0.0
  9
$PUCSORGBOTTOM
 10
0.0
 20
0.0
 30
0.0
  9
$PUCSORGLEFT
 10
0.0
 20
0.0
 30
0.0
  9
$PUCSORGRIGHT
 10
0.0
 20
0.0
 30
0.0
  9
$PUCSORGFRONT
 10
0.0
 20
0.0
 30
0.0
  9
$PUCSORGBACK
 10
0.0
 20
0.0
 30
0.0
  9
$USERI1
 70
     0
  9
$USERI2
 70
     0
  9
$USERI3
 70
     0
  9
$USERI4
 70
     0
  9
$USERI5
 70
     0
  9
$USERR1
 40
0.0
  9
$USERR2
 40
0.0
  9
$USERR3
 40
0.0
  9
$USERR4
 40
0.0
  9
$USERR5
 40
0.0
  9
$WORLDVIEW
 70
     1
  9
$SHADEDGE
 70
     3
  9
$SHADEDIF
 70
    70
  9
$TILEMODE
 70
     1
  9
$MAXACTVP
 70
    64
  9
$PINSBASE
 10
0.0
 20
0.0
 30
0.0
  9
$PLIMCHECK
 70
     0
  9
$PEXTMIN
 10
1.000000000000000E+20
 20
1.000000000000000E+20
 30
1.000000000000000E+20
  9
$PEXTMAX
 10
-1.000000000000000E+20
 20
-1.000000000000000E+20
 30
-1.000000000000000E+20
  9
$PLIMMIN
 10
0.0
 20
0.0
  9
$PLIMMAX
 10
420.0
 20
297.0
  9
$UNITMODE
 70
     0
  9
$VISRETAIN
 70
     1
  9
$PLINEGEN
 70
     0
  9
$PSLTSCALE
 70
     1
  9
$TREEDEPTH
 70
  3020
  9
$CMLSTYLE
  2
Standard
  9
$CMLJUST
 70
     0
  9
$CMLSCALE
 40
20.0
  9
$PROXYGRAPHICS
 70
     1
  9
$MEASUREMENT
 70
     1
  9
$CELWEIGHT
370
    -1
  9
$ENDCAPS
280
     0
  9
$JOINSTYLE
280
     0
  9
$LWDISPLAY
290
     0
  9
$INSUNITS
 70
     4
  9
$HYPERLINKBASE
  1

  9
$STYLESHEET
  1

  9
$XEDIT
290
     1
  9
$CEPSNTYPE
380
     0
  9
$PSTYLEMODE
290
     1
  9
$FINGERPRINTGUID
  2
{c550e2c8-3af8-4efb-9515-c3e06aef2bcd}
  9
$VERSIONGUID
  2
{FAEB1C32-E019-11D5-929B-00C0DF256EC4}
  9
$EXTNAMES
290
     1
  9
$PSVPSCALE
 40
0.0
  9
$OLESTARTUP
290
     0
  9
$SORTENTS
280
   127
  9
$INDEXCTL
280
     0
  9
$HIDETEXT
280
     1
  9
$XCLIPFRAME
290
     0
  9
$HALOGAP
280
     0
  9
$OBSCOLOR
 70
   257
  9
$OBSLTYPE
280
     0
  9
$INTERSECTIONDISPLAY
280
     0
  9
$INTERSECTIONCOLOR
 70
   257
  9
$DIMASSOC
280
     2
  9
$PROJECTNAME
  1

  0
ENDSEC
  0
SECTION
  2
CLASSES
  0
CLASS
  1
ACDBDICTIONARYWDFLT
  2
AcDbDictionaryWithDefault
  3
ObjectDBX Classes
 90
        0
 91
        3
280
     0
281
     0
  0
CLASS
  1
VISUALSTYLE
  2
AcDbVisualStyle
  3
ObjectDBX Classes
 90
     4095
 91
        3
280
     0
281
     0
  0
CLASS
  1
MATERIAL
  2
AcDbMaterial
  3
ObjectDBX Classes
 90
     1153
 91
        3
280
     0
281
     0
  0
CLASS
  1
SCALE
  2
AcDbScale
  3
ObjectDBX Classes
 90
     1153
 91
        3
280
     0
281
     0
  0
CLASS
  1
TABLESTYLE
  2
AcDbTableStyle
  3
ObjectDBX Classes
 90
     4095
 91
        3
280
     0
281
     0
  0
CLASS
  1
MLEADERSTYLE
  2
AcDbMLeaderStyle
  3
ACDB_MLEADERSTYLE_CLASS
 90
     4095
 91
        3
280
     0
281
     0
  0
CLASS
  1
SUN
  2
AcDbSun
  3
SCENEOE
 90
     1153
 91
        3
280
     0
281
     0
  0
CLASS
  1
DICTIONARYVAR
  2
AcDbDictionaryVar
  3
ObjectDBX Classes
 90
        0
 91
        3
280
     0
281
     0
  0
CLASS
  1
CELLSTYLEMAP
  2
AcDbCellStyleMap
  3
ObjectDBX Classes
 90
     1152
 91
        3
280
     0
281
     0
  0
ENDSEC
  0
SECTION
  2
TABLES
  0
TABLE
  2
VPORT
  5
8
102
{ACAD_XDICTIONARY
360
269
102
}
330
0
100
AcDbSymbolTable
 70
     1
  0
VPORT
  5
29
330
8
100
AcDbSymbolTableRecord
100
AcDbViewportTableRecord
  2
*Active
 70
     0
 10
0.0
 20
0.0
 11
1.0
 21
1.0
 12
-14.15312490289171
 22
-28.59980350625229
 13
0.0
 23
0.0
 14
10.0
 24
10.0
 15
10.0
 25
10.0
 16
0.0
 26
0.0
 36
1.0
 17
0.0
 27
0.0
 37
0.0
 40
92.58931934472301
 41
1.543762461933371
 42
50.0
 43
0.0
 44
0.0
 50
0.0
 51
0.0
 71
     0
 72
   100
 73
     1
 74
     3
 75
     0
 76
     0
 77
     0
 78
     0
281
     0
 65
     1
110
0.0
120
0.0
130
0.0
111
1.0
121
0.0
131
0.0
112
0.0
122
1.0
132
0.0
 79
     0
146
0.0
  0
ENDTAB
  0
TABLE
  2
LTYPE
  5
5
330
0
100
AcDbSymbolTable
 70
     2
  0
LTYPE
  5
14
330
5
100
AcDbSymbolTableRecord
100
AcDbLinetypeTableRecord
  2
ByBlock
 70
     0
  3

 72
    65
 73
     0
 40
0.0
  0
LTYPE
  5
15
330
5
100
AcDbSymbolTableRecord
100
AcDbLinetypeTableRecord
  2
ByLayer
 70
     0
  3

 72
    65
 73
     0
 40
0.0
  0
LTYPE
  5
16
330
5
100
AcDbSymbolTableRecord
100
AcDbLinetypeTableRecord
  2
Continuous
 70
     0
  3
Solid line
 72
    65
 73
     0
 40
0.0
  0
LTYPE
  5
150
330
5
100
AcDbSymbolTableRecord
100
AcDbLinetypeTableRecord
  2
HIDDEN
 70
     0
  3
- - - - - - - - - - - - - - - - - - - - -
 72
    65
 73
     2
 40
9.524999999999999
 49
6.35
 74
     0
 49
-3.175
 74
     0
  0
ENDTAB
  0
TABLE
  2
LAYER
  5
2
330
0
100
AcDbSymbolTable
 70
     2
  0
LAYER
  5
10
330
2
100
AcDbSymbolTableRecord
100
AcDbLayerTableRecord
  2
0
 70
     0
 62
     7
  6
Continuous
370
    70
390
F
  0
LAYER
  5
14E
330
2
100
AcDbSymbolTableRecord
100
AcDbLayerTableRecord
  2
Hidden
 70
     0
 62
     7
  6
Continuous
370
    70
390
F
  0
ENDTAB
  0
TABLE
  2
STYLE
  5
3
330
0
100
AcDbSymbolTable
 70
     1
  0
STYLE
  5
11
330
3
100
AcDbSymbolTableRecord
100
AcDbTextStyleTableRecord
  2
Standard
 70
     0
 40
0.0
 41
1.0
 50
0.0
 71
     0
 42
2.5
  3
txt
  4

  0
ENDTAB
  0
TABLE
  2
VIEW
  5
6
330
0
100
AcDbSymbolTable
 70
     0
  0
ENDTAB
  0
TABLE
  2
UCS
  5
7
330
0
100
AcDbSymbolTable
 70
     0
  0
ENDTAB
  0
TABLE
  2
APPID
  5
9
330
0
100
AcDbSymbolTable
 70
     2
  0
APPID
  5
12
330
9
100
AcDbSymbolTableRecord
100
AcDbRegAppTableRecord
  2
ACAD
 70
     0
  0
APPID
  5
2A8
330
9
100
AcDbSymbolTableRecord
100
AcDbRegAppTableRecord
  2
ACAD_MLEADERVER
 70
     0
  0
ENDTAB
  0
TABLE
  2
DIMSTYLE
  5
A
330
0
100
AcDbSymbolTable
 70
     1
100
AcDbDimStyleTable
  0
DIMSTYLE
105
27
330
A
100
AcDbSymbolTableRecord
100
AcDbDimStyleTableRecord
  2
ISO-25
 70
     0
 41
2.5
 42
0.625
 43
3.75
 44
1.25
 73
     0
 74
     0
 77
     1
 78
     8
140
2.5
141
2.5
143
0.03937007874016
147
0.625
171
     3
172
     1
178
     0
271
     2
272
     2
274
     3
278
    44
283
     0
284
     8
340
11
  0
ENDTAB
  0
TABLE
  2
BLOCK_RECORD
  5
1
330
0
100
AcDbSymbolTable
 70
     1
  0
BLOCK_RECORD
  5
1F
330
1
100
AcDbSymbolTableRecord
100
AcDbBlockTableRecord
  2
*Model_Space
340
22
  0
BLOCK_RECORD
  5
1B
330
1
100
AcDbSymbolTableRecord
100
AcDbBlockTableRecord
  2
*Paper_Space
340
1E
  0
BLOCK_RECORD
  5
23
330
1
100
AcDbSymbolTableRecord
100
AcDbBlockTableRecord
  2
*Paper_Space0
340
26
  0
ENDTAB
  0
ENDSEC
  0
SECTION
  2
BLOCKS
  0
BLOCK
  5
20
330
1F
100
AcDbEntity
  8
0
100
AcDbBlockBegin
  2
*Model_Space
 70
     0
 10
0.0
 20
0.0
 30
0.0
  3
*Model_Space
  1

  0
ENDBLK
  5
21
330
1F
100
AcDbEntity
  8
0
100
AcDbBlockEnd
  0
BLOCK
  5
1C
330
1B
100
AcDbEntity
 67
     1
  8
0
100
AcDbBlockBegin
  2
*Paper_Space
 70
     0
 10
0.0
 20
0.0
 30
0.0
  3
*Paper_Space
  1

  0
ENDBLK
  5
1D
330
1B
100
AcDbEntity
 67
     1
  8
0
100
AcDbBlockEnd
  0
BLOCK
  5
24
330
23
100
AcDbEntity
  8
0
100
AcDbBlockBegin
  2
*Paper_Space0
 70
     0
 10
0.0
 20
0.0
 30
0.0
  3
*Paper_Space0
  1

  0
ENDBLK
  5
25
330
23
100
AcDbEntity
  8
0
100
AcDbBlockEnd
  0
ENDSEC
  0
SECTION
  2
ENTITIES
  0
ELLIPSE
  5
6E
330
1F
100
AcDbEntity
  8
0
 62
     7
370
    -3
100
AcDbEllipse
 10
-50.70172335808297
 20
-22.85195720078594
 30
0.0
 11
14.07323615041764
 21
-2.536537848047726
 31
2.480654570646837E-15
210
-2.002612392706189E-16
220
-1.331220591262870E-16
230
1.0
 40
0.875418301475226
 41
0.0215231522102928
 42
3.058027382337348
  0
ELLIPSE
  5
6F
330
1F
100
AcDbEntity
  8
0
 62
     7
370
    -3
100
AcDbEllipse
 10
44.90476284250852
 20
9.748521874158163
 30
0.0000000000000069
 11
-4.94102717758274
 21
0.7656699226094456
 31
-2.775557561562891E-16
210
-7.185770892538945E-17
220
-1.012121989835805E-16
230
1.0
 40
0.4832541567787314
 41
5.862514777346206
 42
7.021794258073537
  0
ELLIPSE
  5
70
330
1F
100
AcDbEntity
  8
0
 62
     7
370
    -3
100
AcDbEllipse
 10
46.78976303321526
 20
8.340160130206243
 30
0.0000000000000052
 11
-4.941027177582741
 21
0.7656699226094457
 31
-2.775557561562892E-16
210
-7.185770892538945E-17
220
-1.012121989835805E-16
230
1.0
 40
0.4832541567787314
 41
0.7386089508940329
 42
1.89788843162144
  0
ELLIPSE
  5
71
330
1F
100
AcDbEntity
  8
0
 62
     7
370
    -3
100
AcDbEllipse
 10
-73.43120758183711
 20
0.2803094121348934
 30
-0.0000000000000035
 11
-4.94102717758274
 21
0.7656699226094456
 31
-2.775557561562891E-16
210
-7.185770892538945E-17
220
-1.012121989835805E-16
230
1.0
 40
0.4832541567787314
 41
1.970430545398848
 42
3.129710026126252
  0
ELLIPSE
  5
72
330
1F
100
AcDbEntity
  8
0
 62
     7
370
    -3
100
AcDbEllipse
 10
-72.81498657896735
 20
3.699230876645494
 30
-0.0000000000000082
 11
-4.94102717758274
 21
0.7656699226094456
 31
-2.775557561562891E-16
210
-7.185770892538945E-17
220
-1.012121989835805E-16
230
1.0
 40
0.4832541567787314
 41
3.12971002612626
 42
4.288989506853672
  0
LINE
  5
73
330
1F
100
AcDbEntity
  8
0
 62
     7
370
    -3
100
AcDbLine
 10
-70.44756563097997
 20
5.561571797496907
 30
-0.0000000000000026
 11
-71.65104054400544
 21
-2.204701993867774
 31
-0.0000000000000065
  0
ELLIPSE
  5
74
330
1F
100
AcDbEntity
  8
0
 62
     7
370
    -3
100
AcDbEllipse
 10
-28.72211832039563
 20
-20.13115117269756
 30
-0.0000000000000017
 11
1.976410871033093
 21
-0.3062679690437776
 31
2.293731687674882E-16
210
1.303351936157227E-16
220
9.215042911913157E-17
230
-1.0
 40
0.4832541567787313
 41
3.145281990681113
 42
4.187681133111569
  0
ELLIPSE
  5
75
330
1F
100
AcDbEntity
  8
0
 62
     7
370
    -3
100
AcDbEllipse
 10
-29.56673259168336
 20
-25.581622643203
 30
-0.0000000000000017
 11
1.976410871033095
 21
-0.306267969043778
 31
2.293731687674884E-16
210
1.303351936157226E-16
220
9.215042911913157E-17
230
-1.0
 40
0.4832541567787313
 41
3.145281990681115
 42
4.187681133111553
  0
LINE
  5
76
330
1F
100
AcDbEntity
  8
0
 62
     7
370
    -3
100
AcDbLine
 10
-30.42874156062874
 20
-24.60157628073792
 30
-0.0000000000000052
 11
-29.58412728934102
 21
-19.15110481023246
 31
0.0
  0
ELLIPSE
  5
77
330
1F
100
AcDbEntity
  8
0
 62
     7
370
    -3
100
AcDbEllipse
 10
4.900700089490718
 20
6.497029789906056
 30
0.0000000000000013
 11
5.98533398402136
 21
8.01097853571703
 31
1.665334536937734E-15
210
-7.744090193665156E-17
220
-1.500222312997944E-16
230
1.0
 40
0.6473350799417894
 41
0.6867416040078567
 42
1.871948897259287
  0
ELLIPSE
  5
78
330
1F
100
AcDbEntity
  8
0
 62
     7
370
    -3
100
AcDbEllipse
 10
4.950072678939484
 20
6.460141482667525
 30
0.0000000000000004
 11
5.98533398402136
 21
8.010978535717035
 31
1.665334536937735E-15
210
-1.219107660373064E-16
220
-1.167969533041347E-16
230
1.0
 40
0.6473350799417894
 41
0.6867416040078563
 42
1.866662685848714
  0
LINE
  5
79
330
1F
100
AcDbEntity
  8
0
 62
     7
370
    -3
100
AcDbLine
 10
6.290730252412063
 20
15.11168349934284
 30
0.0
 11
6.241357662963303
 21
15.14857180658137
 31
-0.0000000000000002
  0
ELLIPSE
  5
7A
330
1F
100
AcDbEntity
  8
0
 62
     7
370
    -3
100
AcDbEllipse
 10
19.18254646010618
 20
-19.75232562621841
 30
0.0000000000000043
 11
1.976410871033095
 21
-0.306267969043778
 31
2.293731687674885E-16
210
1.303351936157227E-16
220
9.215042911913156E-17
230
-1.0
 40
0.4832541567787313
 41
4.18768113311156
 42
5.544576356285553
  0
ELLIPSE
  5
7B
330
1F
100
AcDbEntity
  8
0
 62
     7
370
    -3
100
AcDbEllipse
 10
20.02716073139391
 20
-14.30185415571296
 30
0.0000000000000043
 11
1.976410871033095
 21
-0.306267969043778
 31
2.179143646990797E-16
210
1.246733673832623E-16
220
9.302779528155711E-17
230
-1.0
 40
0.4832541567787313
 41
4.18768113311156
 42
5.544576356285555
  0
LINE
  5
7C
330
1F
100
AcDbEntity
  8
0
 62
     7
370
    -3
100
AcDbLine
 10
19.16515176244852
 20
-13.32180779324786
 30
0.0000000000000035
 11
18.3205374911608
 21
-18.77227926375331
 31
0.000000000000001
  0
ELLIPSE
  5
7D
330
1F
100
AcDbEntity
  8
0
 62
     7
370
    -3
100
AcDbEllipse
 10
29.93535038996751
 20
-12.20739471372582
 30
0.0000000000000048
 11
-5.98533398402136
 21
-8.01097853571703
 31
-1.665334536937734E-15
210
5.520596988632415E-17
220
1.666348702976242E-16
230
-1.0
 40
0.6473350799417892
 41
0.88405472278704
 42
2.454851049581936
  0
ELLIPSE
  5
7E
330
1F
100
AcDbEntity
  8
0
 62
     7
370
    -3
100
AcDbEllipse
 10
29.39325501269231
 20
-11.8023727966504
 30
0.0000000000000026
 11
-5.985333984021359
 21
-8.010978535717037
 31
-1.665334536937735E-15
210
1.886155621882887E-16
220
6.695903631064527E-17
230
-1.0
 40
0.6473350799417892
 41
0.8840547227870403
 42
2.454851049581938
  0
LINE
  5
7F
330
1F
100
AcDbEntity
  8
0
 62
     7
370
    -3
100
AcDbLine
 10
21.58817644494364
 20
-13.88527392920254
 30
0.0000000000000009
 11
22.13027182221883
 21
-14.29029584627795
 31
0.0000000000000012
  0
ELLIPSE
  5
80
330
1F
100
AcDbEntity
  8
0
 62
     7
370
    -3
100
AcDbEllipse
 10
24.04030863829143
 20
20.06436156726042
 30
0.0
 11
-2.99266699201068
 21
-4.005489267858515
 31
-8.326672684688671E-16
210
7.744090193665156E-17
220
1.500222312997944E-16
230
-1.0
 40
0.6473350799417894
 41
5.59644370317173
 42
6.281081919258467
  0
ELLIPSE
  5
81
330
1F
100
AcDbEntity
  8
0
 62
     7
370
    -3
100
AcDbEllipse
 10
49.07495893876828
 20
1.35993706362855
 30
0.0000000000000082
 11
2.99266699201068
 21
4.005489267858515
 31
8.326672684688671E-16
210
-7.744090193665156E-17
220
-1.500222312997944E-16
230
1.0
 40
0.6473350799417894
 41
3.143696041510911
 42
3.828334257597649
  0
LINE
  5
82
330
1F
100
AcDbEntity
  8
0
 62
     7
370
    -3
100
AcDbLine
 10
48.40463015203196
 20
-2.965833944709109
 30
0.0000000000000076
 11
23.36997985155513
 21
15.73859055892276
 31
0.0000000000000007
  0
ELLIPSE
  5
83
330
1F
100
AcDbEntity
  8
0
 62
     7
370
    -3
100
AcDbEllipse
 10
-61.78794835457054
 20
-6.437913954888116
 30
-0.0000000000000026
 11
4.920711940705464
 21
-0.886901345471228
 31
8.586881206085197E-16
210
-2.084006073093385E-16
220
-1.880606417844514E-16
230
1.0
 40
0.8754183014752263
 41
4.73391213259498
 42
5.418550348681715
  0
ELLIPSE
  5
84
330
1F
100
AcDbEntity
  8
0
 62
     7
370
    -3
100
AcDbEllipse
 10
-57.92109190419568
 20
15.01620470838179
 30
-0.0000000000000078
 11
-4.920711940705464
 21
0.886901345471227
 31
-2.862293735361732E-16
210
8.587784067499926E-17
220
1.537383421634696E-16
230
-1.0
 40
0.8754183014752263
 41
4.006227612087661
 42
4.690865828174395
  0
LINE
  5
85
330
1F
100
AcDbEntity
  8
0
 62
     7
370
    -3
100
AcDbLine
 10
-58.59142069093198
 20
10.69043370004411
 30
-0.0000000000000013
 11
-62.45827714130684
 21
-10.76368496322578
 31
-0.0000000000000013
  0
ELLIPSE
  5
86
330
1F
100
AcDbEntity
  8
0
 62
     7
370
    -3
100
AcDbEllipse
 10
14.85510691772164
 20
-8.421575980922338
 30
0.0000000000000004
 11
1.187312545107424
 21
-9.929264268828307
 31
-1.110223024625157E-15
210
-9.705516083836500E-17
220
-1.234187953384561E-16
230
1.0
 40
0.4385806695887496
 41
1.003053132063412
 42
2.57384945885831
  0
ELLIPSE
  5
87
330
1F
100
AcDbEntity
  8
0
 62
     7
370
    -3
100
AcDbEllipse
 10
-33.8941721340679
 20
-14.25087299790693
 30
-0.0000000000000017
 11
-1.187312545107442
 21
9.929264268828305
 31
0.0
210
1.102369780884106E-16
220
1.318181725004576E-17
230
-1.0
 40
0.4385806695887497
 41
0.5677431947314854
 42
2.138539521526382
  0
LINE
  5
88
330
1F
100
AcDbEntity
  8
0
 62
     7
370
    -3
100
AcDbLine
 10
-29.58412728934104
 20
-19.15110481023247
 30
0.0
 11
19.16515176244856
 21
-13.32180779324787
 31
0.0000000000000089
  0
ELLIPSE
  5
89
330
1F
100
AcDbEntity
  8
0
 62
     7
370
    -3
100
AcDbEllipse
 10
-23.7862446369449
 20
9.820428823261334
 30
-0.0000000000000026
 11
-11.85846522619858
 21
1.837607814262668
 31
-1.376239012604931E-15
210
-1.303351936157227E-16
220
-9.215042911913156E-17
230
1.0
 40
0.4832541567787313
 41
0.0685714712247885
 42
2.12027761109931
  0
ELLIPSE
  5
8A
330
1F
100
AcDbEntity
  8
0
 62
     7
370
    -3
100
AcDbEllipse
 10
-19.69118813522033
 20
-4.677869530016753
 30
0.0
 11
-1.33589204929494
 21
9.910367926198834
 31
5.551115123125783E-16
210
1.301182926194530E-16
220
7.355281966512463E-17
230
-1.0
 40
0.4572150572926412
 41
0.0000741631054497
 42
0.5744525349062577
  0
LINE
  5
8B
330
1F
100
AcDbEntity
  8
0
 62
     7
370
    -3
100
AcDbLine
 10
-44.64959506294832
 20
12.7041749496648
 30
-0.0000000000000052
 11
-35.6776871819804
 21
11.26106667021149
 31
-0.0000000000000044
  0
LINE
  5
8C
330
1F
100
AcDbEntity
  8
0
 62
     7
370
    -3
100
AcDbLine
 10
-44.64959506294836
 20
12.7041749496648
 30
-0.0000000000000104
 11
-48.51645151332267
 21
-8.749943713605186
 31
-0.000000000000008
  0
LINE
  5
8D
330
1F
100
AcDbEntity
  8
0
 62
     7
370
    -3
100
AcDbLine
 10
-39.26858233655158
 20
-10.23743965687157
 30
-0.0000000000000017
 11
-48.51645151332268
 21
-8.749943713605177
 31
-0.0000000000000061
  0
ELLIPSE
  5
8E
330
1F
100
AcDbEntity
  8
0
 62
     7
370
    -3
100
AcDbEllipse
 10
-27.38146074692305
 20
-11.47960915602225
 30
-0.0000000000000017
 11
-11.85846522619857
 21
1.837607814262668
 31
-1.194371665194520E-15
210
-1.153583351778940E-16
220
-9.447126841608015E-17
230
1.0
 40
0.4832541567787314
 41
5.237096827657821
 42
6.385588457161578
  0
LINE
  5
8F
330
1F
100
AcDbEntity
  8
0
 62
     7
370
    -3
100
AcDbLine
 10
16.19576449119425
 20
0.2299660357529772
 30
0.0000000000000011
 11
-32.55351456059536
 21
-5.599330981231632
 31
-0.000000000000003
  0
ELLIPSE
  5
90
330
1F
100
AcDbEntity
  8
0
 62
     7
370
    -3
100
AcDbEllipse
 10
21.36781830486649
 20
-5.650312139037648
 30
0.0000000000000024
 11
-11.85846522619858
 21
1.837607814262669
 31
-1.376239012604932E-15
210
-1.303351936157227E-16
220
-9.215042911913156E-17
230
1.0
 40
0.4832541567787313
 41
3.880201604483823
 42
5.237096827657818
  0
LINE
  5
91
330
1F
100
AcDbEntity
  8
0
 62
     7
370
    -3
100
AcDbLine
 10
31.27600796344009
 20
-3.55585269705051
 30
0.0000000000000015
 11
30.73391258616489
 21
-3.150830779975087
 31
0.0000000000000037
  0
LINE
  5
92
330
1F
100
AcDbEntity
  8
0
 62
     7
370
    -3
100
AcDbLine
 10
38.5347310314464
 20
-1.618754643777011
 30
0.0000000000000026
 11
31.27600796344008
 21
-3.555852697050502
 31
-0.0000000000000001
  0
LINE
  5
93
330
1F
100
AcDbEntity
  8
0
 62
     7
370
    -3
100
AcDbLine
 10
13.50008073096957
 20
17.08566985985486
 30
0.0000000000000017
 11
38.5347310314464
 21
-1.618754643777014
 31
0.0000000000000009
  0
LINE
  5
94
330
1F
100
AcDbEntity
  8
0
 62
     7
370
    -3
100
AcDbLine
 10
6.241357662963303
 20
15.14857180658136
 30
-0.0000000000000009
 11
13.50008073096957
 21
17.08566985985485
 31
0.0
  0
ELLIPSE
  5
95
330
1F
100
AcDbEntity
  8
0
 62
     7
370
    -3
100
AcDbEllipse
 10
-3.075364028886337
 20
12.61220214028028
 30
-0.0000000000000009
 11
-11.85846522619858
 21
1.837607814262669
 31
-1.376239012604932E-15
210
-1.303351936157227E-16
220
-9.215042911913156E-17
230
1.0
 40
0.4832541567787313
 41
2.12027761109931
 42
3.880201604483823
  0
LINE
  5
96
330
1F
100
AcDbEntity
  8
0
 62
     7
370
    -3
100
AcDbLine
 10
-18.35053056174776
 20
3.973672486658561
 30
-0.0000000000000008
 11
2.360350046310848
 21
6.765445803677506
 31
-0.0000000000000002
  0
SPLINE
  5
97
330
1F
100
AcDbEntity
  8
0
 62
     7
370
    -3
100
AcDbSpline
210
0.0
220
0.0
230
1.0
 70
     8
 71
     3
 72
    16
 73
    12
 74
     0
 42
0.000000001
 43
0.00000001
 40
0.0358177659605087
 40
0.0358177659605087
 40
0.0358177659605087
 40
0.0358177659605087
 40
0.0371615942477424
 40
0.0371615942477424
 40
0.0390417131991882
 40
0.0390417131991882
 40
0.0409218321506341
 40
0.0409218321506341
 40
0.0427861488739567
 40
0.0427861488739567
 40
0.0446504655972793
 40
0.0446504655972793
 40
0.0446504655972793
 40
0.0446504655972793
 10
-28.22888960783155
 20
6.503590685722198
 30
-0.0000000000000061
 10
-28.47051747309606
 20
6.882919590594909
 30
-0.0000000000000022
 10
-28.7363583915244
 20
7.242685278436535
 30
-0.000000000000003
 10
-29.38963305602005
 20
8.01764440136563
 30
-0.0000000000000041
 10
-29.85351692226715
 20
8.480981603892957
 30
-0.000000000000005
 10
-30.87610460965584
 20
9.316317493618165
 30
-0.0000000000000039
 10
-31.43485595527667
 20
9.688270488063582
 30
-0.0000000000000048
 10
-32.51017626446885
 20
10.28327191635359
 30
-0.0000000000000065
 10
-33.12537156713679
 20
10.56195930572879
 30
-0.0000000000000095
 10
-34.4023630614625
 20
11.00152580001364
 30
-0.0000000000000039
 10
-35.06416767690693
 20
11.1623836376699
 30
-0.0000000000000013
 10
-35.6776871819804
 20
11.26106667021149
 30
-0.0000000000000035
  0
ELLIPSE
  5
98
330
1F
100
AcDbEntity
  8
0
 62
     7
370
    -3
100
AcDbEllipse
 10
1.019692472838253
 20
-1.886096212997806
 30
0.0000000000000004
 11
1.335892049294937
 21
-9.910367926198834
 31
-1.110223024625157E-15
210
-9.519580542631684E-17
220
-1.248585676571353E-16
230
1.0
 40
0.4572150572926417
 41
2.567140118683536
 42
3.141518490484343
  0
LINE
  5
99
330
1F
100
AcDbEntity
  8
0
 62
     7
370
    -3
100
AcDbLine
 10
-31.64757213261558
 20
-25.9167683460683
 30
-0.0000000000000035
 11
-31.54258397197141
 21
-25.27183304828162
 31
-0.0000000000000023
  0
LINE
  5
9A
330
1F
100
AcDbEntity
  8
0
 62
     7
370
    -3
100
AcDbLine
 10
-36.58395761667811
 20
-25.12276346619822
 30
-0.0000000000000052
 11
-31.64757552044839
 21
-25.9167678148971
 31
-0.0000000000000036
  0
LINE
  5
9B
330
1F
100
AcDbEntity
  8
0
 62
     7
370
    -3
100
AcDbLine
 10
25.18819683480549
 20
-18.69931675050732
 30
0.0000000000000017
 11
21.28565755093112
 21
-19.7407673167834
 31
0.0000000000000016
  0
LINE
  5
9C
330
1F
100
AcDbEntity
  8
0
 62
     7
370
    -3
100
AcDbLine
 10
21.28565755093111
 20
-19.7407673167834
 30
0.0000000000000026
 11
20.74356217365592
 21
-19.33574539970799
 31
0.0000000000000009
  0
LINE
  5
9D
330
1F
100
AcDbEntity
  8
0
 62
     7
370
    -3
100
AcDbLine
 10
18.32053749116081
 20
-18.77227926375331
 30
-0.0000000000000009
 11
-30.42874156062876
 21
-24.60157628073791
 31
-0.000000000000005
  0
SPLINE
  5
9E
330
1F
100
AcDbEntity
  8
0
 62
     7
370
    -3
100
AcDbSpline
210
0.0
220
0.0
230
1.0
 70
     8
 71
     3
 72
    12
 73
     8
 74
     0
 42
0.000000001
 43
0.00000001
 40
0.0
 40
0.0
 40
0.0
 40
0.0
 40
0.0008380415750451
 40
0.0008380415750451
 40
0.0027798111433405
 40
0.0027798111433405
 40
0.0028660220902725
 40
0.0028660220902725
 40
0.0028660220902725
 40
0.0028660220902725
 10
-30.42112345575735
 20
-18.00224008024231
 30
-0.0000000000000052
 10
-30.48330504241907
 20
-17.74386235361731
 30
-0.0000000000000035
 10
-30.5569027156971
 20
-17.49263341285653
 30
-0.0000000000000052
 10
-30.82317963563445
 20
-16.7021299276822
 30
-0.0000000000000035
 10
-31.08397851576822
 20
-16.1115284489954
 30
-0.0000000000000017
 10
-31.42086608079601
 20
-15.52146555213387
 30
-0.0000000000000052
 10
-31.43531014251399
 20
-15.49643245072646
 30
-0.0000000000000069
 10
-31.44985436432726
 20
-15.47144682250853
 30
-0.0000000000000069
  0
SPLINE
  5
9F
330
1F
100
AcDbEntity
  8
0
 62
     7
370
    -3
100
AcDbSpline
210
0.0
220
0.0
230
1.0
 70
     8
 71
     3
 72
    19
 73
    15
 74
     0
 42
0.000000001
 43
0.00000001
 40
0.0028660220902725
 40
0.0028660220902725
 40
0.0028660220902725
 40
0.0028660220902725
 40
0.004721580711636
 40
0.004721580711636
 40
0.0051507344361189
 40
0.0051507344361189
 40
0.0051507344361189
 40
0.0066344478011017
 40
0.0066344478011017
 40
0.0085473286959133
 40
0.0085473286959133
 40
0.0104262012372755
 40
0.0104262012372755
 40
0.0123050737786378
 40
0.0123050737786378
 40
0.0123050737786378
 40
0.0123050737786378
 10
-31.44985436432726
 20
-15.47144682250853
 30
-0.0000000000000069
 10
-31.7633048898219
 20
-14.93384239107122
 30
-0.0000000000000035
 10
-32.13153778668302
 20
-14.42178004213721
 30
-0.0000000000000052
 10
-32.59802710446511
 20
-13.874859661681
 30
-0.0000000000000087
 10
-32.68970631476265
 20
-13.7714167028136
 30
-0.0000000000000052
 10
-32.78518430805614
 20
-13.66802575708667
 30
-0.0000000000000017
 10
-33.11526979883826
 20
-13.310583692319
 30
0.0
 10
-33.49174103378705
 20
-12.95445457045202
 30
-0.0000000000000043
 10
-34.41746374070767
 20
-12.20158100693473
 30
-0.0000000000000009
 10
-34.9864396518404
 20
-11.82379077620762
 30
-0.0000000000000043
 10
-36.07614919053336
 20
-11.22252617162295
 30
-0.0000000000000052
 10
-36.6963080981446
 20
-10.94190628729032
 30
-0.0000000000000043
 10
-37.98337117829129
 20
-10.49906638265298
 30
-0.0000000000000069
 10
-38.65029261318765
 20
-10.33688996674157
 30
-0.0000000000000069
 10
-39.26858233655158
 20
-10.23743965687156
 30
-0.0000000000000017
  0
SPLINE
  5
A0
330
1F
100
AcDbEntity
  8
0
 62
     7
370
    -3
100
AcDbSpline
210
0.0
220
0.0
230
1.0
 70
     8
 71
     3
 72
    10
 73
     6
 74
     0
 42
0.000000001
 43
0.00000001
 40
0.057968765369024
 40
0.057968765369024
 40
0.057968765369024
 40
0.057968765369024
 40
0.0609349999427205
 40
0.0609349999427205
 40
0.0609525509140115
 40
0.0609525509140115
 40
0.0609525509140115
 40
0.0609525509140115
 10
-30.42119634760815
 20
-18.00272049689929
 30
-0.0000000000000052
 10
-30.50910792794353
 20
-18.5820489846371
 30
-0.0000000000000017
 10
-30.60486531783104
 20
-19.21044130490784
 30
-0.0000000000000035
 10
-30.6950590156833
 20
-19.80226263095486
 30
-0.0000000000000035
 10
-30.69564189655923
 20
-19.80608730202837
 30
-0.0000000000000052
 10
-30.69622547587974
 20
-19.80991655553909
 30
-0.0000000000000069
  0
LINE
  5
A1
330
1F
100
AcDbEntity
  8
0
 62
     7
370
    -3
100
AcDbLine
 10
-30.69622547587975
 20
-19.8099165555391
 30
-0.0000000000000069
 11
-30.69796970068369
 21
-19.82136157777617
 31
-0.0000000000000032
  0
LINE
  5
A2
330
1F
100
AcDbEntity
  8
0
 62
     7
370
    -3
100
AcDbLine
 10
-30.42112345575734
 20
-18.00224008024232
 30
-0.0000000000000017
 11
-31.64757213479728
 21
-25.91676835947037
 31
-0.0000000000000017
  0
ELLIPSE
  5
A3
330
1F
100
AcDbEntity
  8
0
 62
     7
370
    -3
100
AcDbEllipse
 10
-50.70172335808298
 20
-22.85195720078594
 30
-0.0000000000000052
 11
16.04152092669981
 21
-2.891298386236203
 31
2.007595478747960E-15
210
-1.507520070426641E-16
220
-1.420455249185004E-16
230
1.0
 40
0.875418301475226
 41
1.592319479005188
 42
2.276957695091924
  0
LINE
  5
A4
330
1F
100
AcDbEntity
  8
0
 62
     7
370
    -3
100
AcDbLine
 10
-70.12024357782579
 20
-9.53127739193436
 30
-0.0000000000000069
 11
-62.45827714130684
 21
-10.76368496322577
 31
-0.000000000000004
  0
LINE
  5
A5
330
1F
100
AcDbEntity
  8
0
 62
     7
370
    -3
100
AcDbLine
 10
-71.46090115129836
 20
-18.18281940860967
 30
-0.0000000000000069
 11
-70.12024357782578
 21
-9.531277391934362
 31
-0.0000000000000079
  0
LINE
  5
A6
330
1F
100
AcDbEntity
  8
0
 62
     7
370
    -3
100
AcDbLine
 10
-64.54050686446473
 20
-19.29594700921691
 30
-0.0000000000000052
 11
-71.46090115129836
 21
-18.18281940860967
 31
-0.0000000000000127
  0
ELLIPSE
  5
A7
330
1F
100
AcDbEntity
  8
0
 62
     7
370
    -3
100
AcDbEllipse
 10
-46.83486690770812
 20
-1.397838537516041
 30
-0.0000000000000065
 11
-16.04152092669981
 21
2.891298386236206
 31
-2.035871471406381E-15
210
1.524592219470764E-16
220
1.417378192015275E-16
230
-1.0
 40
0.8754183014752261
 41
0.864634958497868
 42
1.549273174584571
  0
LINE
  5
A8
330
1F
100
AcDbEntity
  8
0
 62
     7
370
    -3
100
AcDbLine
 10
-59.18554812065327
 20
-10.29097574969983
 30
-0.0000000000000104
 11
-55.31869167027843
 21
11.16314291357008
 31
-0.0000000000000092
  0
LINE
  5
A9
330
1F
100
AcDbEntity
  8
0
 62
     7
370
    -3
100
AcDbLine
 10
-58.59142069093194
 20
10.69043370004411
 30
-0.0000000000000074
 11
-66.25338712745088
 21
11.92284127133552
 31
-0.0000000000000095
  0
ELLIPSE
  5
AA
330
1F
100
AcDbEntity
  8
0
 62
     7
370
    -3
100
AcDbEllipse
 10
-66.89643420899883
 20
8.355083178774024
 30
-0.0000000000000005
 11
7.411540766374111
 21
-1.148504883914169
 31
4.163336342344338E-16
210
7.185770892538943E-17
220
1.012121989835805E-16
230
-1.0
 40
0.4832541567787314
 41
1.994195800325914
 42
4.724271607848218
  0
LINE
  5
AB
330
1F
100
AcDbEntity
  8
0
 62
     7
370
    -3
100
AcDbLine
 10
-67.8787048512034
 20
2.905242671955889
 30
-0.0000000000000056
 11
-68.49492585407322
 21
-0.5136787925547107
 31
-0.0000000000000093
  0
ELLIPSE
  5
AC
330
1F
100
AcDbEntity
  8
0
 62
     7
370
    -3
100
AcDbEllipse
 10
-69.47719649627786
 20
-5.96351929937285
 30
-0.0000000000000035
 11
7.411540766374107
 21
-1.148504883914168
 31
4.163336342344336E-16
210
7.185770892538945E-17
220
1.012121989835805E-16
230
-1.0
 40
0.4832541567787313
 41
1.582678954258431
 42
4.312754761780717
  0
ELLIPSE
  5
AD
330
1F
100
AcDbEntity
  8
0
 62
     7
370
    -3
100
AcDbEllipse
 10
-68.23709178247142
 20
-0.296458837901279
 30
-0.0000000000000035
 11
-7.411540766374111
 21
1.148504883914169
 31
-4.163336342344338E-16
210
-7.185770892538943E-17
220
-1.012121989835805E-16
230
1.0
 40
0.4832541567787314
 41
0.0000742795424211
 42
0.8961401098963162
  0
LINE
  5
AE
330
1F
100
AcDbEntity
  8
0
 62
     7
370
    -3
100
AcDbLine
 10
21.05310212371815
 20
16.05480635726363
 30
0.0000000000000017
 11
46.087752424195
 21
-2.649618146368247
 31
0.0000000000000026
  0
ELLIPSE
  5
AF
330
1F
100
AcDbEntity
  8
0
 62
     7
370
    -3
100
AcDbEllipse
 10
36.34945918668607
 20
-15.72076813095778
 30
0.0000000000000052
 11
-9.756094393954827
 21
-13.05789501321877
 31
-2.714495295208510E-15
210
7.744090193665153E-17
220
1.500222312997944E-16
230
-1.0
 40
0.6473350799417894
 41
2.454851049581937
 42
3.139489265668673
  0
ELLIPSE
  5
B0
330
1F
100
AcDbEntity
  8
0
 62
     7
370
    -3
100
AcDbEllipse
 10
11.31480888620925
 20
2.983656372674087
 30
0.0000000000000009
 11
9.756094393954827
 21
13.05789501321877
 31
2.714495295208510E-15
210
-7.744090193665153E-17
220
-1.500222312997944E-16
230
1.0
 40
0.6473350799417894
 41
0.0021033879211196
 42
0.6867416040078561
  0
LINE
  5
B1
330
1F
100
AcDbEntity
  8
0
 62
     7
370
    -3
100
AcDbLine
 10
23.36997985155513
 20
15.73859055892276
 30
0.0000000000000035
 11
29.42739850374915
 21
17.35510268772207
 31
0.0000000000000028
  0
LINE
  5
B2
330
1F
100
AcDbEntity
  8
0
 62
     7
370
    -3
100
AcDbLine
 10
21.28565755093112
 20
-19.74076731678339
 30
0.0000000000000009
 11
22.13027182221884
 21
-14.29029584627795
 31
0.0000000000000006
  0
ELLIPSE
  5
B3
330
1F
100
AcDbEntity
  8
0
 62
     7
370
    -3
100
AcDbEllipse
 10
36.34945918668607
 20
-15.72076813095778
 30
0.0000000000000052
 11
8.559027597150546
 21
11.45569930607535
 31
2.381428387820961E-15
210
-7.744090193665153E-17
220
-1.500222312997944E-16
230
1.0
 40
0.6473350799417893
 41
5.504219007855284
 42
8.54072323798234
  0
LINE
  5
B4
330
1F
100
AcDbEntity
  8
0
 62
     7
370
    -3
100
AcDbLine
 10
53.1213912307534
 20
-10.0008638325851
 30
0.0000000000000099
 11
47.65024674311868
 21
-11.46091999354926
 31
0.0000000000000107
  0
LINE
  5
B5
330
1F
100
AcDbEntity
  8
0
 62
     7
370
    -3
100
AcDbLine
 10
53.1213912307534
 20
-10.0008638325851
 30
0.0000000000000099
 11
54.462048804226
 21
-1.349321815909792
 31
0.0000000000000118
  0
LINE
  5
B6
330
1F
100
AcDbEntity
  8
0
 62
     7
370
    -3
100
AcDbLine
 10
54.462048804226
 20
-1.349321815909789
 30
0.0000000000000082
 11
48.40463015203196
 21
-2.965833944709109
 31
0.0000000000000051
  0
ELLIPSE
  5
B7
330
1F
100
AcDbEntity
  8
0
 62
     7
370
    -3
100
AcDbEllipse
 10
49.88253960291926
 20
2.072219251827747
 30
-0.0000000000000009
 11
7.41154076637411
 21
-1.148504883914168
 31
4.163336342344337E-16
210
7.185770892538943E-17
220
1.012121989835805E-16
230
-1.0
 40
0.4832541567787313
 41
4.385296875558146
 42
7.115372683080454
  0
LINE
  5
B8
330
1F
100
AcDbEntity
  8
0
 62
     7
370
    -3
100
AcDbLine
 10
42.88722374934096
 20
7.298709563930167
 30
0.0000000000000087
 11
41.00222355863419
 21
8.7070713078821
 31
0.0000000000000088
  0
ELLIPSE
  5
B9
330
1F
100
AcDbEntity
  8
0
 62
     7
370
    -3
100
AcDbEllipse
 10
34.0069077050559
 20
13.93356161998454
 30
0.0
 11
7.41154076637411
 21
-1.148504883914168
 31
4.163336342344337E-16
210
7.185770892538943E-17
220
1.012121989835805E-16
230
-1.0
 40
0.4832541567787313
 41
3.973780029490661
 42
6.703855837012966
  0
LINE
  5
BA
330
1F
100
AcDbEntity
  8
0
 62
     7
370
    -3
100
AcDbLine
 10
20.74356217365592
 20
-19.33574539970799
 30
0.0000000000000009
 11
21.58817644494364
 21
-13.88527392920254
 31
0.0000000000000027
  0
LINE
  5
BB
330
1F
100
AcDbEntity
  8
0
 62
     7
370
    -3
100
AcDbLine
 10
-30.69796970068369
 20
-19.82136157777617
 30
-0.0000000000000069
 11
-31.54258397197142
 21
-25.27183304828162
 31
-0.0000000000000042
  0
LINE
  5
BC
330
1F
100
AcDbEntity
  8
0
 62
     7
370
    -3
100
AcDbLine
 10
40.24362761308821
 20
9.473713039680247
 30
0.0000000000000035
 11
40.54562078752746
 21
11.42253777248872
 31
0.0000000000000059
  0
ELLIPSE
  5
BD
330
1F
100
AcDbEntity
  8
0
 62
     7
370
    -3
100
AcDbEllipse
 10
-70.81785406975041
 20
-14.61506131604815
 30
-0.0000000000000069
 11
7.411540766374107
 21
-1.148504883914168
 31
4.163336342344336E-16
210
7.185770892538945E-17
220
1.012121989835805E-16
230
-1.0
 40
0.4832541567787313
 41
1.582678954258431
 42
3.14166368190604
  0
ELLIPSE
  5
BE
330
1F
100
AcDbEntity
  8
0
 62
     7
370
    -3
100
AcDbEllipse
 10
48.54188202944667
 20
-6.579322764847566
 30
0.0000000000000069
 11
-7.41154076637411
 21
1.148504883914168
 31
-4.163336342344337E-16
210
-7.185770892538943E-17
220
-1.012121989835805E-16
230
1.0
 40
0.4832541567787313
 41
2.309405277688926
 42
3.141525211522082
  0
LINE
  5
BF
330
1F
100
AcDbEntity
  8
0
 62
     7
370
    -3
100
AcDbLine
 10
47.65024674311869
 20
-11.46091999354926
 30
0.0000000000000082
 11
37.23096423529493
 21
-3.676242328373744
 31
0.0000000000000061
  0
SPLINE
  5
C0
330
1F
100
AcDbEntity
  8
0
 62
     7
370
    -3
100
AcDbSpline
210
0.0
220
0.0
230
1.0
 70
     8
 71
     3
 72
    22
 73
    18
 74
     0
 42
0.000000001
 43
0.00000001
 40
0.0011296312864406
 40
0.0011296312864406
 40
0.0011296312864406
 40
0.0011296312864406
 40
0.0013414374630699
 40
0.0013414374630699
 40
0.0027774548821442
 40
0.0027774548821442
 40
0.0043330815341626
 40
0.0043330815341626
 40
0.0059695348346284
 40
0.0059695348346284
 40
0.0075639903840964
 40
0.0075639903840964
 40
0.0090347776138596
 40
0.0090347776138596
 40
0.0104123383977611
 40
0.0104123383977611
 40
0.0105382200963453
 40
0.0105382200963453
 40
0.0105382200963453
 40
0.0105382200963453
 10
-21.02705439386095
 20
5.232501872741564
 30
-0.0000000000000047
 10
-21.07255355405513
 20
5.226381614863138
 30
-0.000000000000004
 10
-21.11981568338693
 20
5.220425050711269
 30
-0.000000000000004
 10
-21.50088955550713
 20
5.176139075478918
 30
-0.0000000000000046
 10
-21.90726344489185
 20
5.150245113595531
 30
-0.0000000000000037
 10
-22.86503494396852
 20
5.151453773976888
 30
-0.0000000000000025
 10
-23.41470125593034
 20
5.183221591593816
 30
-0.0000000000000062
 10
-24.57812440927692
 20
5.322878635118801
 30
-0.0000000000000015
 10
-25.17667380379207
 20
5.432671271328723
 30
-0.0000000000000029
 10
-26.28235648903923
 20
5.705316835797463
 30
-0.0000000000000066
 10
-26.77685902694466
 20
5.863113407379518
 30
-0.0000000000000037
 10
-27.57437787805433
 20
6.16904520686229
 30
-0.0000000000000059
 10
-27.88232468075731
 20
6.314250809451805
 30
-0.0000000000000044
 10
-28.31243381181825
 20
6.545269047257327
 30
-0.0000000000000054
 10
-28.44176298987179
 20
6.632390822124074
 30
-0.0000000000000044
 10
-28.49981819707149
 20
6.674561460208396
 30
-0.0000000000000028
 10
-28.50403748313602
 20
6.677683637509756
 30
-0.0000000000000044
 10
-28.50763531423994
 20
6.680363666605937
 30
-0.0000000000000023
  0
SPLINE
  5
C1
330
1F
100
AcDbEntity
  8
0
 62
     7
370
    -3
100
AcDbSpline
210
0.0
220
0.0
230
1.0
 70
     8
 71
     3
 72
     8
 73
     4
 74
     0
 42
0.000000001
 43
0.00000001
 40
0.0105382200963453
 40
0.0105382200963453
 40
0.0105382200963453
 40
0.0105382200963453
 40
0.0109690207171595
 40
0.0109690207171595
 40
0.0109690207171595
 40
0.0109690207171595
 10
-28.50763531423994
 20
6.680363666605937
 30
-0.0000000000000023
 10
-28.51991372548858
 20
6.68958454369483
 30
-0.0000000000000031
 10
-28.52480858159419
 20
6.693777440382956
 30
-0.0000000000000018
 10
-28.52284951540872
 20
6.692026332472783
 30
-0.0000000000000068
  0
LINE
  5
C2
330
1F
100
AcDbEntity
  8
0
 62
     7
370
    -3
100
AcDbLine
 10
-0.3161992945497898
 20
8.024271751201356
 30
-0.0000000000000004
 11
-21.02708068645858
 21
5.23249832852142
 31
-0.0000000000000013
  0
SPLINE
  5
C3
330
1F
100
AcDbEntity
  8
0
 62
     7
370
    -3
100
AcDbSpline
210
0.0
220
0.0
230
1.0
 70
     8
 71
     3
 72
    12
 73
     8
 74
     0
 42
0.000000001
 43
0.00000001
 40
0.0110072084813583
 40
0.0110072084813583
 40
0.0110072084813583
 40
0.0110072084813583
 40
0.0121835590359772
 40
0.0127717343132867
 40
0.0133599095905962
 40
0.0139480848679056
 40
0.0151244354225245
 40
0.0151244354225245
 40
0.0151244354225245
 40
0.0151244354225245
 10
0.4923428525032377
 20
8.196992646202922
 30
-0.0000000000000022
 10
0.4189613309846038
 20
8.170746287659094
 30
-0.0000000000000013
 10
0.3048288079705059
 20
8.13940342457772
 30
-0.0000000000000022
 10
0.1514415064110123
 20
8.104291945607915
 30
-0.0000000000000026
 10
0.0357703947439715
 20
8.080817907396172
 30
-0.0000000000000017
 10
-0.1192814523779642
 20
8.052758068274406
 30
-0.0000000000000022
 10
-0.2352375180495238
 20
8.035202408892108
 30
-0.0000000000000026
 10
-0.3161738134038352
 20
8.024275186039802
 30
-0.0000000000000022
  0
LINE
  5
C4
330
1F
100
AcDbEntity
  8
0
 62
     7
370
    -3
100
AcDbLine
 10
-74.30797497237633
 20
9.503588082025901
 30
-0.0000000000000103
 11
-75.64863254884553
 21
0.8520460460128866
 31
-0.0000000000000079
  0
LINE
  5
C5
330
1F
100
AcDbEntity
  8
0
 62
     7
370
    -3
100
AcDbLine
 10
-76.88873725965536
 20
-4.815014396120976
 30
-0.000000000000013
 11
-78.22939483612453
 21
-13.46655643213399
 31
-0.0000000000000111
  0
LINE
  5
C6
330
1F
100
AcDbEntity
  8
0
 62
     7
370
    -3
100
AcDbLine
 10
40.81016886665211
 20
8.859701997655431
 30
0.0000000000000009
 11
41.41844847442659
 21
12.78505675540808
 31
0.000000000000002
  0
LINE
  5
C7
330
1F
100
AcDbEntity
  8
0
 62
     7
370
    -3
100
AcDbLine
 10
55.95342279582078
 20
-7.727827648761727
 30
0.0000000000000055
 11
57.29408037228998
 21
0.923714387251284
 31
0.000000000000005
  0
ELLIPSE
  5
C8
330
1F
100
AcDbEntity
  8
0
 62
     7
370
    -3
100
AcDbEllipse
 10
22.61804135395418
 20
-59.4275110407397
 30
0.0000000000000035
 11
-5.985333984021364
 21
-8.01097853571703
 31
-1.665334536937735E-15
210
5.520596988632422E-17
220
1.666348702976242E-16
230
-1.0
 40
0.6473350799417893
 41
5.59644370317173
 42
7.167240029966631
  0
LINE
  5
C9
330
1F
100
AcDbEntity
  8
0
 62
     7
370
    -3
100
AcDbLine
 10
21.27738378048157
 20
-68.079053057415
 30
0.0000000000000035
 11
28.53610684848791
 21
-66.14195500414148
 31
0.0000000000000058
  0
ELLIPSE
  5
CA
330
1F
100
AcDbEntity
  8
0
 62
     7
370
    -3
100
AcDbEllipse
 10
30.72137869324821
 20
-52.03994151696073
 30
0.0000000000000069
 11
9.756094393954822
 21
13.05789501321878
 31
3.619327060278013E-15
210
-1.996059081336209E-16
220
-1.280415394091299E-16
230
1.0
 40
0.6473350799417892
 41
3.828334257597649
 42
4.512972473684385
  0
ELLIPSE
  5
CB
330
1F
100
AcDbEntity
  8
0
 62
     7
370
    -3
100
AcDbEllipse
 10
39.02270845287087
 20
-63.50932497740293
 30
0.0000000000000069
 11
2.99266699201068
 21
4.005489267858517
 31
1.110223024625157E-15
210
-1.996059081336209E-16
220
-1.280415394091300E-16
230
1.0
 40
0.6473350799417892
 41
0.6867416040078559
 42
1.371379820094594
  0
LINE
  5
CC
330
1F
100
AcDbEntity
  8
0
 62
     7
370
    -3
100
AcDbLine
 10
45.75045589180117
 20
-57.56704184026597
 30
0.0000000000000069
 11
39.69303723960718
 21
-59.18355396906527
 31
0.000000000000008
  0
LINE
  5
CD
330
1F
100
AcDbEntity
  8
0
 62
     7
370
    -3
100
AcDbLine
 10
47.09111346527375
 20
-48.91549982359066
 30
0.0000000000000069
 11
45.75045589180116
 21
-57.56704184026597
 31
0.0000000000000084
  0
LINE
  5
CE
330
1F
100
AcDbEntity
  8
0
 62
     7
370
    -3
100
AcDbLine
 10
47.09111346527375
 20
-48.91549982359066
 30
0.0000000000000069
 11
41.61996897763902
 21
-50.3755559845548
 31
0.0000000000000021
  0
ELLIPSE
  5
CF
330
1F
100
AcDbEntity
  8
0
 62
     7
370
    -3
100
AcDbEllipse
 10
30.72137869324818
 20
-52.03994151696075
 30
0.0
 11
8.559027597150543
 21
11.45569930607536
 31
2.381428387820961E-15
210
-1.886155621882887E-16
220
-6.695903631064529E-17
230
1.0
 40
0.647335079941789
 41
2.257537930802752
 42
5.294042160929807
  0
LINE
  5
D0
330
1F
100
AcDbEntity
  8
0
 62
     7
370
    -3
100
AcDbLine
 10
19.56011634136759
 20
-55.01849013651029
 30
0.0000000000000035
 11
15.65757705749321
 21
-56.05994070278636
 31
0.000000000000004
  0
LINE
  5
D1
330
1F
100
AcDbEntity
  8
0
 62
     7
370
    -3
100
AcDbLine
 10
15.6575770574932
 20
-56.05994070278636
 30
0.0000000000000035
 11
14.81296278620549
 21
-61.51041217329181
 31
0.0000000000000026
  0
ELLIPSE
  5
D2
330
1F
100
AcDbEntity
  8
0
 62
     7
370
    -3
100
AcDbEllipse
 10
-35.19481308512125
 20
-61.90079602920598
 30
0.0
 11
1.976410871033095
 21
-0.306267969043778
 31
2.293731687674884E-16
210
1.303351936157226E-16
220
9.215042911913157E-17
230
-1.0
 40
0.4832541567787313
 41
3.145281990681115
 42
4.187681133111553
  0
ELLIPSE
  5
D3
330
1F
100
AcDbEntity
  8
0
 62
     7
370
    -3
100
AcDbEllipse
 10
-36.03942735640897
 20
-67.35126749971141
 30
-0.0000000000000035
 11
-1.976410871033095
 21
0.3062679690437815
 31
-1.325055864036800E-16
210
-8.247265790709162E-17
220
-9.956728854831754E-17
230
1.0
 40
0.4832541567787322
 41
5.237096827657823
 42
6.279495970088264
  0
LINE
  5
D4
330
1F
100
AcDbEntity
  8
0
 62
     7
370
    -3
100
AcDbLine
 10
-36.05682205406664
 20
-60.92074966674087
 30
-0.0000000000000069
 11
-36.90143632535437
 21
-66.37122113724631
 31
-0.0000000000000008
  0
ELLIPSE
  5
D5
330
1F
100
AcDbEntity
  8
0
 62
     7
370
    -3
100
AcDbEllipse
 10
13.55446596666828
 20
-56.07149901222137
 30
0.0
 11
1.976410871033095
 21
-0.306267969043778
 31
2.293731687674885E-16
210
1.303351936157227E-16
220
9.215042911913156E-17
230
-1.0
 40
0.4832541567787313
 41
4.18768113311156
 42
5.544576356285552
  0
ELLIPSE
  5
D6
330
1F
100
AcDbEntity
  8
0
 62
     7
370
    -3
100
AcDbEllipse
 10
12.70985169538056
 20
-61.52197048272683
 30
0.0
 11
-1.976410871033095
 21
0.3062679690437773
 31
-1.504933920107757E-16
210
-9.136048154406489E-17
220
-9.819001637560785E-17
230
1.0
 40
0.4832541567787328
 41
3.880201604483823
 42
5.237096827657857
  0
LINE
  5
D7
330
1F
100
AcDbEntity
  8
0
 62
     7
370
    -3
100
AcDbLine
 10
15.11548168021801
 20
-55.65491878571095
 30
0.0000000000000069
 11
14.2708674089303
 21
-61.10539025621639
 31
0.000000000000002
  0
ELLIPSE
  5
D8
330
1F
100
AcDbEntity
  8
0
 62
     7
370
    -3
100
AcDbEllipse
 10
39.41882769426302
 20
-39.22601787747461
 30
0.0000000000000087
 11
4.941027177582741
 21
-0.7656699226094457
 31
2.775557561562892E-16
210
7.185770892538945E-17
220
1.012121989835805E-16
230
-1.0
 40
0.4832541567787314
 41
1.243704221968351
 42
2.402983702695765
  0
ELLIPSE
  5
D9
330
1F
100
AcDbEntity
  8
0
 62
     7
370
    -3
100
AcDbEllipse
 10
37.53382750355626
 20
-37.81765613352268
 30
0.0000000000000052
 11
4.94102717758274
 21
-0.7656699226094456
 31
2.775557561562891E-16
210
7.185770892538945E-17
220
1.012121989835805E-16
230
-1.0
 40
0.4832541567787314
 41
2.402983702695761
 42
3.562263183423182
  0
LINE
  5
DA
330
1F
100
AcDbEntity
  8
0
 62
     7
370
    -3
100
AcDbLine
 10
33.17468544857522
 20
-36.14364023519214
 30
0.0000000000000017
 11
32.87269227413596
 21
-38.09246496800062
 31
0.0000000000000017
  0
ELLIPSE
  5
DB
330
1F
100
AcDbEntity
  8
0
 62
     7
370
    -3
100
AcDbEllipse
 10
-80.18592191791959
 20
-43.86694713103538
 30
-0.0000000000000173
 11
4.94102717758274
 21
-0.7656699226094456
 31
2.775557561562891E-16
210
7.185770892538945E-17
220
1.012121989835805E-16
230
-1.0
 40
0.4832541567787314
 41
5.135788453915707
 42
6.295067934643127
  0
ELLIPSE
  5
DC
330
1F
100
AcDbEntity
  8
0
 62
     7
370
    -3
100
AcDbEllipse
 10
-80.80214292078941
 20
-47.285868595546
 30
0.0
 11
4.94102717758274
 21
-0.7656699226094456
 31
2.775557561562891E-16
210
7.185770892538945E-17
220
1.012121989835805E-16
230
-1.0
 40
0.4832541567787314
 41
0.0118826274635326
 42
1.171162108190947
  0
ELLIPSE
  5
DD
330
1F
100
AcDbEntity
  8
0
 62
     7
370
    -3
100
AcDbEllipse
 10
-35.58284646157536
 20
-53.4318356659937
 30
0.0
 11
-0.7940311698471511
 21
-4.936548845236002
 31
-5.551115123135745E-16
210
1.238190186749648E-16
220
9.253333986689804E-17
230
-1.0
 40
0.010402759168023
 41
4.207991197983561
 42
5.336528886657955
  0
SPLINE
  5
DE
330
1F
100
AcDbEntity
  8
0
 62
     7
370
    -3
100
AcDbSpline
210
0.0
220
0.0
230
1.0
 70
     8
 71
     3
 72
    12
 73
     8
 74
     0
 42
0.000000001
 43
0.00000001
 40
0.0118266540507871
 40
0.0118266540507871
 40
0.0118266540507871
 40
0.0118266540507871
 40
0.0119868594113988
 40
0.0119868594113988
 40
0.0139212571007526
 40
0.0139212571007526
 40
0.0158556547901064
 40
0.0158556547901064
 40
0.0158556547901064
 40
0.0158556547901064
 10
-43.47757385926631
 20
-53.56639600005298
 30
-0.0000000000000069
 10
-43.50979408349876
 20
-53.60766981977984
 30
-0.0000000000000035
 10
-43.54174151640308
 20
-53.64863836039022
 30
-0.0000000000000069
 10
-43.95546295146873
 20
-54.17965098830371
 30
-0.0000000000000035
 10
-44.34867945416969
 20
-54.68870282267186
 30
-0.0000000000000069
 10
-44.95247270214371
 20
-55.60285768501637
 30
-0.0000000000000069
 10
-45.15699438947614
 20
-56.00982618062976
 30
-0.0000000000000035
 10
-45.21227922452912
 20
-56.31655786998194
 30
-0.0000000000000069
  0
SPLINE
  5
DF
330
1F
100
AcDbEntity
  8
0
 62
     7
370
    -3
100
AcDbSpline
210
0.0
220
0.0
230
1.0
 70
     8
 71
     3
 72
    10
 73
     6
 74
     0
 42
0.000000001
 43
0.00000001
 40
0.0076398953959574
 40
0.0076398953959574
 40
0.0076398953959574
 40
0.0076398953959574
 40
0.0098133774036781
 40
0.0098133774036781
 40
0.0118266540507871
 40
0.0118266540507871
 40
0.0118266540507871
 40
0.0118266540507871
 10
-40.97836519938717
 20
-50.11651999763384
 30
-0.0000000000000035
 10
-41.31945559117062
 20
-50.66352908811207
 30
-0.0000000000000069
 10
-41.74587378502106
 20
-51.28507815531261
 30
-0.0000000000000035
 10
-42.6251781610246
 20
-52.47646458834962
 30
-0.0000000000000035
 10
-43.07270389464841
 20
-53.04739302744718
 30
-0.0000000000000035
 10
-43.47757385926631
 20
-53.56639600005298
 30
-0.0000000000000069
  0
LINE
  5
E0
330
1F
100
AcDbEntity
  8
0
 62
     7
370
    -3
100
AcDbLine
 10
-45.21227922452913
 20
-56.31655786998194
 30
0.0000000000000035
 11
-41.46000049085922
 21
-56.92010224195018
 31
0.0000000000000003
  0
ELLIPSE
  5
E1
330
1F
100
AcDbEntity
  8
0
 62
     7
370
    -3
100
AcDbEllipse
 10
-11.00683570457246
 20
-48.49230812319365
 30
-0.0000000000000035
 11
-0.6059407709144141
 21
4.963147769525267
 31
5.551115123125780E-16
210
8.297392833745299E-17
220
1.219767829868741E-16
230
-1.0
 40
0.4417054460804729
 41
3.710425105448325
 42
5.281221432243172
  0
ELLIPSE
  5
E2
330
1F
100
AcDbEntity
  8
0
 62
     7
370
    -3
100
AcDbEllipse
 10
-24.83965529831842
 20
-50.18112936281516
 30
-0.0000000000000035
 11
0.6059407709144083
 21
-4.963147769525269
 31
-8.326672684688673E-16
210
-4.869562974145049E-17
220
-1.737151452931719E-16
230
1.0
 40
0.4417054460804736
 41
4.143556528526208
 42
5.714352855321089
  0
LINE
  5
E3
330
1F
100
AcDbEntity
  8
0
 62
     7
370
    -3
100
AcDbLine
 10
-25.50998408505471
 20
-54.50690037115282
 30
-0.0000000000000035
 11
-11.6771644913091
 21
-52.81807913153136
 31
0.0000000000000012
  0
ELLIPSE
  5
E4
330
1F
100
AcDbEntity
  8
0
 62
     7
370
    -3
100
AcDbEllipse
 10
0.6381194399958708
 20
-49.66488303221308
 30
0.0
 11
-1.289207085789747
 21
4.830936253972876
 31
5.551115123125780E-16
210
1.590934352849247E-16
220
1.573640918485206E-16
230
-1.0
 40
0.5894257495502169
 41
3.782868367700349
 42
5.353664694495253
  0
SPLINE
  5
E5
330
1F
100
AcDbEntity
  8
0
 62
     7
370
    -3
100
AcDbSpline
210
0.0
220
0.0
230
1.0
 70
     8
 71
     3
 72
    10
 73
     6
 74
     0
 42
0.000000001
 43
0.00000001
 40
0.0040327594689809
 40
0.0040327594689809
 40
0.0040327594689809
 40
0.0040327594689809
 40
0.0061259155785605
 40
0.0061259155785605
 40
0.0082190716881401
 40
0.0082190716881401
 40
0.0082190716881401
 40
0.0082190716881401
 10
4.114191305426337
 20
-49.48049317101433
 30
-0.0000000000000035
 10
3.652585660675225
 20
-48.97120520686259
 30
0.0
 10
3.209117063924475
 20
-48.4005318792446
 30
0.0
 10
2.52940055050756
 20
-47.2498660541271
 30
0.0000000000000035
 10
2.294923359292183
 20
-46.66911897069362
 30
0.0
 10
2.192148499411478
 20
-46.15439989114103
 30
-0.0000000000000035
  0
SPLINE
  5
E6
330
1F
100
AcDbEntity
  8
0
 62
     7
370
    -3
100
AcDbSpline
210
0.0
220
0.0
230
1.0
 70
     8
 71
     3
 72
    10
 73
     6
 74
     0
 42
0.000000001
 43
0.00000001
 40
0.0011520184130351
 40
0.0011520184130351
 40
0.0011520184130351
 40
0.0011520184130351
 40
0.0020163797344905
 40
0.0020163797344905
 40
0.0040327594689809
 40
0.0040327594689809
 40
0.0040327594689809
 40
0.0040327594689809
 10
6.26901797054837
 20
-51.48701129582856
 30
0.0
 10
6.055679938863686
 20
-51.31378083691867
 30
-0.0000000000000035
 10
5.834033006827624
 20
-51.12787683000867
 30
0.0
 10
5.088408394782304
 20
-50.47799631881646
 30
-0.0000000000000035
 10
4.558865385464016
 20
-49.9711005964403
 30
0.0000000000000035
 10
4.114191305426337
 20
-49.48049317101433
 30
-0.0000000000000035
  0
LINE
  5
E7
330
1F
100
AcDbEntity
  8
0
 62
     7
370
    -3
100
AcDbLine
 10
2.1921484994115
 20
-46.15439989114103
 30
0.0000000000000035
 11
-2.414886694210138
 21
-47.38385565372024
 31
0.0000000000000004
  0
SPLINE
  5
E8
330
1F
100
AcDbEntity
  8
0
 62
     7
370
    -3
100
AcDbSpline
210
0.0
220
0.0
230
1.0
 70
     8
 71
     3
 72
    10
 73
     6
 74
     0
 42
0.000000001
 43
0.00000001
 40
0.0198884142590873
 40
0.0198884142590873
 40
0.0198884142590873
 40
0.0198884142590873
 40
0.0219815703686669
 40
0.0219815703686669
 40
0.0240747264782464
 40
0.0240747264782464
 40
0.0240747264782464
 40
0.0240747264782464
 10
-44.94978396802303
 20
-61.73452191211466
 30
0.0
 10
-44.60798926250028
 20
-61.61605711645102
 30
0.0
 10
-44.20582355356482
 20
-61.38038838382933
 30
-0.0000000000000035
 10
-43.41643167059139
 20
-60.67557086998385
 30
-0.0000000000000035
 10
-43.03018544623515
 20
-60.20473525568222
 30
-0.0000000000000069
 10
-42.70170081422796
 20
-59.67794211193275
 30
-0.0000000000000069
  0
SPLINE
  5
E9
330
1F
100
AcDbEntity
  8
0
 62
     7
370
    -3
100
AcDbSpline
210
0.0
220
0.0
230
1.0
 70
     8
 71
     3
 72
    10
 73
     6
 74
     0
 42
0.000000001
 43
0.00000001
 40
0.0158556547901064
 40
0.0158556547901064
 40
0.0158556547901064
 40
0.0158556547901064
 40
0.0178720345245968
 40
0.0178720345245968
 40
0.0183912957990768
 40
0.0183912957990768
 40
0.0183912957990768
 40
0.0183912957990768
 10
-46.07821873063933
 20
-61.12096919419884
 30
0.0
 10
-46.13584660190852
 20
-61.4407005326613
 30
-0.0000000000000069
 10
-46.03427497723492
 20
-61.66616605613594
 30
0.0
 10
-45.76272729752767
 20
-61.79432440278688
 30
-0.0000000000000035
 10
-45.69999479873452
 20
-61.81239470754598
 30
-0.0000000000000104
 10
-45.63200817667074
 20
-61.82340985921407
 30
-0.0000000000000069
  0
SPLINE
  5
EA
330
1F
100
AcDbEntity
  8
0
 62
     7
370
    -3
100
AcDbSpline
210
0.0
220
0.0
230
1.0
 70
     8
 71
     3
 72
     8
 73
     4
 74
     0
 42
0.000000001
 43
0.00000001
 40
0.0183912957990768
 40
0.0183912957990768
 40
0.0183912957990768
 40
0.0183912957990768
 40
0.0198884142590873
 40
0.0198884142590873
 40
0.0198884142590873
 40
0.0198884142590873
 10
-45.63200817667074
 20
-61.82340985921407
 30
-0.0000000000000069
 10
-45.43546387745057
 20
-61.85284386636209
 30
-0.0000000000000035
 10
-45.19425076188998
 20
-61.819253209335
 30
-0.0000000000000069
 10
-44.94978396802303
 20
-61.73452191211466
 30
0.0
  0
ELLIPSE
  5
EB
330
1F
100
AcDbEntity
  8
0
 62
     7
370
    -3
100
AcDbEllipse
 10
22.07594597667896
 20
-59.02248912366424
 30
0.0000000000000069
 11
-5.985333984021372
 21
-8.010978535717053
 31
-2.220446049250318E-15
210
1.996059081336209E-16
220
1.280415394091299E-16
230
-1.0
 40
0.6473350799417892
 41
0.000001548831552
 42
0.8840547227870397
  0
LINE
  5
EC
330
1F
100
AcDbEntity
  8
0
 62
     7
370
    -3
100
AcDbLine
 10
14.8129627862055
 20
-61.51041217329181
 30
0.0
 11
14.2708674089303
 21
-61.10539025621639
 31
0.0000000000000009
  0
ELLIPSE
  5
ED
330
1F
100
AcDbEntity
  8
0
 62
     7
370
    -3
100
AcDbEllipse
 10
-47.99316173694735
 20
-66.09838350467481
 30
0.0
 11
9.841763662648011
 21
-1.773808952787211
 31
7.719778461056729E-15
210
7.794039480352849E-16
220
-2.766307311819547E-17
230
-1.0
 40
0.8753889454329872
 41
6.261667613557242
 42
7.832463940352144
  0
ELLIPSE
  5
EE
330
1F
100
AcDbEntity
  8
0
 62
     7
370
    -3
100
AcDbEllipse
 10
-47.89453563813732
 20
-65.49252993018307
 30
0.0
 11
-9.870075870044859
 21
1.60673654329461
 31
-7.676151381197374E-16
210
1.025217350954523E-16
220
1.520362293497834E-16
230
-1.0
 40
0.8754741500941198
 41
3.134909036348389
 42
3.141631468147682
  0
LINE
  5
EF
330
1F
100
AcDbEntity
  8
0
 62
     7
370
    -3
100
AcDbLine
 10
-38.01527873669703
 20
-67.04147790479006
 30
-0.0000000000000035
 11
-38.12026689734122
 21
-67.6864132025767
 31
0.0
  0
ELLIPSE
  5
F0
330
1F
100
AcDbEntity
  8
0
 62
     7
370
    -3
100
AcDbEllipse
 10
-71.84019884046792
 20
-71.30717599591965
 30
-0.0000000000000069
 11
4.920711940705464
 21
-0.8869013454712247
 31
5.030698080332742E-16
210
-1.285582132853050E-16
220
-1.460456992391479E-16
230
1.0
 40
0.8754183014752265
 41
0.9076812629184524
 42
1.592319479005185
  0
ELLIPSE
  5
F1
330
1F
100
AcDbEntity
  8
0
 62
     7
370
    -3
100
AcDbEllipse
 10
-41.21148117008125
 20
-61.47098932492077
 30
0.0
 11
-1.18731254510743
 21
9.929264268828311
 31
5.551115123125786E-16
210
1.449849362465417E-16
220
7.324348776301803E-17
230
-1.0
 40
0.4385806695887504
 41
2.138539521526381
 42
3.072253417321421
  0
ELLIPSE
  5
F2
330
1F
100
AcDbEntity
  8
0
 62
     7
370
    -3
100
AcDbEllipse
 10
7.537797881708296
 20
-55.6416923079362
 30
0.0000000000000035
 11
1.187312545107436
 21
-9.929264268828307
 31
0.0
210
-6.889811130525658E-17
220
-8.238635781278562E-18
230
1.0
 40
0.43858066958875
 41
6.283089460587439
 42
7.286238439242998
  0
LINE
  5
F3
330
1F
100
AcDbEntity
  8
0
 62
     7
370
    -3
100
AcDbLine
 10
11.84784272643522
 20
-60.54192412026171
 30
0.0000000000000035
 11
-36.90143632535438
 21
-66.37122113724631
 31
-0.0000000000000047
  0
LINE
  5
F4
330
1F
100
AcDbEntity
  8
0
 62
     7
370
    -3
100
AcDbLine
 10
8.025061721982537
 20
-50.3573722565575
 30
0.0000000000000035
 11
11.92760100585686
 21
-49.31592169028144
 31
0.000000000000003
  0
ELLIPSE
  5
F5
330
1F
100
AcDbEntity
  8
0
 62
     7
370
    -3
100
AcDbEllipse
 10
11.07806785618653
 20
-52.63839963504883
 30
0.0000000000000035
 11
4.941027177582741
 21
-0.7656699226094453
 31
5.659693825630218E-16
210
1.288600915838238E-16
220
9.237901342316640E-17
230
-1.0
 40
0.4832541567787314
 41
3.129343333401077
 42
3.973780029490644
  0
ELLIPSE
  5
F6
330
1F
100
AcDbEntity
  8
0
 62
     7
370
    -3
100
AcDbEllipse
 10
1.187690279408681
 20
-51.16567037675095
 30
0.0
 11
4.941027177529492
 21
-0.7656699226011937
 31
5.499515830216288E-16
210
1.256943162706314E-16
220
9.286958731639417E-17
230
-1.0
 40
0.4832541567787313
 41
6.270935986990996
 42
7.318133538192177
  0
LINE
  5
F7
330
1F
100
AcDbEntity
  8
0
 62
     7
370
    -3
100
AcDbLine
 10
-28.94742092547137
 20
-57.69662121641687
 30
-0.0000000000000035
 11
3.392282110986838
 21
-53.60969089243269
 31
0.0000000000000056
  0
ELLIPSE
  5
F8
330
1F
100
AcDbEntity
  8
0
 62
     7
370
    -3
100
AcDbEllipse
 10
-31.15201275707324
 20
-55.25260070070886
 30
0.0000000000000035
 11
-4.941027177582671
 21
0.7656699226094345
 31
-5.505339348301229E-16
210
-1.258094129139689E-16
220
-9.285175174600982E-17
230
1.0
 40
0.4832541567787313
 41
1.059446871380614
 42
2.1066444225772
  0
ELLIPSE
  5
F9
330
1F
100
AcDbEntity
  8
0
 62
     7
370
    -3
100
AcDbEllipse
 10
-36.63320667067106
 20
-58.66791247380071
 30
-0.0000000000000035
 11
4.941027177582742
 21
-0.7656699226094456
 31
5.431482873990082E-16
210
1.243497055267201E-16
220
9.307795046989014E-17
230
-1.0
 40
0.4832541567787314
 41
4.724270255847438
 42
5.223738435798971
  0
LINE
  5
FA
330
1F
100
AcDbEntity
  8
0
 62
     7
370
    -3
100
AcDbLine
 10
-36.20451529016293
 20
-56.28940600528921
 30
-0.0000000000000069
 11
-41.1402624104944
 21
-55.49550379082846
 31
-0.0000000000000074
  0
LINE
  5
FB
330
1F
100
AcDbEntity
  8
0
 62
     7
370
    -3
100
AcDbLine
 10
-41.14026241049439
 20
-55.49550379082846
 30
-0.0000000000000035
 11
-42.212038110116
 21
-61.44193685220119
 31
-0.0000000000000018
  0
LINE
  5
FC
330
1F
100
AcDbEntity
  8
0
 62
     7
370
    -3
100
AcDbLine
 10
-42.21203811011602
 20
-61.44193685220119
 30
0.0
 11
-37.27565601388629
 21
-62.23594120090006
 31
-0.0000000000000042
  0
LINE
  5
FD
330
1F
100
AcDbEntity
  8
0
 62
     7
370
    -3
100
AcDbLine
 10
-37.27565262605349
 20
-62.23594173207126
 30
0.0
 11
-37.17066446540932
 21
-61.59100643428459
 31
-0.0000000000000012
  0
LINE
  5
FE
330
1F
100
AcDbEntity
  8
0
 62
     7
370
    -3
100
AcDbLine
 10
12.69245699772289
 20
-55.09145264975627
 30
0.0
 11
-36.05682205406665
 21
-60.92074966674087
 31
-0.0000000000000007
  0
LINE
  5
FF
330
1F
100
AcDbEntity
  8
0
 62
     7
370
    -3
100
AcDbLine
 10
15.6575770574932
 20
-56.05994070278636
 30
0.0000000000000035
 11
15.11548168021802
 21
-55.65491878571095
 31
0.000000000000008
  0
LINE
  5
100
330
1F
100
AcDbEntity
  8
0
 62
     7
370
    -3
100
AcDbLine
 10
19.5601163413676
 20
-55.01849013651029
 30
0.0000000000000069
 11
11.92760100585686
 21
-49.31592169028143
 31
0.0000000000000056
  0
ELLIPSE
  5
101
330
1F
100
AcDbEntity
  8
0
 62
     7
370
    -3
100
AcDbEllipse
 10
41.17094669049443
 20
-54.14550077252843
 30
0.0000000000000035
 11
-7.41154076637411
 21
1.148504883914168
 31
-4.163336342344337E-16
210
-7.185770892538943E-17
220
-1.012121989835805E-16
230
1.0
 40
0.4832541567787313
 41
2.309405277688926
 42
3.141525211522082
  0
LINE
  5
102
330
1F
100
AcDbEntity
  8
0
 62
     7
370
    -3
100
AcDbLine
 10
-78.83183649025062
 20
-65.74899741629056
 30
0.0
 11
-71.16987005373163
 21
-66.98140498758197
 31
-0.0000000000000022
  0
ELLIPSE
  5
103
330
1F
100
AcDbEntity
  8
0
 62
     7
370
    -3
100
AcDbEllipse
 10
-78.18878940870268
 20
-62.18123932372904
 30
-0.0000000000000139
 11
-7.411540766374107
 21
1.148504883914168
 31
-4.163336342344336E-16
210
-7.185770892538945E-17
220
-1.012121989835805E-16
230
1.0
 40
0.4832541567787313
 41
6.28311427886334
 42
7.84209900651095
  0
ELLIPSE
  5
104
330
1F
100
AcDbEntity
  8
0
 62
     7
370
    -3
100
AcDbEllipse
 10
-75.60802712142365
 20
-47.86263684558216
 30
-0.0000000000000035
 11
-7.411540766374111
 21
1.148504883914169
 31
-4.163336342344338E-16
210
-7.185770892538943E-17
220
-1.012121989835805E-16
230
1.0
 40
0.4832541567787314
 41
0.0000742795424211
 42
0.8961401098963175
  0
LINE
  5
105
330
1F
100
AcDbEntity
  8
0
 62
     7
370
    -3
100
AcDbLine
 10
-49.33381931041995
 20
-74.74992552135012
 30
-0.0000000000000069
 11
-58.51507569628118
 21
-73.27314407396965
 31
-0.0000000000000121
  0
LINE
  5
106
330
1F
100
AcDbEntity
  8
0
 62
     7
370
    -3
100
AcDbLine
 10
-37.27565601388628
 20
-62.23594120090006
 30
-0.0000000000000069
 11
-38.12027028517402
 21
-67.68641267140553
 31
-0.0000000000000091
  0
ELLIPSE
  5
107
330
1F
100
AcDbEntity
  8
0
 62
     7
370
    -3
100
AcDbEllipse
 10
-56.32980385152086
 20
-59.17113058678893
 30
-0.0000000000000069
 11
14.07323615041762
 21
-2.536537848047778
 31
1.066681465378139E-15
210
-9.310340677599017E-17
220
-9.603040805254895E-17
230
1.0
 40
0.8754183014752258
 41
3.268204229262827
 42
6.304708459389897
  0
LINE
  5
108
330
1F
100
AcDbEntity
  8
0
 62
     7
370
    -3
100
AcDbLine
 10
-70.57078462994443
 20
-58.21058300022246
 30
0.0
 11
-77.49117891677804
 21
-57.09745539961521
 31
-0.000000000000003
  0
LINE
  5
109
330
1F
100
AcDbEntity
  8
0
 62
     7
370
    -3
100
AcDbLine
 10
-77.49117891677801
 20
-57.09745539961524
 30
-0.0000000000000035
 11
-78.83183649025061
 21
-65.74899741629056
 31
-0.0000000000000054
  0
ELLIPSE
  5
10A
330
1F
100
AcDbEntity
  8
0
 62
     7
370
    -3
100
AcDbEllipse
 10
-56.32980385152086
 20
-59.17113058678891
 30
-0.0000000000000035
 11
16.04152092669982
 21
-2.891298386236193
 31
1.951043493431116E-15
210
-1.374909942907077E-16
220
-8.803005941125483E-17
230
1.0
 40
0.875418301475226
 41
4.049273916508245
 42
4.73391213259498
  0
LINE
  5
10B
330
1F
100
AcDbEntity
  8
0
 62
     7
370
    -3
100
AcDbLine
 10
-9.377073242983567
 20
-37.35551619915449
 30
-0.0000000000000035
 11
-9.58493936983125
 21
-38.69691952678286
 31
-0.0000000000000034
  0
LINE
  5
10C
330
1F
100
AcDbEntity
  8
0
 62
     7
370
    -3
100
AcDbLine
 10
-9.327700653534807
 20
-37.39240450639303
 30
0.0
 11
-9.526936870332188
 21
-38.6781172304865
 31
-0.0000000000000007
  0
LINE
  5
10D
330
1F
100
AcDbEntity
  8
0
 62
     7
370
    -3
100
AcDbLine
 10
-9.377073242983567
 20
-37.35551619915449
 30
-0.0000000000000035
 11
-9.327700653534807
 21
-37.39240450639302
 31
-0.0000000000000028
  0
ELLIPSE
  5
10E
330
1F
100
AcDbEntity
  8
0
 62
     7
370
    -3
100
AcDbEllipse
 10
-10.88871636708454
 20
-37.80898473290344
 30
0.0000000000000035
 11
1.976410871033097
 21
-0.3062679690437782
 31
2.293731687674887E-16
210
1.303351936157227E-16
220
9.215042911913157E-17
230
-1.0
 40
0.4832541567787313
 41
5.544576356285557
 42
7.304500349670071
  0
LINE
  5
10F
330
1F
100
AcDbEntity
  8
0
 62
     7
370
    -3
100
AcDbLine
 10
-30.69364462927691
 20
-41.57521743935617
 30
0.0
 11
-9.982764021218337
 21
-38.78344412233724
 31
-0.0000000000000012
  0
ELLIPSE
  5
110
330
1F
100
AcDbEntity
  8
0
 62
     7
370
    -3
100
AcDbEllipse
 10
-31.5995969751431
 20
-40.60075804992238
 30
0.0
 11
1.976410871033097
 21
-0.3062679690437781
 31
2.293731687674887E-16
210
1.303351936157227E-16
220
9.215042911913156E-17
230
-1.0
 40
0.4832541567787313
 41
1.021315042490485
 42
2.65030650180413
  0
LINE
  5
111
330
1F
100
AcDbEntity
  8
0
 62
     7
370
    -3
100
AcDbLine
 10
-73.62432246640319
 20
-35.64333673634533
 30
-0.0000000000000035
 11
-66.70392817956957
 21
-36.75646433695258
 31
-0.0000000000000023
  0
ELLIPSE
  5
112
330
1F
100
AcDbEntity
  8
0
 62
     7
370
    -3
100
AcDbEllipse
 10
-52.462947401146
 20
-37.717011923519
 30
-0.0000000000000035
 11
-14.07323615041762
 21
2.536537848047782
 31
-2.728720027711519E-16
210
3.847252983479883E-17
220
1.058769909956811E-16
230
-1.0
 40
0.8754183014752259
 41
3.144273434195096
 42
6.156573731506554
  0
LINE
  5
113
330
1F
100
AcDbEntity
  8
0
 62
     7
370
    -3
100
AcDbLine
 10
-38.34518165974118
 20
-39.98781818893129
 30
0.0000000000000035
 11
-33.41207448456058
 21
-40.78129577501253
 31
-0.0000000000000037
  0
LINE
  5
114
330
1F
100
AcDbEntity
  8
0
 62
     7
370
    -3
100
AcDbLine
 10
-44.30087357631145
 20
-61.40685058550221
 30
0.0
 11
-46.07821873063934
 21
-61.12096919419884
 31
-0.0000000000000032
  0
LINE
  5
115
330
1F
100
AcDbEntity
  8
0
 62
     7
370
    -3
100
AcDbLine
 10
6.132879067770964
 20
-51.90203500589592
 30
0.0000000000000035
 11
6.12813076995372
 21
-51.93267675878377
 31
0.0000000000000026
  0
ELLIPSE
  5
116
330
1F
100
AcDbEntity
  8
0
 62
     7
370
    -3
100
AcDbEllipse
 10
-5.467892828413114
 20
-45.10282827522968
 30
-0.0000000000000035
 11
4.941027177582739
 21
-0.7656699226094446
 31
3.840512937655801E-16
210
9.290560275014107E-17
220
9.795058178199819E-17
230
-1.0
 40
0.4832541567787311
 41
0.8321873759008668
 42
2.089157067549125
  0
ELLIPSE
  5
117
330
1F
100
AcDbEntity
  8
0
 62
     7
370
    -3
100
AcDbEllipse
 10
-11.00683570457293
 20
-48.49230812319357
 30
0.0
 11
-2.051129991451152
 21
-4.559919490316635
 31
-8.326672684688662E-16
210
4.300371424731545E-17
220
1.632618869726377E-16
230
-1.0
 40
0.4337626519275563
 41
4.146297982569515
 42
5.717094309364412
  0
ELLIPSE
  5
118
330
1F
100
AcDbEntity
  8
0
 62
     7
370
    -3
100
AcDbEllipse
 10
-6.138221615149405
 20
-49.42859928356734
 30
-0.0000000000000035
 11
-9.882054355165479
 21
1.53133984521889
 31
-1.146865843837442E-15
210
-1.303351936157226E-16
220
-9.215042911913157E-17
230
1.0
 40
0.4832541567787314
 41
1.052435586040668
 42
1.969202801169144
  0
ELLIPSE
  5
119
330
1F
100
AcDbEntity
  8
0
 62
     7
370
    -3
100
AcDbEllipse
 10
-6.138221615149405
 20
-49.42859928356734
 30
-0.0000000000000035
 11
-9.882054355165479
 21
1.53133984521889
 31
-1.146865843837442E-15
210
-1.303351936157226E-16
220
-9.215042911913157E-17
230
1.0
 40
0.4832541567787314
 41
2.232515923699104
 42
2.309405277688927
  0
LINE
  5
11A
330
1F
100
AcDbEntity
  8
0
 62
     7
370
    -3
100
AcDbLine
 10
-0.0322093467419338
 20
-53.99065404054958
 30
-0.0000000000000035
 11
5.954290545607991
 21
-52.3930676360612
 31
-0.0000000000000009
  0
LINE
  5
11B
330
1F
100
AcDbEntity
  8
0
 62
     7
370
    -3
100
AcDbLine
 10
-13.18026179375596
 20
-46.04441595575994
 30
-0.0000000000000035
 11
-27.01308138750193
 21
-47.73323719538144
 31
-0.0000000000000037
  0
ELLIPSE
  5
11C
330
1F
100
AcDbEntity
  8
0
 62
     7
370
    -3
100
AcDbEllipse
 10
-11.00683570457267
 20
-48.49230812319342
 30
-0.0000000000000035
 11
-4.941027177582267
 21
0.7656699226093719
 31
-5.023148912127072E-16
210
-1.162793487143490E-16
220
-9.432854660180250E-17
230
1.0
 40
0.4832541567787313
 41
4.194028239630462
 42
5.241225790827087
  0
ELLIPSE
  5
11D
330
1F
100
AcDbEntity
  8
0
 62
     7
370
    -3
100
AcDbEllipse
 10
-35.39577913958107
 20
-53.00059588424936
 30
0.0
 11
-9.882054355165481
 21
1.53133984521889
 31
-1.146865843837443E-15
210
-1.303351936157226E-16
220
-9.215042911913156E-17
230
1.0
 40
0.4832541567787314
 41
2.198305815484022
 42
3.146830688433879
  0
ELLIPSE
  5
11E
330
1F
100
AcDbEntity
  8
0
 62
     7
370
    -3
100
AcDbEllipse
 10
-24.83965529831814
 20
-50.18112936281498
 30
-0.0000000000000069
 11
-4.949035700350898
 21
0.7120713704765399
 31
-8.716985466783464E-16
210
1.883738497117938E-16
220
8.506220453340267E-17
230
-1.0
 40
0.875468098008008
 41
4.721878059037915
 42
6.28313269072552
  0
ELLIPSE
  5
11F
330
1F
100
AcDbEntity
  8
0
 62
     7
370
    -3
100
AcDbEllipse
 10
-34.72545035284478
 20
-48.67482487591171
 30
0.0
 11
4.941027177582741
 21
-0.7656699226094437
 31
1.033369155226293E-15
210
2.212374907648325E-16
220
7.806405551265609E-17
230
-1.0
 40
0.4832541567787311
 41
0.0000318531773946
 42
1.58267895425843
  0
LINE
  5
120
330
1F
100
AcDbEntity
  8
0
 62
     7
370
    -3
100
AcDbLine
 10
-35.15414840720929
 20
-51.05333027094844
 30
0.0
 11
-40.97836519938716
 21
-50.11651999763384
 31
0.0000000000000004
  0
ELLIPSE
  5
121
330
1F
100
AcDbEntity
  8
0
 62
     7
370
    -3
100
AcDbEllipse
 10
-24.83965529831863
 20
-50.18112936281491
 30
-0.0000000000000035
 11
-4.941027177582232
 21
0.7656699226093664
 31
-4.965858354301104E-16
210
-1.151470519014016E-16
220
-9.450400922970984E-17
230
1.0
 40
0.4832541567787313
 41
5.241225790827087
 42
6.282915661796615
  0
LINE
  5
122
330
1F
100
AcDbEntity
  8
0
 62
     7
370
    -3
100
AcDbLine
 10
-46.07821873063934
 20
-61.12096919419886
 30
-0.0000000000000035
 11
-45.21227922452912
 21
-56.31655786998195
 31
-0.0000000000000027
  0
ELLIPSE
  5
123
330
1F
100
AcDbEntity
  8
0
 62
     7
370
    -3
100
AcDbEllipse
 10
-53.53469253705844
 20
-43.66327541111725
 30
-0.0000000000000035
 11
-14.07323615041763
 21
2.536537848047716
 31
-9.674552825522658E-16
210
9.612113010147272E-17
220
1.518921078616323E-16
230
-1.0
 40
0.875418301475226
 41
3.120069501379502
 42
3.477267371940612
  0
LINE
  5
124
330
1F
100
AcDbEntity
  8
0
 62
     7
370
    -3
100
AcDbLine
 10
-34.48381962047301
 20
-46.72755926261078
 30
0.0
 11
-35.1541484072093
 21
-51.05333027094844
 31
-0.0000000000000015
  0
LINE
  5
125
330
1F
100
AcDbEntity
  8
0
 62
     7
370
    -3
100
AcDbLine
 10
-34.48381962047301
 20
-46.7275592626108
 30
-0.0000000000000035
 11
-39.41692679565361
 21
-45.93408167652955
 31
-0.0000000000000036
  0
ELLIPSE
  5
126
330
1F
100
AcDbEntity
  8
0
 62
     7
370
    -3
100
AcDbEllipse
 10
-34.05512156610849
 20
-44.34905386757404
 30
-0.0000000000000035
 11
4.941027177582741
 21
-0.7656699226094451
 31
5.962267236499654E-16
210
1.348401853691030E-16
220
9.145232798283009E-17
230
-1.0
 40
0.4832541567787314
 41
6.277947272335457
 42
7.865864261438016
  0
ELLIPSE
  5
127
330
1F
100
AcDbEntity
  8
0
 62
     7
370
    -3
100
AcDbEllipse
 10
-55.25802815189925
 20
-53.22469752541617
 30
0.0000000000000035
 11
14.07323615041763
 21
-2.536537848047714
 31
1.761264745159253E-15
210
-1.507520070426641E-16
220
-1.420455249185004E-16
230
1.0
 40
0.8754183014752259
 41
5.94751058882877
 42
6.280344801409144
  0
LINE
  5
128
330
1F
100
AcDbEntity
  8
0
 62
     7
370
    -3
100
AcDbLine
 10
-38.34518165974117
 20
-39.98781818893128
 30
0.0000000000000035
 11
-39.41692679565362
 21
-45.93408167652952
 31
0.0000000000000025
  0
LINE
  5
129
330
1F
100
AcDbEntity
  8
0
 62
     7
370
    -3
100
AcDbLine
 10
-70.57078462994443
 20
-58.21058300022246
 30
0.0
 11
-66.70392817956957
 21
-36.75646433695257
 31
0.0000000000000012
  0
LINE
  5
12A
330
1F
100
AcDbEntity
  8
0
 62
     7
370
    -3
100
AcDbLine
 10
-75.86586119302548
 20
-48.07985680023558
 30
0.0
 11
-75.24964019015567
 21
-44.66093533572499
 31
-0.0000000000000021
  0
LINE
  5
12B
330
1F
100
AcDbEntity
  8
0
 62
     7
370
    -3
100
AcDbLine
 10
-77.8185009699322
 20
-42.00460621018395
 30
-0.0000000000000104
 11
-79.02197588295772
 21
-49.77088000154865
 31
-0.0000000000000122
  0
ELLIPSE
  5
12C
330
1F
100
AcDbEntity
  8
0
 62
     7
370
    -3
100
AcDbEllipse
 10
-74.26736954795108
 20
-39.21109482890683
 30
-0.0000000000000035
 11
-7.411540766374111
 21
1.148504883914169
 31
-4.163336342344338E-16
210
-7.185770892538943E-17
220
-1.012121989835805E-16
230
1.0
 40
0.4832541567787314
 41
4.700506352921161
 42
7.430582160443469
  0
ELLIPSE
  5
12D
330
1F
100
AcDbEntity
  8
0
 62
     7
370
    -3
100
AcDbEllipse
 10
-76.84813183523009
 20
-53.5296973070537
 30
-0.0000000000000035
 11
7.411540766374107
 21
-1.148504883914168
 31
4.163336342344336E-16
210
7.185770892538945E-17
220
1.012121989835805E-16
230
-1.0
 40
0.4832541567787313
 41
1.582678954258429
 42
4.312754761780717
  0
LINE
  5
12E
330
1F
100
AcDbEntity
  8
0
 62
     7
370
    -3
100
AcDbLine
 10
-26.34275260076565
 20
-43.4074661870438
 30
-0.0000000000000035
 11
-27.01308138750193
 21
-47.73323719538145
 31
-0.0000000000000049
  0
ELLIPSE
  5
12F
330
1F
100
AcDbEntity
  8
0
 62
     7
370
    -3
100
AcDbEllipse
 10
-24.16932651158235
 20
-45.85535835447724
 30
0.0
 11
-4.941027177582233
 21
0.7656699226093665
 31
-5.672813754662301E-16
210
-1.291193952874973E-16
220
-9.233883128297808E-17
230
1.0
 40
0.4832541567787314
 41
5.241225790827087
 42
6.288423342023714
  0
LINE
  5
130
330
1F
100
AcDbEntity
  8
0
 62
     7
370
    -3
100
AcDbLine
 10
-12.50993300701969
 20
-41.71864494742228
 30
0.0
 11
-13.18026179375598
 21
-46.04441595575996
 31
-0.0000000000000002
  0
LINE
  5
131
330
1F
100
AcDbEntity
  8
0
 62
     7
370
    -3
100
AcDbLine
 10
-12.50993300701969
 20
-41.71864494742228
 30
0.0
 11
-26.34275260076563
 21
-43.4074661870438
 31
-0.0000000000000021
  0
LINE
  5
132
330
1F
100
AcDbEntity
  8
0
 62
     7
370
    -3
100
AcDbLine
 10
-8.23736426649303
 20
-46.79756819921164
 30
-0.0000000000000035
 11
-7.567035479756737
 21
-42.47179719087396
 31
0.0000000000000004
  0
ELLIPSE
  5
133
330
1F
100
AcDbEntity
  8
0
 62
     7
370
    -3
100
AcDbEllipse
 10
-10.33650691783639
 20
-44.16653711485576
 30
0.0
 11
-4.941027177582266
 21
0.7656699226093717
 31
-5.633865132549335E-16
210
-1.283496104859382E-16
220
-9.245811843689411E-17
230
1.0
 40
0.4832541567787313
 41
4.194028239630461
 42
5.241225790827087
  0
LINE
  5
134
330
1F
100
AcDbEntity
  8
0
 62
     7
370
    -3
100
AcDbLine
 10
-2.414886694210148
 20
-47.38385565372025
 30
0.0
 11
-1.744557907473854
 21
-43.05808464538259
 31
-0.0000000000000029
  0
ELLIPSE
  5
135
330
1F
100
AcDbEntity
  8
0
 62
     7
370
    -3
100
AcDbEllipse
 10
-4.797564041676823
 20
-40.77705726689202
 30
0.0
 11
-4.94102717758274
 21
0.765669922609445
 31
-5.697458202175454E-16
210
-1.296064708272417E-16
220
-9.226335323409927E-17
230
1.0
 40
0.4832541567787314
 41
1.052435586040668
 42
2.309406276664661
  0
LINE
  5
136
330
1F
100
AcDbEntity
  8
0
 62
     7
370
    -3
100
AcDbLine
 10
-1.744554008931815
 20
-43.05808360499874
 30
0.0
 11
2.157981376400462
 21
-42.01663407910652
 31
0.0000000000000028
  0
LINE
  5
137
330
1F
100
AcDbEntity
  8
0
 62
     7
370
    -3
100
AcDbLine
 10
2.157981376400465
 20
-42.0166340791065
 30
0.0000000000000069
 11
-5.47453395910925
 21
-36.31406563287842
 31
0.0000000000000019
  0
LINE
  5
138
330
1F
100
AcDbEntity
  8
0
 62
     7
370
    -3
100
AcDbLine
 10
-5.474533959109239
 20
-36.31406563287842
 30
0.0
 11
-9.377073242983567
 21
-37.35551619915449
 31
0.0000000000000008
  0
ELLIPSE
  5
139
330
1F
100
AcDbEntity
  8
0
 62
     7
370
    -3
100
AcDbEllipse
 10
26.63597236610364
 20
-33.63261638769632
 30
0.0000000000000017
 11
-7.41154076637411
 21
1.148504883914168
 31
-4.163336342344337E-16
210
-7.185770892538943E-17
220
-1.012121989835805E-16
230
1.0
 40
0.4832541567787313
 41
2.720922123756415
 42
5.450997931278714
  0
LINE
  5
13A
330
1F
100
AcDbEntity
  8
0
 62
     7
370
    -3
100
AcDbLine
 10
35.51628841038871
 20
-40.26746844375069
 30
0.0000000000000052
 11
33.63128821968193
 21
-38.85910669979877
 31
-0.0000000000000011
  0
ELLIPSE
  5
13B
330
1F
100
AcDbEntity
  8
0
 62
     7
370
    -3
100
AcDbEllipse
 10
42.511604263967
 20
-45.49395875585311
 30
0.0000000000000035
 11
-7.41154076637411
 21
1.148504883914168
 31
-4.163336342344337E-16
210
-7.185770892538943E-17
220
-1.012121989835805E-16
230
1.0
 40
0.4832541567787313
 41
2.309405277688926
 42
5.03948108521123
  0
LINE
  5
13C
330
1F
100
AcDbEntity
  8
0
 62
     7
370
    -3
100
AcDbLine
 10
12.69245699772289
 20
-55.09145264975627
 30
0.0
 11
11.84784272643518
 21
-60.54192412026172
 31
0.0000000000000049
  0
LINE
  5
13D
330
1F
100
AcDbEntity
  8
0
 62
     7
370
    -3
100
AcDbLine
 10
-37.17066446540932
 20
-61.59100643428459
 30
-0.0000000000000035
 11
-38.01527873669703
 21
-67.04147790479003
 31
0.0000000000000017
  0
ELLIPSE
  5
13E
330
1F
100
AcDbEntity
  8
0
 62
     7
370
    -3
100
AcDbEllipse
 10
13.31924372828104
 20
-39.03808545955696
 30
0.0000000000000035
 11
8.559027597150543
 21
11.45569930607536
 31
2.381428387820961E-15
210
-1.886155621882887E-16
220
-6.695903631064529E-17
230
1.0
 40
0.647335079941789
 41
2.257537930802752
 42
2.614735801363861
  0
LINE
  5
13F
330
1F
100
AcDbEntity
  8
0
 62
     7
370
    -3
100
AcDbLine
 10
41.61996897763903
 20
-50.37555598455483
 30
-0.0000000000000035
 11
16.58531867716216
 21
-31.67113148092294
 31
-0.0000000000000043
  0
ELLIPSE
  5
140
330
1F
100
AcDbEntity
  8
0
 62
     7
370
    -3
100
AcDbEllipse
 10
5.686728392771339
 20
-33.33551701332888
 30
0.0000000000000017
 11
-8.559027597150543
 21
-11.45569930607536
 31
-2.381428387820961E-15
210
1.886155621882887E-16
220
6.695903631064529E-17
230
-1.0
 40
0.647335079941789
 41
4.130735799839572
 42
5.742624834730935
  0
LINE
  5
141
330
1F
100
AcDbEntity
  8
0
 62
     7
370
    -3
100
AcDbLine
 10
16.5853186771622
 20
-31.67113148092293
 30
0.0000000000000035
 11
22.0564631647969
 21
-30.21107531995879
 31
0.0000000000000047
  0
LINE
  5
142
330
1F
100
AcDbEntity
  8
0
 62
     7
370
    -3
100
AcDbLine
 10
-38.12943208088949
 20
-67.7441044189919
 30
0.0
 11
-38.02445982905278
 21
-67.09926684795285
 31
-0.0000000000000029
  0
LINE
  5
143
330
1F
100
AcDbEntity
  8
0
 62
     7
370
    -3
100
AcDbLine
 10
-39.74600996017244
 20
-71.3669921895496
 30
0.0000000000000069
 11
8.725110357365416
 21
-65.57095658506915
 31
0.0000000000000096
  0
SPLINE
  5
144
330
1F
100
AcDbEntity
  8
0
 62
     7
370
    -3
100
AcDbSpline
210
0.0
220
0.0
230
1.0
 70
     8
 71
     3
 72
    22
 73
    18
 74
     0
 42
0.000000001
 43
0.00000001
 40
0.0012712236828561
 40
0.0012712236828561
 40
0.0012712236828561
 40
0.0012712236828561
 40
0.0013202393394543
 40
0.0013202393394543
 40
0.0027435191426834
 40
0.0027435191426834
 40
0.0042922550200877
 40
0.0042922550200877
 40
0.0059208931503284
 40
0.0059208931503284
 40
0.0075007363098722
 40
0.0075007363098722
 40
0.0089392119710557
 40
0.0089392119710557
 40
0.0096831469323879
 40
0.0096831469323879
 40
0.0104504275524025
 40
0.0104504275524025
 40
0.0104504275524025
 40
0.0104504275524025
 10
8.725137618774431
 20
-65.57095332527621
 30
-0.0000000000000035
 10
8.736326079531093
 20
-65.56961616842568
 30
0.0
 10
8.747607065289131
 20
-65.56829047913263
 30
-0.0000000000000035
 10
9.089216882363225
 20
-65.52889953205701
 30
0.0000000000000035
 10
9.492271373206906
 20
-65.50341306225354
 30
0.0
 10
10.44339863469851
 20
-65.50444319827673
 30
0.0
 10
10.99030429445491
 20
-65.53581941240384
 30
0.0
 10
12.14807706833829
 20
-65.67399286865944
 30
0.0
 10
12.74672750489651
 20
-65.78301650409027
 30
0.0
 10
13.85588995189426
 20
-66.05565799725358
 30
0.0
 10
14.35117273497255
 20
-66.21326831447458
 30
-0.0000000000000035
 10
15.14565139685643
 20
-66.5173070135247
 30
0.0
 10
15.45167245240239
 20
-66.6608064786143
 30
-0.0000000000000035
 10
15.78933995372023
 20
-66.84102693894589
 30
0.0
 10
15.88188696380826
 20
-66.89558243702652
 30
0.0
 10
16.02274260908403
 20
-66.98424969861608
 30
0.0
 10
16.06852204410388
 20
-67.01696456399644
 30
0.0000000000000035
 10
16.0905848508058
 20
-67.03344738129857
 30
0.0000000000000104
  0
LINE
  5
145
330
1F
100
AcDbEntity
  8
0
 62
     7
370
    -3
100
AcDbLine
 10
16.0906121058265
 20
-67.03346774393448
 30
0.0000000000000035
 11
16.63270842927006
 21
-67.43849036793148
 31
0.0000000000000022
  0
LINE
  5
146
330
1F
100
AcDbEntity
  8
0
 62
     7
370
    -3
100
AcDbLine
 10
6.137040899793068
 20
-51.87272828505904
 30
0.0000000000000069
 11
6.127515697115942
 21
-51.93419639802772
 31
0.0000000000000016
  0
SPLINE
  5
147
330
1F
100
AcDbEntity
  8
0
 62
     7
370
    -3
100
AcDbSpline
210
0.0
220
0.0
230
1.0
 70
     8
 71
     3
 72
     8
 73
     4
 74
     0
 42
0.000000001
 43
0.00000001
 40
0.0
 40
0.0
 40
0.0
 40
0.0
 40
0.0000544895337695
 40
0.0000544895337695
 40
0.0000544895337695
 40
0.0000544895337695
 10
-29.78442317526204
 20
-49.44049479852115
 30
-0.0000000000000035
 10
-29.78590546899729
 20
-49.45006034813303
 30
-0.0000000000000035
 10
-29.78732975147207
 20
-49.45959597154472
 30
-0.0000000000000035
 10
-29.78869976624821
 20
-49.46911893372862
 30
-0.0000000000000069
  0
ARC
  5
148
330
1F
100
AcDbEntity
  8
0
 62
     7
370
    -3
100
AcDbCircle
 10
-24.83965529831842
 20
-50.18112936281516
 30
-0.0000000000000035
 40
4.999999999999999
100
AcDbArc
 50
171.4802358804018
 51
171.8142014927494
  0
LINE
  5
149
330
1F
100
AcDbEntity
  8
0
 62
     7
370
    -3
100
AcDbLine
 10
-29.78442331366516
 20
-49.4404956916652
 30
-0.0000000000000035
 11
-29.11409416733649
 21
-45.11472236280314
 31
-0.0000000000000035
  0
LINE
  5
14A
330
1F
100
AcDbEntity
  8
0
 62
     7
370
    -3
100
AcDbLine
 10
-81.67891050067395
 20
-38.06259114753998
 30
0.0
 11
-83.01956779446357
 21
-46.71413135936298
 31
-0.0000000000000146
  0
LINE
  5
14B
330
1F
100
AcDbEntity
  8
0
 62
     7
370
    -3
100
AcDbLine
 10
-84.25967278795298
 20
-52.38119362568685
 30
-0.0000000000000104
 11
-85.6003300817426
 21
-61.03273383750985
 31
-0.0000000000000124
  0
LINE
  5
14C
330
1F
100
AcDbEntity
  8
0
 62
     7
370
    -3
100
AcDbLine
 10
33.43923346321296
 20
-38.70647642617281
 30
0.0000000000000069
 11
34.04751294612898
 21
-34.7811224741578
 31
0.0000000000000078
  0
LINE
  5
14D
330
1F
100
AcDbEntity
  8
0
 62
     7
370
    -3
100
AcDbLine
 10
48.58248755020273
 20
-55.2940050541376
 30
0.0000000000000139
 11
49.92314484399233
 21
-46.64246484231459
 31
0.0000000000000046
  0
ELLIPSE
  5
14F
330
1F
100
AcDbEntity
  8
Hidden
  6
HIDDEN
370
    -3
100
AcDbEllipse
 10
-47.90661204362059
 20
-7.344102025114298
 30
-0.0000000000000009
 11
-14.07323615041764
 21
2.536537848047717
 31
-1.761264745159255E-15
210
1.507520070426641E-16
220
1.420455249185004E-16
230
-1.0
 40
0.8754183014752259
 41
2.345650752279243
 42
3.120069501379501
  0
LINE
  5
151
330
1F
100
AcDbEntity
  8
Hidden
  6
HIDDEN
370
    -3
100
AcDbLine
 10
-37.76882309025628
 20
-7.498711774845259
 30
0.0
 11
-36.47418552978077
 21
-0.3157950555873565
 31
-0.0000000000000028
  0
SPLINE
  5
152
330
1F
100
AcDbEntity
  8
Hidden
  6
HIDDEN
370
    -3
100
AcDbSpline
210
0.0
220
0.0
230
1.0
 70
     8
 71
     3
 72
    12
 73
     8
 74
     0
 42
0.000000001
 43
0.00000001
 40
0.0118266540507871
 40
0.0118266540507871
 40
0.0118266540507871
 40
0.0118266540507871
 40
0.0119868594113988
 40
0.0119868594113988
 40
0.0139212571007526
 40
0.0139212571007526
 40
0.0158556547901063
 40
0.0158556547901063
 40
0.0158556547901063
 40
0.0158556547901063
 10
-37.0330578396609
 20
-10.64624248172515
 30
-0.0000000000000052
 10
-37.05043764434416
 20
-10.59699062507023
 30
-0.0000000000000069
 10
-37.06764276338588
 20
-10.54811602305011
 30
-0.0000000000000052
 10
-37.29010474254706
 20
-9.91477493116864
 30
-0.0000000000000043
 10
-37.49791041174045
 20
-9.309050228119379
 30
-0.0000000000000026
 10
-37.76810360893121
 20
-8.254316896637585
 30
-0.0000000000000043
 10
-37.82410792530925
 20
-7.805443464197436
 30
-0.0000000000000035
 10
-37.76882309025627
 20
-7.49871177484525
 30
-0.0000000000000026
  0
SPLINE
  5
153
330
1F
100
AcDbEntity
  8
Hidden
  6
HIDDEN
370
    -3
100
AcDbSpline
210
0.0
220
0.0
230
1.0
 70
     8
 71
     3
 72
    10
 73
     6
 74
     0
 42
0.000000001
 43
0.00000001
 40
0.0076398953959574
 40
0.0076398953959574
 40
0.0076398953959574
 40
0.0076398953959574
 40
0.0098133774036781
 40
0.0098133774036781
 40
0.0118266540507871
 40
0.0118266540507871
 40
0.0118266540507871
 40
0.0118266540507871
 10
-35.73296274731749
 20
-14.70722670925447
 30
-0.0000000000000035
 10
-35.89205508375479
 20
-14.07976451494242
 30
-0.0000000000000035
 10
-36.1063900373825
 20
-13.35515195394778
 30
-0.0000000000000035
 10
-36.57023069763402
 20
-11.94772410050809
 30
-0.0000000000000035
 10
-36.81476483662956
 20
-11.26547961299534
 30
-0.0000000000000026
 10
-37.0330578396609
 20
-10.64624248172515
 30
-0.0000000000000052
  0
ELLIPSE
  5
154
330
1F
100
AcDbEntity
  8
Hidden
  6
HIDDEN
370
    -3
100
AcDbEllipse
 10
-49.62994765846135
 20
-16.90552413941322
 30
-0.0000000000000035
 11
-14.07323615041764
 21
2.536537848047717
 31
-1.761264745159255E-15
210
1.507520070426641E-16
220
1.420455249185004E-16
230
-1.0
 40
0.8754183014752259
 41
2.762871630818394
 42
3.120069501379501
  0
LINE
  5
155
330
1F
100
AcDbEntity
  8
Hidden
  6
HIDDEN
370
    -3
100
AcDbLine
 10
-35.51218191705649
 20
-19.1763304048255
 30
-0.0000000000000017
 11
-35.94714963980932
 21
-21.58962121569249
 31
-0.0000000000000005
  0
LINE
  5
156
330
1F
100
AcDbEntity
  8
Hidden
  6
HIDDEN
370
    -3
100
AcDbLine
 10
-35.94714963980932
 20
-21.58962121569249
 30
-0.0000000000000017
 11
-36.58395761667811
 21
-25.12276346619822
 31
-0.0000000000000043
  0
LINE
  5
157
330
1F
100
AcDbEntity
  8
Hidden
  6
HIDDEN
370
    -3
100
AcDbLine
 10
-60.67365041408993
 20
2.158171654052989
 30
-0.0000000000000082
 11
-64.54050686446477
 21
-19.29594700921692
 31
-0.0000000000000034
  0
ELLIPSE
  5
158
330
1F
100
AcDbEntity
  8
Hidden
  6
HIDDEN
370
    -3
100
AcDbEllipse
 10
-46.83486690770813
 20
-1.397838537516038
 30
-0.0000000000000026
 11
-14.07323615041764
 21
2.536537848047717
 31
-1.761264745159255E-15
210
1.507520070426641E-16
220
1.420455249185004E-16
230
-1.0
 40
0.8754183014752259
 41
0.0835652712524459
 42
3.120069501379501
  0
LINE
  5
159
330
1F
100
AcDbEntity
  8
Hidden
  6
HIDDEN
370
    -3
100
AcDbLine
 10
-32.71710116630327
 20
-3.668644802928317
 30
-0.0000000000000039
 11
-33.34477597911266
 21
-7.151114371886059
 31
-0.0000000000000013
  0
LINE
  5
15A
330
1F
100
AcDbEntity
  8
Hidden
  6
HIDDEN
370
    -3
100
AcDbLine
 10
-33.34477597911267
 20
-7.151114371886061
 30
-0.0000000000000026
 11
-33.37552051659008
 21
-7.321691419095536
 31
-0.0000000000000039
  0
LINE
  5
15B
330
1F
100
AcDbEntity
  8
Hidden
  6
HIDDEN
370
    -3
100
AcDbLine
 10
-33.37552051659007
 20
-7.321691419095535
 30
-0.0000000000000026
 11
-33.7888463022157
 21
-9.614908290526577
 31
-0.0000000000000026
  0
ELLIPSE
  5
15C
330
1F
100
AcDbEntity
  8
Hidden
  6
HIDDEN
370
    -3
100
AcDbEllipse
 10
-29.47740128176631
 20
-13.26595728937807
 30
-0.0000000000000026
 11
-0.7940311698464516
 21
-4.936548845231659
 31
-8.326672684696292E-16
210
1.437671468690508E-16
220
1.455493899041918E-16
230
-1.0
 40
0.0104027591680219
 41
1.066398544393763
 42
2.637194871188647
  0
LINE
  5
15D
330
1F
100
AcDbEntity
  8
Hidden
  6
HIDDEN
370
    -3
100
AcDbLine
 10
-37.76882309025627
 20
-7.498711774845252
 30
-0.0000000000000043
 11
-28.8070724950304
 21
-8.940186281042584
 31
-0.000000000000001
  0
ELLIPSE
  5
15E
330
1F
100
AcDbEntity
  8
Hidden
  6
HIDDEN
370
    -3
100
AcDbEllipse
 10
-24.85360347689913
 20
-14.60765630636817
 30
-0.0000000000000026
 11
0.6268889732971817
 21
-4.960545354611568
 31
-5.551115123125782E-16
210
-1.237630602439150E-16
220
-1.275458976486964E-16
230
1.0
 40
0.4469942694965938
 41
1.000087877964166
 42
2.570884204759062
  0
ELLIPSE
  5
15F
330
1F
100
AcDbEntity
  8
Hidden
  6
HIDDEN
370
    -3
100
AcDbEllipse
 10
7.486099559559102
 20
-10.52072598238398
 30
0.0
 11
-0.626888973297167
 21
4.960545354611574
 31
5.551115123125788E-16
210
1.237630602439154E-16
220
1.275458976486960E-16
230
-1.0
 40
0.4469942694965934
 41
0.5707084488307289
 42
2.141504775625627
  0
LINE
  5
160
330
1F
100
AcDbEntity
  8
Hidden
  6
HIDDEN
370
    -3
100
AcDbLine
 10
9.690691391161042
 20
-12.96474649809205
 30
0.0000000000000017
 11
-22.64901164529721
 21
-17.05167682207624
 31
-0.0000000000000023
  0
SPLINE
  5
161
330
1F
100
AcDbEntity
  8
Hidden
  6
HIDDEN
370
    -3
100
AcDbSpline
210
0.0
220
0.0
230
1.0
 70
     8
 71
     3
 72
    12
 73
     8
 74
     0
 42
0.000000001
 43
0.00000001
 40
0.0
 40
0.0
 40
0.0
 40
0.0
 40
0.0019343976893538
 40
0.0019343976893538
 40
0.0038687953787075
 40
0.0038687953787075
 40
0.0040290007393193
 40
0.0040290007393193
 40
0.0040290007393193
 40
0.0040290007393193
 10
19.02621664320081
 20
-1.214779122084789
 30
0.0000000000000005
 10
19.41993184397334
 20
-1.508940061438587
 30
-0.0000000000000002
 10
19.70293340341933
 20
-1.951458203532972
 30
0.0000000000000002
 10
20.01583333872434
 20
-3.00499586533717
 30
-0.0000000000000011
 10
20.05222253838041
 20
-3.615519751932595
 30
0.0000000000000002
 10
20.01868508875587
 20
-4.256028114553979
 30
0.0000000000000004
 10
20.01563016464252
 20
-4.305469941333869
 30
-0.0000000000000011
 10
20.01212747583604
 20
-4.355306449623662
 30
0.0000000000000002
  0
SPLINE
  5
162
330
1F
100
AcDbEntity
  8
Hidden
  6
HIDDEN
370
    -3
100
AcDbSpline
210
0.0
220
0.0
230
1.0
 70
     8
 71
     3
 72
    10
 73
     6
 74
     0
 42
0.000000001
 43
0.00000001
 40
0.0040290007393193
 40
0.0040290007393193
 40
0.0040290007393193
 40
0.0040290007393193
 40
0.0060422773864282
 40
0.0060422773864282
 40
0.008215759394149
 40
0.008215759394149
 40
0.008215759394149
 40
0.008215759394149
 10
20.01212747583604
 20
-4.355306449623662
 30
0.0000000000000002
 10
19.96766555210656
 20
-4.981899986754894
 30
0.0000000000000003
 10
19.84735253192482
 20
-5.67435917818678
 30
-0.0000000000000015
 10
19.47778946176528
 20
-7.105120014046978
 30
-0.000000000000002
 10
19.21922314694617
 20
-7.842972492959736
 30
-0.0000000000000009
 10
18.93050619577837
 20
-8.482972099637665
 30
-0.0000000000000004
  0
ELLIPSE
  5
163
330
1F
100
AcDbEntity
  8
Hidden
  6
HIDDEN
370
    -3
100
AcDbEllipse
 10
11.27046486795223
 20
-7.431400483725188
 30
0.0000000000000017
 11
1.289207085789746
 21
-4.830936253972881
 31
-5.551115123125784E-16
210
-1.322763519866393E-16
220
-1.502075548977521E-16
230
1.0
 40
0.5894257495502163
 41
0.9295206126843414
 42
2.500316939479237
  0
LINE
  5
164
330
1F
100
AcDbEntity
  8
Hidden
  6
HIDDEN
370
    -3
100
AcDbLine
 10
11.94079365468853
 20
-3.105629475387526
 30
0.0000000000000008
 11
19.02621664320082
 21
-1.214779122084789
 31
0.0000000000000032
  0
ELLIPSE
  5
165
330
1F
100
AcDbEntity
  8
Hidden
  6
HIDDEN
370
    -3
100
AcDbEllipse
 10
7.606857506904826
 20
-4.694167629533647
 30
0.0000000000000004
 11
1.289207085789742
 21
-4.830936253972884
 31
-2.775557561562893E-16
210
-1.465894258881762E-16
220
-9.657338830118103E-17
230
1.0
 40
0.5894257495502174
 41
2.500316939479239
 42
4.071113266274139
  0
SPLINE
  5
166
330
1F
100
AcDbEntity
  8
Hidden
  6
HIDDEN
370
    -3
100
AcDbSpline
210
0.0
220
0.0
230
1.0
 70
     8
 71
     3
 72
    10
 73
     6
 74
     0
 42
0.000000001
 43
0.00000001
 40
0.0118266540507871
 40
0.0118266540507871
 40
0.0118266540507871
 40
0.0118266540507871
 40
0.0119868594113988
 40
0.0119868594113988
 40
0.0126095492862356
 40
0.0126095492862356
 40
0.0126095492862356
 40
0.0126095492862356
 10
12.03091743378818
 20
1.607786259375326
 30
-0.0000000000000024
 10
12.07567513274784
 20
1.626799440255102
 30
0.0
 10
12.12037409628689
 20
1.645127279736783
 30
-0.000000000000002
 10
12.33845216293014
 20
1.730959122949501
 30
-0.0000000000000017
 10
12.51893304947697
 20
1.790729859939413
 30
-0.0000000000000017
 10
12.70265688002283
 20
1.840691955705823
 30
-0.0000000000000024
  0
SPLINE
  5
167
330
1F
100
AcDbEntity
  8
Hidden
  6
HIDDEN
370
    -3
100
AcDbSpline
210
0.0
220
0.0
230
1.0
 70
     8
 71
     3
 72
    10
 73
     6
 74
     0
 42
0.000000001
 43
0.00000001
 40
0.0126095492862356
 40
0.0126095492862356
 40
0.0126095492862356
 40
0.0126095492862356
 40
0.0139212571007526
 40
0.0139212571007526
 40
0.0158556547901064
 40
0.0158556547901064
 40
0.0158556547901064
 40
0.0158556547901064
 10
12.70265688002283
 20
1.840691955705823
 30
-0.0000000000000024
 10
13.0903092963484
 20
1.943596174475076
 30
-0.0000000000000013
 10
13.49305437853832
 20
2.000384007265197
 30
-0.0000000000000013
 10
14.44474634562825
 20
1.977151210537973
 30
-0.0000000000000015
 10
14.96889408138086
 20
1.816614671460551
 30
-0.0000000000000017
 10
15.36260928215339
 20
1.522453732106752
 30
-0.0000000000000011
  0
SPLINE
  5
168
330
1F
100
AcDbEntity
  8
Hidden
  6
HIDDEN
370
    -3
100
AcDbSpline
210
0.0
220
0.0
230
1.0
 70
     8
 71
     3
 72
    10
 73
     6
 74
     0
 42
0.000000001
 43
0.00000001
 40
0.0076398953959574
 40
0.0076398953959574
 40
0.0076398953959574
 40
0.0076398953959574
 40
0.0098133774036781
 40
0.0098133774036781
 40
0.0118266540507871
 40
0.0118266540507871
 40
0.0118266540507871
 40
0.0118266540507871
 10
9.160886566321981
 20
-1.183684488462739
 30
-0.0000000000000016
 10
9.449603517489777
 20
-0.5436848817848136
 30
-0.0000000000000011
 10
9.884876047864198
 20
0.0621430619933822
 30
-0.0000000000000011
 10
10.90174973480306
 20
1.009271315946981
 30
-0.0000000000000009
 10
11.46882526978866
 20
1.367935721795531
 30
0.0000000000000004
 10
12.03091743378818
 20
1.607786259375326
 30
-0.0000000000000024
  0
LINE
  5
169
330
1F
100
AcDbEntity
  8
Hidden
  6
HIDDEN
370
    -3
100
AcDbLine
 10
15.36260928215341
 20
1.522453732106752
 30
0.0000000000000015
 11
8.277186293641131
 21
-0.3683966211959842
 31
0.0000000000000009
  0
ELLIPSE
  5
16A
330
1F
100
AcDbEntity
  8
Hidden
  6
HIDDEN
370
    -3
100
AcDbEllipse
 10
43.56410526903593
 20
1.096979857482864
 30
0.0000000000000056
 11
4.94102717758274
 21
-0.7656699226094456
 31
2.775557561562891E-16
210
7.185770892538945E-17
220
1.012121989835805E-16
230
-1.0
 40
0.4832541567787314
 41
2.402983702695761
 42
3.562263183423176
  0
LINE
  5
16B
330
1F
100
AcDbEntity
  8
Hidden
  6
HIDDEN
370
    -3
100
AcDbLine
 10
41.00222355863419
 20
8.7070713078821
 30
0.0000000000000078
 11
39.66156598516162
 21
0.0555292912067917
 31
0.0000000000000049
  0
ELLIPSE
  5
16C
330
1F
100
AcDbEntity
  8
Hidden
  6
HIDDEN
370
    -3
100
AcDbEllipse
 10
45.44910545974269
 20
-0.3113818864690695
 30
0.0000000000000052
 11
4.941027177582741
 21
-0.7656699226094457
 31
2.775557561562892E-16
210
7.185770892538945E-17
220
1.012121989835805E-16
230
-1.0
 40
0.4832541567787314
 41
1.243704221968353
 42
2.402983702695765
  0
LINE
  5
16D
330
1F
100
AcDbEntity
  8
Hidden
  6
HIDDEN
370
    -3
100
AcDbLine
 10
48.02687366109687
 20
5.832983778854845
 30
0.0000000000000035
 11
46.68621608762429
 21
-2.818558237820465
 31
0.0000000000000069
  0
ELLIPSE
  5
16E
330
1F
100
AcDbEntity
  8
Hidden
  6
HIDDEN
370
    -3
100
AcDbEllipse
 10
-74.7718651553097
 20
-8.371232604540415
 30
-0.0000000000000121
 11
4.94102717758274
 21
-0.7656699226094456
 31
2.775557561562891E-16
210
7.185770892538945E-17
220
1.012121989835805E-16
230
-1.0
 40
0.4832541567787314
 41
0.0118826274635326
 42
1.171162108190947
  0
LINE
  5
16F
330
1F
100
AcDbEntity
  8
Hidden
  6
HIDDEN
370
    -3
100
AcDbLine
 10
-68.49492585407323
 20
-0.5136787925547216
 30
-0.0000000000000052
 11
-69.8355834275458
 21
-9.165220809230025
 31
-0.0000000000000047
  0
ELLIPSE
  5
170
330
1F
100
AcDbEntity
  8
Hidden
  6
HIDDEN
370
    -3
100
AcDbEllipse
 10
-74.15564415243995
 20
-4.952311140029824
 30
-0.0000000000000087
 11
4.94102717758274
 21
-0.7656699226094456
 31
2.775557561562891E-16
210
7.185770892538945E-17
220
1.012121989835805E-16
230
-1.0
 40
0.4832541567787314
 41
5.135788453915707
 42
6.295067934643122
  0
LINE
  5
171
330
1F
100
AcDbEntity
  8
Hidden
  6
HIDDEN
370
    -3
100
AcDbLine
 10
-71.65104054400543
 20
-2.204701993867776
 30
-0.0000000000000043
 11
-71.78822320445252
 21
-3.089970219178407
 31
0.000000000000002
  0
SPLINE
  5
172
330
1F
100
AcDbEntity
  8
Hidden
  6
HIDDEN
370
    -3
100
AcDbSpline
210
0.0
220
0.0
230
1.0
 70
     8
 71
     3
 72
    10
 73
     6
 74
     0
 42
0.000000001
 43
0.00000001
 40
0.0064885355774043
 40
0.0064885355774043
 40
0.0064885355774043
 40
0.0064885355774043
 40
0.0077895019706089
 40
0.0077895019706089
 40
0.0097010826346755
 40
0.0097010826346755
 40
0.0097010826346755
 40
0.0097010826346755
 10
-32.91205367194866
 20
-1.573032034615748
 30
-0.0000000000000035
 10
-33.29464995658154
 20
-1.343297181199256
 30
-0.0000000000000043
 10
-33.70834506146765
 20
-1.126809533054006
 30
-0.000000000000003
 10
-34.76940589456262
 20
-0.6762570171036193
 30
-0.0000000000000065
 10
-35.43589892631673
 20
-0.4828007821043113
 30
-0.0000000000000061
 10
-36.06497230652867
 20
-0.3816159487988686
 30
-0.000000000000003
  0
SPLINE
  5
173
330
1F
100
AcDbEntity
  8
Hidden
  6
HIDDEN
370
    -3
100
AcDbSpline
210
0.0
220
0.0
230
1.0
 70
     8
 71
     3
 72
    14
 73
    10
 74
     0
 42
0.000000001
 43
0.00000001
 40
0.0
 40
0.0
 40
0.0
 40
0.0
 40
0.0000187499744605
 40
0.0000187499744605
 40
0.0029483356405014
 40
0.0029483356405014
 40
0.0058779213065422
 40
0.0058779213065422
 40
0.0058831959954015
 40
0.0058831959954015
 40
0.0058831959954015
 40
0.0058831959954015
 10
-28.18541034029882
 20
-6.082614868270153
 30
-0.0000000000000017
 10
-28.18918094047889
 20
-6.078089603862074
 30
-0.0000000000000035
 10
-28.19370566401949
 20
-6.072659288666593
 30
-0.0000000000000052
 10
-28.78661511647622
 20
-5.361086492358321
 30
-0.0000000000000043
 10
-29.4339073679016
 20
-4.582039591523607
 30
-0.0000000000000056
 10
-30.84238107832725
 20
-3.119962578384993
 30
-0.0000000000000009
 10
-31.60949131134482
 20
-2.441322673964012
 30
-0.0000000000000056
 10
-32.39779848672362
 20
-1.903408687744981
 30
-0.0000000000000035
 10
-32.39921590961969
 20
-1.902441986781069
 30
-0.0000000000000052
 10
-32.40063391735799
 20
-1.901475296700437
 30
-0.0000000000000026
  0
SPLINE
  5
174
330
1F
100
AcDbEntity
  8
Hidden
  6
HIDDEN
370
    -3
100
AcDbSpline
210
0.0
220
0.0
230
1.0
 70
     8
 71
     3
 72
     8
 73
     4
 74
     0
 42
0.000000001
 43
0.00000001
 40
0.0058831959954015
 40
0.0058831959954015
 40
0.0058831959954015
 40
0.0058831959954015
 40
0.0064885355774043
 40
0.0064885355774043
 40
0.0064885355774043
 40
0.0064885355774043
 10
-32.40063391735799
 20
-1.901475296700437
 30
-0.0000000000000026
 10
-32.56337450080967
 20
-1.790541569847077
 30
-0.0000000000000017
 10
-32.73446286256114
 20
-1.680507894590394
 30
-0.0000000000000061
 10
-32.91205367059736
 20
-1.573032035430771
 30
-0.0000000000000069
  0
ELLIPSE
  5
175
330
1F
100
AcDbEntity
  8
Hidden
  6
HIDDEN
370
    -3
100
AcDbEllipse
 10
-27.08638349919802
 20
0.6216615351042447
 30
-0.000000000000002
 11
9.882054355165479
 21
-1.53133984521889
 31
1.146865843837443E-15
210
1.303351936157227E-16
220
9.215042911913156E-17
230
-1.0
 40
0.4832541567787314
 41
6.277947272335501
 42
8.913061812635654
  0
ELLIPSE
  5
176
330
1F
100
AcDbEntity
  8
Hidden
  6
HIDDEN
370
    -3
100
AcDbEllipse
 10
-4.038097637661989
 20
-3.521592720515368
 30
-0.0000000000000002
 11
-0.605940770914414
 21
4.963147769525269
 31
5.551115123125784E-16
210
3.209144122938555E-19
220
1.118858420554496E-16
230
-1.0
 40
0.441705446080475
 41
5.281221432243172
 42
6.852017759038069
  0
ELLIPSE
  5
177
330
1F
100
AcDbEntity
  8
Hidden
  6
HIDDEN
370
    -3
100
AcDbEllipse
 10
-17.87091723140795
 20
-5.210413960136868
 30
-0.0000000000000009
 11
0.6059407709144081
 21
-4.963147769525271
 31
-2.775557561562892E-16
210
-7.048208366576925E-18
220
-5.678383277201016E-17
230
1.0
 40
0.4417054460804736
 41
2.572760201731311
 42
4.143556528526208
  0
LINE
  5
178
330
1F
100
AcDbEntity
  8
Hidden
  6
HIDDEN
370
    -3
100
AcDbLine
 10
-20.04434332059147
 20
-2.762521792703162
 30
-0.0000000000000026
 11
-6.211523726845494
 21
-1.073700553081655
 31
0.0000000000000007
  0
ELLIPSE
  5
179
330
1F
100
AcDbEntity
  8
Hidden
  6
HIDDEN
370
    -3
100
AcDbEllipse
 10
-19.69118813522033
 20
-4.677869530016753
 30
0.0
 11
-1.33589204929494
 21
9.910367926198834
 31
5.551115123125783E-16
210
1.301182926194530E-16
220
7.355281966512463E-17
230
-1.0
 40
0.4572150572926412
 41
5.286841515290948
 42
6.283259470285035
  0
ELLIPSE
  5
17A
330
1F
100
AcDbEntity
  8
Hidden
  6
HIDDEN
370
    -3
100
AcDbEllipse
 10
1.019692472838253
 20
-1.886096212997806
 30
0.0000000000000004
 11
1.335892049294937
 21
-9.910367926198834
 31
-1.110223024625157E-15
210
-9.519580542631684E-17
220
-1.248585676571353E-16
230
1.0
 40
0.4572150572926417
 41
3.141518490484343
 42
4.137936445478431
  0
LINE
  5
17B
330
1F
100
AcDbEntity
  8
Hidden
  6
HIDDEN
370
    -3
100
AcDbLine
 10
-3.510069256492715
 20
2.986200734171167
 30
-0.0000000000000004
 11
-24.2209498645513
 21
0.1944274171522334
 31
-0.0000000000000022
  0
ELLIPSE
  5
17C
330
1F
100
AcDbEntity
  8
Hidden
  6
HIDDEN
370
    -3
100
AcDbEllipse
 10
-25.12690221041748
 20
1.168886806586023
 30
-0.0000000000000037
 11
1.976410871033097
 21
-0.3062679690437781
 31
2.216093583440452E-16
210
1.264990737853392E-16
220
9.274488073173883E-17
230
-1.0
 40
0.4832541567787313
 41
1.021315042490485
 42
2.650306501804127
  0
SPLINE
  5
17D
330
1F
100
AcDbEntity
  8
Hidden
  6
HIDDEN
370
    -3
100
AcDbSpline
210
0.0
220
0.0
230
1.0
 70
     8
 71
     3
 72
    12
 73
     8
 74
     0
 42
0.000000001
 43
0.00000001
 40
0.0297371273288523
 40
0.0297371273288523
 40
0.0297371273288523
 40
0.0297371273288523
 40
0.0315583907257424
 40
0.0315583907257424
 40
0.0333796541226325
 40
0.0333796541226325
 40
0.0342740161215794
 40
0.0342740161215794
 40
0.0342740161215794
 40
0.0342740161215794
 10
-26.93937971983495
 20
0.9883490814958894
 30
-0.0000000000000026
 10
-26.85799003429065
 20
1.513573641550148
 30
-0.000000000000002
 10
-26.83650123687335
 20
2.096677319362681
 30
-0.0000000000000024
 10
-26.94068769288658
 20
3.259734337338661
 30
-0.0000000000000028
 10
-27.06487042401244
 20
3.839730345176072
 30
-0.0000000000000046
 10
-27.30818069236908
 20
4.615601374044179
 30
-0.0000000000000038
 10
-27.40493239636152
 20
4.879586427047094
 30
-0.0000000000000051
 10
-27.51651506394053
 20
5.145528898012279
 30
-0.0000000000000022
  0
SPLINE
  5
17E
330
1F
100
AcDbEntity
  8
Hidden
  6
HIDDEN
370
    -3
100
AcDbSpline
210
0.0
220
0.0
230
1.0
 70
     8
 71
     3
 72
    10
 73
     6
 74
     0
 42
0.000000001
 43
0.00000001
 40
0.0342740161215794
 40
0.0342740161215794
 40
0.0342740161215794
 40
0.0342740161215794
 40
0.0352706241851875
 40
0.0352706241851875
 40
0.0358177659605087
 40
0.0358177659605087
 40
0.0358177659605087
 40
0.0358177659605087
 10
-27.51651506394053
 20
5.145528898012279
 30
-0.0000000000000022
 10
-27.6421627902711
 20
5.441491178123149
 30
-0.0000000000000057
 10
-27.78637595799415
 20
5.739840170846286
 30
-0.0000000000000066
 10
-28.03697128034256
 20
6.191073565981496
 30
-0.0000000000000042
 10
-28.1310975468883
 20
6.348872465629364
 30
-0.0000000000000049
 10
-28.22888960783155
 20
6.503590685722198
 30
-0.0000000000000061
  0
ELLIPSE
  5
17F
330
1F
100
AcDbEntity
  8
Hidden
  6
HIDDEN
370
    -3
100
AcDbEllipse
 10
4.950072678939484
 20
6.460141482667525
 30
0.0000000000000004
 11
5.98533398402136
 21
8.010978535717035
 31
1.665334536937735E-15
210
-1.219107660373064E-16
220
-1.167969533041347E-16
230
1.0
 40
0.6473350799417894
 41
1.866662685848713
 42
2.257537930802753
  0
ELLIPSE
  5
180
330
1F
100
AcDbEntity
  8
Hidden
  6
HIDDEN
370
    -3
100
AcDbEllipse
 10
-4.416021602358914
 20
3.960660123604961
 30
-0.0000000000000004
 11
1.976410871033097
 21
-0.3062679690437785
 31
1.131751665571967E-16
210
7.292144492553552E-17
220
1.010473606551042E-16
230
-1.0
 40
0.4832541567787313
 41
5.544576356285557
 42
7.304500349670071
  0
LINE
  5
181
330
1F
100
AcDbEntity
  8
Hidden
  6
HIDDEN
370
    -3
100
AcDbLine
 10
-30.57643479672504
 20
-19.97023261928624
 30
-0.0000000000000017
 11
-35.51218191705649
 21
-19.1763304048255
 31
-0.0000000000000024
  0
ELLIPSE
  5
182
330
1F
100
AcDbEntity
  8
Hidden
  6
HIDDEN
370
    -3
100
AcDbEllipse
 10
-31.00512617723316
 20
-22.34873908779775
 30
0.0
 11
4.941027177582742
 21
-0.7656699226094454
 31
5.734329219187218E-16
210
1.303351936157227E-16
220
9.215042911913155E-17
230
-1.0
 40
0.4832541567787314
 41
4.724271607848221
 42
5.223738435798971
  0
ELLIPSE
  5
183
330
1F
100
AcDbEntity
  8
Hidden
  6
HIDDEN
370
    -3
100
AcDbEllipse
 10
-25.52393226363536
 20
-18.93342731470588
 30
0.0
 11
-4.941027177582671
 21
0.765669922609435
 31
-2.946344799871534E-16
210
-7.523316646965947E-17
220
-1.006891323774266E-16
230
1.0
 40
0.4832541567787313
 41
1.059446871380614
 42
2.106644422577201
  0
LINE
  5
184
330
1F
100
AcDbEntity
  8
Hidden
  6
HIDDEN
370
    -3
100
AcDbLine
 10
-23.31934043203349
 20
-21.3774478304139
 30
-0.0000000000000035
 11
9.020362604424719
 21
-17.29051750642972
 31
-0.0000000000000003
  0
ELLIPSE
  5
185
330
1F
100
AcDbEntity
  8
Hidden
  6
HIDDEN
370
    -3
100
AcDbEllipse
 10
6.815770772846574
 20
-14.84649699074798
 30
0.0000000000000026
 11
4.941027177529492
 21
-0.7656699226011933
 31
3.842849695747251E-16
210
9.295178669190875E-17
220
9.794342504032322E-17
230
-1.0
 40
0.4832541567787313
 41
6.270935986990996
 42
7.318133538192173
  0
ELLIPSE
  5
186
330
1F
100
AcDbEntity
  8
Hidden
  6
HIDDEN
370
    -3
100
AcDbEllipse
 10
16.70614834962443
 20
-16.31922624904585
 30
0.0000000000000026
 11
4.941027177582741
 21
-0.7656699226094453
 31
5.734329219187217E-16
210
1.303351936157227E-16
220
9.215042911913156E-17
230
-1.0
 40
0.4832541567787314
 41
3.129343333401077
 42
3.973780601618004
  0
LINE
  5
187
330
1F
100
AcDbEntity
  8
Hidden
  6
HIDDEN
370
    -3
100
AcDbLine
 10
13.65314444816992
 20
-14.03819827471218
 30
0.0000000000000009
 11
17.55568149929476
 21
-12.99674830427847
 31
0.0000000000000004
  0
LINE
  5
188
330
1F
100
AcDbEntity
  8
Hidden
  6
HIDDEN
370
    -3
100
AcDbLine
 10
17.55568149929475
 20
-12.99674830427848
 30
0.0000000000000017
 11
20.60868764960704
 21
-15.27777569480497
 31
0.0000000000000035
  0
LINE
  5
189
330
1F
100
AcDbEntity
  8
Hidden
  6
HIDDEN
370
    -3
100
AcDbLine
 10
20.60868764960704
 20
-15.27777569480497
 30
0.0000000000000009
 11
25.1881968348055
 21
-18.69931675050733
 31
0.0000000000000029
  0
LINE
  5
18A
330
1F
100
AcDbEntity
  8
Hidden
  6
HIDDEN
370
    -3
100
AcDbLine
 10
-27.78399399112269
 20
-4.462122389009563
 30
-0.0000000000000022
 11
-26.93937971983496
 21
0.9883490814958876
 31
-0.0000000000000012
  0
LINE
  5
18B
330
1F
100
AcDbEntity
  8
Hidden
  6
HIDDEN
370
    -3
100
AcDbLine
 10
-32.71710116630326
 20
-3.668644802928325
 30
-0.0000000000000017
 11
-27.78399399112268
 21
-4.462122389009565
 31
-0.0000000000000031
  0
LINE
  5
18C
330
1F
100
AcDbEntity
  8
Hidden
  6
HIDDEN
370
    -3
100
AcDbLine
 10
-67.59404470092355
 20
3.271299254660234
 30
-0.0000000000000104
 11
-60.67365041408992
 21
2.158171654052985
 31
-0.0000000000000089
  0
LINE
  5
18D
330
1F
100
AcDbEntity
  8
Hidden
  6
HIDDEN
370
    -3
100
AcDbLine
 10
-67.59404470092352
 20
3.271299254660238
 30
-0.0000000000000056
 11
-66.25338712745094
 21
11.92284127133555
 31
-0.0000000000000066
  0
ELLIPSE
  5
18E
330
1F
100
AcDbEntity
  8
Hidden
  6
HIDDEN
370
    -3
100
AcDbEllipse
 10
-68.23709178247142
 20
-0.296458837901279
 30
-0.0000000000000035
 11
-7.411540766374111
 21
1.148504883914169
 31
-4.163336342344338E-16
210
-7.185770892538943E-17
220
-1.012121989835805E-16
230
1.0
 40
0.4832541567787314
 41
4.700506352921161
 42
6.283259586722007
  0
ELLIPSE
  5
18F
330
1F
100
AcDbEntity
  8
Hidden
  6
HIDDEN
370
    -3
100
AcDbEllipse
 10
-68.23709178247142
 20
-0.296458837901279
 30
-0.0000000000000035
 11
-7.411540766374111
 21
1.148504883914169
 31
-4.163336342344338E-16
210
-7.185770892538943E-17
220
-1.012121989835805E-16
230
1.0
 40
0.4832541567787314
 41
0.8961401098963162
 42
1.147396853263879
  0
LINE
  5
190
330
1F
100
AcDbEntity
  8
Hidden
  6
HIDDEN
370
    -3
100
AcDbLine
 10
28.08674093027658
 20
8.70356067104677
 30
0.0000000000000035
 11
29.42739850374915
 21
17.35510268772207
 31
0.0000000000000025
  0
LINE
  5
191
330
1F
100
AcDbEntity
  8
Hidden
  6
HIDDEN
370
    -3
100
AcDbLine
 10
22.61559644264187
 20
7.243504510082619
 30
0.0000000000000009
 11
28.08674093027657
 21
8.70356067104677
 31
0.0000000000000018
  0
ELLIPSE
  5
192
330
1F
100
AcDbEntity
  8
Hidden
  6
HIDDEN
370
    -3
100
AcDbEllipse
 10
11.31480888620925
 20
2.983656372674087
 30
0.0000000000000009
 11
-8.559027597150546
 21
-11.45569930607535
 31
-2.381428387820961E-15
210
7.744090193665153E-17
220
1.500222312997944E-16
230
-1.0
 40
0.6473350799417893
 41
0.8840547227870404
 42
3.920558952914096
  0
LINE
  5
193
330
1F
100
AcDbEntity
  8
Hidden
  6
HIDDEN
370
    -3
100
AcDbLine
 10
0.153546534328661
 20
0.0051077531245339
 30
0.0
 11
-3.74899274954567
 21
-1.036342813151528
 31
0.0000000000000001
  0
LINE
  5
194
330
1F
100
AcDbEntity
  8
Hidden
  6
HIDDEN
370
    -3
100
AcDbLine
 10
-2.904378478257949
 20
4.414128657353921
 30
-0.0000000000000002
 11
-3.748992749545673
 21
-1.036342813151526
 31
0.0000000000000001
  0
ELLIPSE
  5
195
330
1F
100
AcDbEntity
  8
Hidden
  6
HIDDEN
370
    -3
100
AcDbEllipse
 10
4.900700089490718
 20
6.497029789906056
 30
0.0000000000000013
 11
5.98533398402136
 21
8.01097853571703
 31
1.665334536937734E-15
210
-7.744090193665156E-17
220
-1.500222312997944E-16
230
1.0
 40
0.6473350799417894
 41
1.871948897259288
 42
2.257537930802753
  0
LINE
  5
196
330
1F
100
AcDbEntity
  8
Hidden
  6
HIDDEN
370
    -3
100
AcDbLine
 10
-2.904378478257956
 20
4.414128657353925
 30
-0.0000000000000004
 11
-2.855005888809192
 21
4.377240350115394
 31
-0.0000000000000003
  0
LINE
  5
197
330
1F
100
AcDbEntity
  8
Hidden
  6
HIDDEN
370
    -3
100
AcDbLine
 10
-4.354683527780447
 20
-2.464270736334281
 30
-0.0000000000000004
 11
-3.510069256492722
 21
2.986200734171168
 31
-0.0000000000000007
  0
LINE
  5
198
330
1F
100
AcDbEntity
  8
Hidden
  6
HIDDEN
370
    -3
100
AcDbLine
 10
-2.855005888809182
 20
4.377240350115388
 30
-0.0000000000000002
 11
-3.699620160096907
 21
-1.073231120390056
 31
-0.0000000000000005
  0
ELLIPSE
  5
199
330
1F
100
AcDbEntity
  8
Hidden
  6
HIDDEN
370
    -3
100
AcDbEllipse
 10
-5.260635873646641
 20
-1.489811346900486
 30
-0.0000000000000004
 11
1.976410871033097
 21
-0.3062679690437782
 31
2.293731687674887E-16
210
1.303351936157227E-16
220
9.215042911913157E-17
230
-1.0
 40
0.4832541567787313
 41
5.544576356285557
 42
7.304500349670071
  0
LINE
  5
19A
330
1F
100
AcDbEntity
  8
Hidden
  6
HIDDEN
370
    -3
100
AcDbLine
 10
-24.22094986455129
 20
0.1944274171522269
 30
-0.0000000000000017
 11
-25.06556413583902
 21
-5.256044053353221
 31
0.0000000000000004
  0
LINE
  5
19B
330
1F
100
AcDbEntity
  8
Hidden
  6
HIDDEN
370
    -3
100
AcDbLine
 10
-25.06556413583902
 20
-5.256044053353221
 30
-0.0000000000000013
 11
-4.354683527780453
 21
-2.464270736334279
 31
-0.0000000000000013
  0
ELLIPSE
  5
19C
330
1F
100
AcDbEntity
  8
Hidden
  6
HIDDEN
370
    -3
100
AcDbEllipse
 10
-25.97151648170521
 20
-4.281584663919427
 30
-0.0000000000000009
 11
1.976410871033097
 21
-0.3062679690437781
 31
2.293731687674887E-16
210
1.303351936157227E-16
220
9.215042911913156E-17
230
-1.0
 40
0.4832541567787313
 41
1.021315042490485
 42
2.65030650180413
  0
LINE
  5
19D
330
1F
100
AcDbEntity
  8
Hidden
  6
HIDDEN
370
    -3
100
AcDbLine
 10
-3.74899274954567
 20
-1.036342813151524
 30
-0.0000000000000008
 11
-3.699620160096907
 21
-1.073231120390056
 31
-0.0000000000000004
  0
ELLIPSE
  5
19E
330
1F
100
AcDbEntity
  8
Hidden
  6
HIDDEN
370
    -3
100
AcDbEllipse
 10
-17.87091723140768
 20
-5.210413960136692
 30
-0.0000000000000009
 11
-4.949035700350887
 21
0.7120713704765417
 31
-5.811323644522297E-16
210
1.308529533457255E-16
220
9.333835891707799E-17
230
-1.0
 40
0.8754680980080076
 41
0.0094890786531779
 42
1.580285405448026
  0
ELLIPSE
  5
19F
330
1F
100
AcDbEntity
  8
Hidden
  6
HIDDEN
370
    -3
100
AcDbEllipse
 10
-17.87091723140818
 20
-5.210413960136616
 30
-0.0000000000000017
 11
4.941027177582233
 21
-0.7656699226093667
 31
4.965858354301105E-16
210
1.151470519014016E-16
220
9.450400922970987E-17
230
-1.0
 40
0.4832541567787314
 41
3.136354618745663
 42
4.183552169942292
  0
ELLIPSE
  5
1A0
330
1F
100
AcDbEntity
  8
Hidden
  6
HIDDEN
370
    -3
100
AcDbEllipse
 10
-4.038097637662205
 20
-3.521592720515132
 30
-0.0000000000000004
 11
4.941027177582265
 21
-0.7656699226093717
 31
5.023148912127070E-16
210
1.162793487143490E-16
220
9.432854660180250E-17
230
-1.0
 40
0.4832541567787313
 41
4.183552169942292
 42
5.230749721138918
  0
ELLIPSE
  5
1A1
330
1F
100
AcDbEntity
  8
Hidden
  6
HIDDEN
370
    -3
100
AcDbEllipse
 10
-4.038097637662466
 20
-3.521592720515291
 30
0.0
 11
-2.051129991451158
 21
-4.559919490316647
 31
-8.326672684688683E-16
210
3.034739522584911E-17
220
1.689549163301584E-16
230
-1.0
 40
0.433762651927556
 41
2.575501655774666
 42
4.146297982569514
  0
ELLIPSE
  5
1A2
330
1F
100
AcDbEntity
  8
Hidden
  6
HIDDEN
370
    -3
100
AcDbEllipse
 10
2.171174025233643
 20
4.19365813578626
 30
0.0
 11
9.882054355165478
 21
-1.53133984521889
 31
1.146865843837443E-15
210
1.303351936157227E-16
220
9.215042911913157E-17
230
-1.0
 40
0.4832541567787314
 41
0.8321873759008652
 42
2.089157067549082
  0
ELLIPSE
  5
1A3
330
1F
100
AcDbEntity
  8
Hidden
  6
HIDDEN
370
    -3
100
AcDbEllipse
 10
1.500845238497352
 20
-0.1321128725514056
 30
0.0000000000000003
 11
-4.941027177582739
 21
0.7656699226094454
 31
-7.548985308303154E-16
210
-1.662002538328741E-16
220
-8.659271876986689E-17
230
1.0
 40
0.4832541567787317
 41
1.052435586040668
 42
2.309405277688927
  0
LINE
  5
1A4
330
1F
100
AcDbEntity
  8
Hidden
  6
HIDDEN
370
    -3
100
AcDbLine
 10
-3.367768850925675
 20
0.8041782878222986
 30
-0.0000000000000001
 11
-17.20058844467166
 21
-0.884642951799209
 31
0.0000000000000007
  0
ELLIPSE
  5
1A5
330
1F
100
AcDbEntity
  8
Hidden
  6
HIDDEN
370
    -3
100
AcDbEllipse
 10
-27.75671228593431
 20
-3.704109473233418
 30
0.0
 11
-4.941027177582741
 21
0.7656699226094468
 31
-5.396926193849047E-16
210
-1.236667235437446E-16
220
-9.318378651232703E-17
230
1.0
 40
0.4832541567787315
 41
1.558913699331364
 42
3.146830688433922
  0
LINE
  5
1A6
330
1F
100
AcDbEntity
  8
Hidden
  6
HIDDEN
370
    -3
100
AcDbLine
 10
-69.219362424676
 20
-5.746299344719427
 30
-0.0000000000000078
 11
-67.87870485120342
 21
2.905242671955889
 31
-0.0000000000000059
  0
LINE
  5
1A7
330
1F
100
AcDbEntity
  8
Hidden
  6
HIDDEN
370
    -3
100
AcDbLine
 10
-69.83558342754579
 20
-9.165220809230023
 30
-0.0000000000000035
 11
-69.21936242467596
 21
-5.746299344719424
 31
-0.000000000000006
  0
LINE
  5
1A8
330
1F
100
AcDbEntity
  8
Hidden
  6
HIDDEN
370
    -3
100
AcDbLine
 10
-73.19026072108599
 20
-10.86876408914351
 30
-0.0000000000000087
 11
-71.84960314761341
 21
-2.217222072468201
 31
-0.0000000000000053
  0
LINE
  5
1A9
330
1F
100
AcDbEntity
  8
Hidden
  6
HIDDEN
370
    -3
100
AcDbLine
 10
-22.81381475867099
 20
-4.457261716685056
 30
-0.000000000000003
 11
-23.48414354540729
 21
-8.783032725022714
 31
-0.0000000000000023
  0
LINE
  5
1AA
330
1F
100
AcDbEntity
  8
Hidden
  6
HIDDEN
370
    -3
100
AcDbLine
 10
-28.18541034029883
 20
-6.082614868270162
 30
-0.0000000000000026
 11
-28.85573912703512
 21
-10.40838587660782
 31
-0.0000000000000021
  0
ELLIPSE
  5
1AB
330
1F
100
AcDbEntity
  8
Hidden
  6
HIDDEN
370
    -3
100
AcDbEllipse
 10
-28.4270410726706
 20
-8.029880481571077
 30
-0.0000000000000061
 11
4.941027177582741
 21
-0.7656699226094451
 31
5.734329219187216E-16
210
1.303351936157227E-16
220
9.215042911913156E-17
230
-1.0
 40
0.4832541567787314
 41
1.041952717030875
 42
1.582678954258429
  0
ELLIPSE
  5
1AC
330
1F
100
AcDbEntity
  8
Hidden
  6
HIDDEN
370
    -3
100
AcDbEllipse
 10
-28.4270410726706
 20
-8.029880481571077
 30
-0.0000000000000061
 11
4.941027177582741
 21
-0.7656699226094451
 31
5.734329219187216E-16
210
1.303351936157227E-16
220
9.215042911913156E-17
230
-1.0
 40
0.4832541567787314
 41
6.277947272335457
 42
7.325138024210462
  0
LINE
  5
1AD
330
1F
100
AcDbEntity
  8
Hidden
  6
HIDDEN
370
    -3
100
AcDbLine
 10
-20.04434332059147
 20
-2.762521792703162
 30
-0.0000000000000026
 11
-20.71467210732775
 21
-7.088292801040822
 31
-0.0000000000000016
  0
ELLIPSE
  5
1AE
330
1F
100
AcDbEntity
  8
Hidden
  6
HIDDEN
370
    -3
100
AcDbEllipse
 10
-18.54124601814447
 20
-9.536184968474272
 30
0.0
 11
-4.941027177582233
 21
0.7656699226093665
 31
-5.734329219186627E-16
210
-1.303351936157227E-16
220
-9.215042911913157E-17
230
1.0
 40
0.4832541567787314
 41
5.241225790827087
 42
6.288423342023714
  0
LINE
  5
1AF
330
1F
100
AcDbEntity
  8
Hidden
  6
HIDDEN
370
    -3
100
AcDbLine
 10
-6.211523726845509
 20
-1.073700553081661
 30
-0.0000000000000001
 11
-6.8818525135818
 21
-5.39947156141932
 31
-0.0000000000000001
  0
LINE
  5
1B0
330
1F
100
AcDbEntity
  8
Hidden
  6
HIDDEN
370
    -3
100
AcDbLine
 10
-6.881852513581796
 20
-5.399471561419317
 30
0.0
 11
-20.71467210732774
 21
-7.08829280104082
 31
0.0000000000000006
  0
LINE
  5
1B1
330
1F
100
AcDbEntity
  8
Hidden
  6
HIDDEN
370
    -3
100
AcDbLine
 10
-1.268626199582555
 20
-1.82685279653335
 30
-0.0000000000000001
 11
-1.938954986318848
 21
-6.152623804871009
 31
-0.0000000000000001
  0
ELLIPSE
  5
1B2
330
1F
100
AcDbEntity
  8
Hidden
  6
HIDDEN
370
    -3
100
AcDbEllipse
 10
-4.708426424398496
 20
-7.84736372885279
 30
0.0000000000000004
 11
-4.941027177582266
 21
0.7656699226093717
 31
-5.734329219186663E-16
210
-1.303351936157226E-16
220
-9.215042911913155E-17
230
1.0
 40
0.4832541567787313
 41
4.194028239630462
 42
5.241225790827087
  0
LINE
  5
1B3
330
1F
100
AcDbEntity
  8
Hidden
  6
HIDDEN
370
    -3
100
AcDbLine
 10
4.553851372700319
 20
-2.413140251041956
 30
0.0000000000000004
 11
3.883522585964029
 21
-6.738911259379615
 31
0.0000000000000007
  0
ELLIPSE
  5
1B4
330
1F
100
AcDbEntity
  8
Hidden
  6
HIDDEN
370
    -3
100
AcDbEllipse
 10
0.830516451761063
 20
-4.457883880889064
 30
0.0000000000000004
 11
-4.94102717758274
 21
0.765669922609445
 31
-5.734329219187215E-16
210
-1.303351936157227E-16
220
-9.215042911913156E-17
230
1.0
 40
0.4832541567787314
 41
1.052435586040668
 42
2.099637714147034
  0
ELLIPSE
  5
1B5
330
1F
100
AcDbEntity
  8
Hidden
  6
HIDDEN
370
    -3
100
AcDbEllipse
 10
0.830516451761063
 20
-4.457883880889064
 30
0.0000000000000004
 11
-4.94102717758274
 21
0.765669922609445
 31
-5.734329219187215E-16
210
-1.303351936157227E-16
220
-9.215042911913156E-17
230
1.0
 40
0.4832541567787314
 41
2.099637714147034
 42
2.309406276664658
  0
LINE
  5
1B6
330
1F
100
AcDbEntity
  8
Hidden
  6
HIDDEN
370
    -3
100
AcDbLine
 10
41.54656617586839
 20
-1.352832452745137
 30
0.0000000000000043
 11
42.88722374934097
 21
7.298709563930168
 31
0.0000000000000073
  0
LINE
  5
1B7
330
1F
100
AcDbEntity
  8
Hidden
  6
HIDDEN
370
    -3
100
AcDbLine
 10
41.54656617586839
 20
-1.352832452745133
 30
0.0000000000000017
 11
39.66156598516162
 21
0.055529291206794
 31
0.0000000000000031
  0
LINE
  5
1B8
330
1F
100
AcDbEntity
  8
Hidden
  6
HIDDEN
370
    -3
100
AcDbLine
 10
39.20496321405489
 20
2.770995755813408
 30
0.0000000000000065
 11
40.24362761308821
 21
9.473713039680247
 31
0.0000000000000027
  0
ELLIPSE
  5
1B9
330
1F
100
AcDbEntity
  8
Hidden
  6
HIDDEN
370
    -3
100
AcDbEllipse
 10
18.94732422171895
 20
-2.718912073554005
 30
0.0000000000000008
 11
-8.559027597150546
 21
-11.45569930607536
 31
-3.175237850427948E-15
210
1.329011119826386E-16
220
1.778794564026194E-16
230
-1.0
 40
0.6473350799417893
 41
0.8840547227870407
 42
1.241252593348149
  0
LINE
  5
1BA
330
1F
100
AcDbEntity
  8
Hidden
  6
HIDDEN
370
    -3
100
AcDbLine
 10
4.553851372700333
 20
-2.413140251041953
 30
0.0000000000000008
 11
9.160886566321981
 21
-1.183684488462743
 31
0.0000000000000004
  0
LINE
  5
1BB
330
1F
100
AcDbEntity
  8
Hidden
  6
HIDDEN
370
    -3
100
AcDbLine
 10
3.883526484506081
 20
-6.738910218995769
 30
0.0
 11
7.786061869838382
 21
-5.697460693103543
 31
0.0000000000000003
  0
LINE
  5
1BC
330
1F
100
AcDbEntity
  8
Hidden
  6
HIDDEN
370
    -3
100
AcDbLine
 10
18.93050619577837
 20
-8.482972099637667
 30
0.0000000000000022
 11
14.32347100215672
 21
-9.712427862216881
 31
0.0000000000000007
  0
ELLIPSE
  5
1BD
330
1F
100
AcDbEntity
  8
Hidden
  6
HIDDEN
370
    -3
100
AcDbEllipse
 10
17.37647713636072
 20
-11.9934552407082
 30
0.0000000000000022
 11
-4.941027177582741
 21
0.7656699226094432
 31
-6.438742485513145E-16
210
-1.442572939883876E-16
220
-8.999303691468026E-17
230
1.0
 40
0.4832541567787312
 41
5.45099793127872
 42
6.29543462736824
  0
ELLIPSE
  5
1BE
330
1F
100
AcDbEntity
  8
Hidden
  6
HIDDEN
370
    -3
100
AcDbEllipse
 10
7.48609955955587
 20
-10.52072598240631
 30
0.0000000000000009
 11
4.95884309229012
 21
-0.6402149528975092
 31
6.071532165902675E-17
210
-1.915092395044573E-17
220
-5.349938349393354E-17
230
1.0
 40
0.8754144280032758
 41
6.260998207240431
 42
7.831794534035257
  0
ELLIPSE
  5
1BF
330
1F
100
AcDbEntity
  8
Hidden
  6
HIDDEN
370
    -3
100
AcDbEllipse
 10
18.04680592309701
 20
-7.667684232370544
 30
0.0000000000000004
 11
9.882054355165481
 21
-1.53133984521889
 31
1.146865843837442E-15
210
1.303351936157226E-16
220
9.215042911913157E-17
230
-1.0
 40
0.4832541567787314
 41
3.129343333405807
 42
3.97378002949066
  0
ELLIPSE
  5
1C0
330
1F
100
AcDbEntity
  8
Hidden
  6
HIDDEN
370
    -3
100
AcDbEllipse
 10
7.486099559582862
 20
-10.52072598241032
 30
0.0000000000000009
 11
4.941027177529492
 21
-0.7656699226011932
 31
-1.358993361450874E-16
210
-9.858004985743270E-18
220
1.138750041246204E-16
230
-1.0
 40
0.4832541567787313
 41
6.270935986990996
 42
7.318133538192172
  0
LINE
  5
1C1
330
1F
100
AcDbEntity
  8
Hidden
  6
HIDDEN
370
    -3
100
AcDbLine
 10
-24.18327469016285
 20
-10.2818852980305
 30
-0.0000000000000026
 11
8.156428346295415
 21
-6.19495497404632
 31
0.0000000000000033
  0
ELLIPSE
  5
1C2
330
1F
100
AcDbEntity
  8
Hidden
  6
HIDDEN
370
    -3
100
AcDbEllipse
 10
-24.85360347689906
 20
-14.60765630636822
 30
-0.0000000000000017
 11
4.941027177582669
 21
-0.7656699226094351
 31
4.628910277202470E-16
210
1.084875734758785E-16
220
9.553597326217322E-17
230
-1.0
 40
0.4832541567787312
 41
1.03494823101259
 42
2.082145782209178
  0
ELLIPSE
  5
1C3
330
1F
100
AcDbEntity
  8
Hidden
  6
HIDDEN
370
    -3
100
AcDbEllipse
 10
-24.85360347689884
 20
-14.60765630636808
 30
-0.0000000000000009
 11
2.03213544885827
 21
4.568416084103292
 31
5.551115123125789E-16
210
-9.584207851598214E-17
220
-7.887797880799302E-17
230
1.0
 40
0.4284201585067251
 41
0.5642969240630082
 42
2.135093250857831
  0
ELLIPSE
  5
1C4
330
1F
100
AcDbEntity
  8
Hidden
  6
HIDDEN
370
    -3
100
AcDbEllipse
 10
-30.33479739049688
 20
-18.0229680794601
 30
-0.0000000000000017
 11
-4.941027177582742
 21
0.7656699226094462
 31
-6.152514851246830E-16
210
-1.386002599088473E-16
220
-9.086966047698964E-17
230
1.0
 40
0.4832541567787311
 41
4.201039524970408
 42
4.700506352921158
  0
ELLIPSE
  5
1C5
330
1F
100
AcDbEntity
  8
Hidden
  6
HIDDEN
370
    -3
100
AcDbEllipse
 10
-29.66446860376059
 20
-13.69719707112243
 30
-0.0000000000000035
 11
9.882054355165481
 21
-1.53133984521889
 31
1.146865843837443E-15
210
1.303351936157227E-16
220
9.215042911913156E-17
230
-1.0
 40
0.4832541567787314
 41
4.724271607848221
 42
5.22373843579896
  0
LINE
  5
1C6
330
1F
100
AcDbEntity
  8
Hidden
  6
HIDDEN
370
    -3
100
AcDbLine
 10
-36.06497230652867
 20
-0.3816159487988668
 30
-0.0000000000000009
 11
-36.47418552978078
 21
-0.3157950555873343
 31
-0.0000000000000016
  0
LINE
  5
1C7
330
1F
100
AcDbEntity
  8
Hidden
  6
HIDDEN
370
    -3
100
AcDbLine
 10
-28.85573912703512
 20
-10.40838587660782
 30
-0.0000000000000026
 11
-33.78884630231443
 21
-9.614908290510694
 31
-0.000000000000003
  0
LINE
  5
1C8
330
1F
100
AcDbEntity
  8
Hidden
  6
HIDDEN
370
    -3
100
AcDbLine
 10
-29.90609933613198
 20
-15.64446268442125
 30
-0.0000000000000017
 11
-35.73296274731749
 21
-14.70722670925448
 31
-0.0000000000000014
  0
LINE
  5
1C9
330
1F
100
AcDbEntity
  8
Hidden
  6
HIDDEN
370
    -3
100
AcDbLine
 10
15.36260928215339
 20
1.522453732106742
 30
0.000000000000002
 11
19.0262166432008
 21
-1.214779122084799
 31
0.0000000000000032
  0
ELLIPSE
  5
1CA
330
1F
100
AcDbEntity
  8
Hidden
  6
HIDDEN
370
    -3
100
AcDbEllipse
 10
-70.81785406975041
 20
-14.61506131604815
 30
-0.0000000000000069
 11
7.411540766374107
 21
-1.148504883914168
 31
4.163336342344336E-16
210
7.185770892538945E-17
220
1.012121989835805E-16
230
-1.0
 40
0.4832541567787313
 41
3.141663681906039
 42
4.312754761780736
  0
LINE
  5
1CB
330
1F
100
AcDbEntity
  8
Hidden
  6
HIDDEN
370
    -3
100
AcDbLine
 10
0.153546534328661
 20
0.0051077531245339
 30
0.0
 11
4.73305571975795
 21
-3.416433302750301
 31
-0.0000000000000001
  0
LINE
  5
1CC
330
1F
100
AcDbEntity
  8
Hidden
  6
HIDDEN
370
    -3
100
AcDbLine
 10
4.733055719757949
 20
-3.416433302750302
 30
0.0000000000000002
 11
7.786061869838367
 21
-5.697460693103553
 31
0.0000000000000001
  0
ELLIPSE
  5
1CD
330
1F
100
AcDbEntity
  8
Hidden
  6
HIDDEN
370
    -3
100
AcDbEllipse
 10
32.66625013158331
 20
5.282019603309226
 30
0.0000000000000026
 11
-7.41154076637411
 21
1.148504883914168
 31
-4.163336342344337E-16
210
-7.185770892538943E-17
220
-1.012121989835805E-16
230
1.0
 40
0.4832541567787313
 41
2.720922123756413
 42
5.450997931278714
  0
ELLIPSE
  5
1CE
330
1F
100
AcDbEntity
  8
Hidden
  6
HIDDEN
370
    -3
100
AcDbEllipse
 10
48.54188202944667
 20
-6.579322764847566
 30
0.0000000000000069
 11
-7.41154076637411
 21
1.148504883914168
 31
-4.163336342344337E-16
210
-7.185770892538943E-17
220
-1.012121989835805E-16
230
1.0
 40
0.4832541567787313
 41
3.141525211522082
 42
5.039481085211233
  0
LINE
  5
1CF
330
1F
100
AcDbEntity
  8
Hidden
  6
HIDDEN
370
    -3
100
AcDbLine
 10
37.23096423529493
 20
-3.676242328373742
 30
0.0000000000000039
 11
22.61559644264187
 21
7.24350451008262
 31
0.0000000000000009
  0
ELLIPSE
  5
1D0
330
1F
100
AcDbEntity
  8
Hidden
  6
HIDDEN
370
    -3
100
AcDbEllipse
 10
28.71694385117536
 20
-10.01819968472893
 30
0.0
 11
-8.559027597150546
 21
-11.45569930607536
 31
-3.175237850427948E-15
210
1.329011119826386E-16
220
1.778794564026194E-16
230
-1.0
 40
0.6473350799417893
 41
0.8840547227870404
 42
1.241252593348149
  0
LINE
  5
1D1
330
1F
100
AcDbEntity
  8
Hidden
  6
HIDDEN
370
    -3
100
AcDbLine
 10
14.32347100215672
 20
-9.712427862216881
 30
0.0000000000000009
 11
13.65314221542043
 21
-14.03819887055454
 31
0.0000000000000016
  0
LINE
  5
1D2
330
1F
100
AcDbEntity
  8
Hidden
  6
HIDDEN
370
    -3
100
AcDbLine
 10
12.43128834794514
 20
-11.2570906115553
 30
0.0000000000000013
 11
11.76095956120885
 21
-15.58286161989295
 31
0.000000000000002
  0
LINE
  5
1D3
330
1F
100
AcDbEntity
  8
Hidden
  6
HIDDEN
370
    -3
100
AcDbLine
 10
9.020362604424738
 20
-17.29051750642972
 30
0.0000000000000017
 11
9.69069139116103
 21
-12.96474649809206
 31
0.000000000000002
  0
LINE
  5
1D4
330
1F
100
AcDbEntity
  8
Hidden
  6
HIDDEN
370
    -3
100
AcDbLine
 10
-22.6490116452972
 20
-17.05167682207624
 30
-0.0000000000000017
 11
-23.31934043203348
 21
-21.3774478304139
 31
-0.0000000000000012
  0
LINE
  5
1D5
330
1F
100
AcDbEntity
  8
Hidden
  6
HIDDEN
370
    -3
100
AcDbLine
 10
-28.26452922043425
 20
-20.6410832012518
 30
-0.0000000000000017
 11
-27.59420043369795
 21
-16.31531219291415
 31
-0.0000000000000034
  0
LINE
  5
1D6
330
1F
100
AcDbEntity
  8
Hidden
  6
HIDDEN
370
    -3
100
AcDbLine
 10
-29.90609933613198
 20
-15.64446268442125
 30
-0.0000000000000017
 11
-30.57642812286828
 21
-19.97023369275892
 31
-0.0000000000000027
  0
LINE
  5
1D7
330
1F
100
AcDbEntity
  8
Hidden
  6
HIDDEN
370
    -3
100
AcDbLine
 10
12.71220658017526
 20
1.843250903927237
 30
0.0
 11
6.317650555557585
 21
0.136768660317218
 31
0.0000000000000004
  0
SPLINE
  5
1D8
330
1F
100
AcDbEntity
  8
Hidden
  6
HIDDEN
370
    -3
100
AcDbSpline
210
0.0
220
0.0
230
1.0
 70
     8
 71
     3
 72
    12
 73
     8
 74
     0
 42
0.000000001
 43
0.00000001
 40
0.0109690207171595
 40
0.0109690207171595
 40
0.0109690207171595
 40
0.0109690207171595
 40
0.0117377731944232
 40
0.0117377731944232
 40
0.013166825321897
 40
0.013166825321897
 40
0.0143986105911686
 40
0.0143986105911686
 40
0.0143986105911686
 40
0.0143986105911686
 10
-28.52284951571624
 20
6.69202633272608
 30
-0.0000000000000028
 10
-28.51911486467849
 20
6.689173177911528
 30
-0.0000000000000018
 10
-28.4933676538887
 20
6.667605352689093
 30
-0.0000000000000022
 10
-28.36379220554688
 20
6.5394233181873
 30
-0.0000000000000044
 10
-28.21511283791237
 20
6.378367539053202
 30
-0.0000000000000018
 10
-27.88405670642219
 20
5.893444647148011
 30
-0.0000000000000067
 10
-27.71576715241086
 20
5.603807764622148
 30
-0.0000000000000024
 10
-27.56027256461475
 20
5.247457669615535
 30
-0.0000000000000049
  0
SPLINE
  5
1D9
330
1F
100
AcDbEntity
  8
Hidden
  6
HIDDEN
370
    -3
100
AcDbSpline
210
0.0
220
0.0
230
1.0
 70
     8
 71
     3
 72
    19
 73
    15
 74
     0
 42
0.000000001
 43
0.00000001
 40
0.0
 40
0.0
 40
0.0
 40
0.0
 40
0.0031449167089595
 40
0.0047173750634393
 40
0.006289833417919
 40
0.0070760625951589
 40
0.0078622917723988
 40
0.0086485209496387
 40
0.0094347501268786
 40
0.0098278647154985
 40
0.0102209793041185
 40
0.0106140938927384
 40
0.0108106511870484
 40
0.0110072084813583
 40
0.0110072084813583
 40
0.0110072084813583
 40
0.0110072084813583
 10
-2.439610731325812
 20
3.654392154561192
 30
-0.0000000000000022
 10
-2.358074715948994
 20
4.181225051542797
 30
-0.0000000000000024
 10
-2.147293613776678
 20
4.95793278189218
 30
-0.000000000000002
 10
-1.697663619976978
 20
5.926674553343876
 30
-0.0000000000000017
 10
-1.348045941984627
 20
6.495477109795307
 30
-0.0000000000000017
 10
-1.027360191632021
 20
6.921682054415823
 30
-0.0000000000000017
 10
-0.7666296902084755
 20
7.22518249743559
 30
-0.0000000000000022
 10
-0.485529467422058
 20
7.509844965153902
 30
-0.0000000000000022
 10
-0.2340591548957994
 20
7.728949230981877
 30
-0.0000000000000026
 10
-0.0222494784295991
 20
7.890849208643401
 30
-0.0000000000000026
 10
0.142140118316289
 20
8.004741768357828
 30
-0.0000000000000017
 10
0.2841403053931767
 20
8.092052097397032
 30
-0.0000000000000017
 10
0.4014657453906699
 20
8.155344626151205
 30
-0.0000000000000017
 10
0.4616206485665025
 20
8.184105867187368
 30
-0.0000000000000022
 10
0.4923428525032377
 20
8.196992646202922
 30
-0.0000000000000022
  0
SPLINE
  5
1DA
330
1F
100
AcDbEntity
  8
Hidden
  6
HIDDEN
370
    -3
100
AcDbSpline
210
0.0
220
0.0
230
1.0
 70
     8
 71
     3
 72
    10
 73
     6
 74
     0
 42
0.000000001
 43
0.00000001
 40
0.0000246503727398
 40
0.0000246503727398
 40
0.0000246503727398
 40
0.0000246503727398
 40
0.0044258138940889
 40
0.0044258138940889
 40
0.0065871150996084
 40
0.0065871150996084
 40
0.0065871150996084
 40
0.0065871150996084
 10
-30.69577731224583
 20
-19.80697584946916
 30
-0.0000000000000052
 10
-30.51537780109782
 20
-18.62313357136841
 30
-0.0000000000000035
 10
-30.64819493189525
 20
-17.51040688097221
 30
-0.0000000000000052
 10
-31.09579935691652
 20
-16.14738384849141
 30
-0.0000000000000052
 10
-31.2718893821135
 20
-15.77748298947713
 30
-0.0000000000000017
 10
-31.44302458410842
 20
-15.48319136779665
 30
-0.0000000000000052
  0
LINE
  5
1DB
330
1F
100
AcDbEntity
  8
Hidden
  6
HIDDEN
370
    -3
100
AcDbLine
 10
-3.284225002613544
 20
-1.796079315944261
 30
-0.0000000000000004
 11
-2.439610730227063
 21
3.654392161651674
 31
-0.0000000000000001
  0
ARC
  5
1DC
330
1F
100
AcDbEntity
  8
Hidden
  6
HIDDEN
370
    -3
100
AcDbCircle
 10
-17.87091723140795
 20
-5.210413960136868
 30
-0.0000000000000009
 40
4.999999999999999
100
AcDbArc
 50
96.95905436554735
 51
171.1898382698139
  0
ARC
  5
1DD
330
1F
100
AcDbEntity
  8
Hidden
  6
HIDDEN
370
    -3
100
AcDbCircle
 10
-4.038097637662466
 20
-3.521592720515291
 30
0.0
 40
4.999999999999999
100
AcDbArc
 50
65.78153941202754
 51
96.95905553561774
  0
SPLINE
  5
1DE
330
1F
100
AcDbEntity
  8
Hidden
  6
HIDDEN
370
    -3
100
AcDbSpline
210
0.0
220
0.0
230
1.0
 70
     8
 71
     3
 72
    16
 73
    12
 74
     0
 42
0.000000001
 43
0.00000001
 40
0.0011108499201711
 40
0.0011108499201711
 40
0.0011108499201711
 40
0.0011108499201711
 40
0.0018622456436161
 40
0.0018622456436161
 40
0.0038807527219766
 40
0.0038807527219766
 40
0.0059920705141771
 40
0.0059920705141771
 40
0.0078993280029748
 40
0.0078993280029748
 40
0.0098822147338753
 40
0.0098822147338753
 40
0.0098822147338753
 40
0.0098822147338753
 10
-1.986957324134893
 20
1.038322126761294
 30
-0.0000000000000019
 10
-1.794401374389167
 20
0.9518448151163497
 30
-0.0000000000000026
 10
-1.586984308352507
 20
0.8656599305357195
 30
-0.0000000000000015
 10
-0.7712479184732737
 20
0.5567608969578446
 30
-0.0000000000000031
 10
-0.0927536954825854
 20
0.3548515721094949
 30
-0.0000000000000021
 10
1.390257990729472
 20
0.0354494968181056
 30
-0.0000000000000022
 10
2.176907230464029
 20
-0.0729350891659199
 30
-0.0000000000000008
 10
3.628583672764089
 20
-0.1622814784052229
 30
-0.0000000000000014
 10
4.27678480375724
 20
-0.1532772281305442
 30
-0.0000000000000015
 10
5.444484264353628
 20
-0.054967347264199
 30
-0.0000000000000027
 10
5.942336890208354
 20
0.036610634764406
 30
-0.0000000000000015
 10
6.317650421116643
 20
0.1367686244381122
 30
-0.0000000000000021
  0
LINE
  5
1DF
330
1F
100
AcDbEntity
  8
Hidden
  6
HIDDEN
370
    -3
100
AcDbLine
 10
-4.644038114561602
 20
1.44155508490559
 30
-0.0000000000000006
 11
-18.47685756248708
 21
-0.2472661369129856
 31
0.0000000000000002
  0
SPLINE
  5
1E0
330
1F
100
AcDbEntity
  8
Hidden
  6
HIDDEN
370
    -3
100
AcDbSpline
210
0.0
220
0.0
230
1.0
 70
     8
 71
     3
 72
    24
 73
    20
 74
     0
 42
0.000000001
 43
0.00000001
 40
0.0081916551110796
 40
0.0081916551110796
 40
0.0081916551110796
 40
0.0081916551110796
 40
0.0100340588877125
 40
0.0100340588877125
 40
0.0125519627393057
 40
0.0125519627393057
 40
0.0151403177923216
 40
0.0151403177923216
 40
0.0177171512719175
 40
0.0177171512719175
 40
0.0201621077399613
 40
0.0201621077399613
 40
0.0223526047885991
 40
0.0223526047885991
 40
0.024265653214228
 40
0.024265653214228
 40
0.0260524411808076
 40
0.0260524411808076
 40
0.029781783607595
 40
0.029781783607595
 40
0.029781783607595
 40
0.029781783607595
 10
-32.40365930863639
 20
-1.899413593181621
 30
-0.0000000000000035
 10
-32.18359672159971
 20
-2.048894404867665
 30
-0.0000000000000048
 10
-31.89460490275562
 20
-2.220648596314966
 30
-0.0000000000000052
 10
-31.05195361756406
 20
-2.634464646959818
 30
-0.0000000000000061
 10
-30.45220672296722
 20
-2.8735205039911
 30
-0.0000000000000009
 10
-29.06853580141919
 20
-3.290241393373206
 30
-0.0000000000000052
 10
-28.30216307489115
 20
-3.459495563128752
 30
-0.0000000000000061
 10
-26.74274930928498
 20
-3.679542462394526
 30
-0.0000000000000026
 10
-25.97538681356723
 20
-3.727243579274973
 30
-0.0000000000000052
 10
-24.60037535228559
 20
-3.709303574242584
 30
-0.0000000000000026
 10
-24.00599306703385
 20
-3.649445490307352
 30
-0.0000000000000052
 10
-23.0850066751473
 20
-3.485111463071227
 30
-0.0000000000000026
 10
-22.74556400933729
 20
-3.387366355816296
 30
-0.0000000000000026
 10
-22.30896132046602
 20
-3.22573957607728
 30
-0.0000000000000026
 10
-22.18848304134573
 20
-3.159629137457178
 30
-0.0000000000000035
 10
-22.11000734905652
 20
-3.111335743931571
 30
-0.0000000000000035
 10
-22.14295935723747
 20
-3.124763062222355
 30
-0.0000000000000026
 10
-22.39341623294078
 20
-3.376311931450553
 30
-0.0000000000000013
 10
-22.71368091652839
 20
-3.811584371908963
 30
-0.000000000000003
 10
-22.81567964225707
 20
-4.469744123559868
 30
-0.0000000000000039
  0
LINE
  5
1E1
330
1F
100
AcDbEntity
  8
Hidden
  6
HIDDEN
370
    -3
100
AcDbLine
 10
-69.21461697485721
 20
-5.717981062639263
 30
-0.0000000000000095
 11
-67.87395939838798
 21
2.933560973373757
 31
-0.0000000000000091
  0
LINE
  5
1E2
330
1F
100
AcDbEntity
  8
Hidden
  6
HIDDEN
370
    -3
100
AcDbLine
 10
-23.48601389508786
 20
-8.795550404180522
 30
-0.0000000000000035
 11
-22.81568512333459
 21
-4.469779492531379
 31
-0.000000000000003
  0
LINE
  5
1E3
330
1F
100
AcDbEntity
  8
Hidden
  6
HIDDEN
370
    -3
100
AcDbLine
 10
-22.81194442397343
 20
-4.444744134215769
 30
-0.0000000000000009
 11
-23.4822731957267
 21
-8.770515045864908
 31
0.0000000000000006
  0
LINE
  5
1E4
330
1F
100
AcDbEntity
  8
Hidden
  6
HIDDEN
370
    -3
100
AcDbLine
 10
39.96373566792237
 20
10.51419181610532
 30
0.0000000000000017
 11
38.62307809145319
 21
1.862649780092308
 31
0.0000000000000042
  0
SPLINE
  5
1E5
330
1F
100
AcDbEntity
  8
Hidden
  6
HIDDEN
370
    -3
100
AcDbSpline
210
0.0
220
0.0
230
1.0
 70
     8
 71
     3
 72
     8
 73
     4
 74
     0
 42
0.000000001
 43
0.00000001
 40
0.0
 40
0.0
 40
0.0
 40
0.0
 40
0.0001278967621069
 40
0.0001278967621069
 40
0.0001278967621069
 40
0.0001278967621069
 10
12.43544995877798
 20
-11.22778531809875
 30
-0.0000000000000022
 10
12.43892916948351
 20
-11.20533324815983
 30
-0.0000000000000004
 10
12.44208856918669
 20
-11.18304741831675
 30
-0.0000000000000004
 10
12.4449557726046
 20
-11.1608392919772
 30
-0.0000000000000004
  0
ARC
  5
1E6
330
1F
100
AcDbEntity
  8
Hidden
  6
HIDDEN
370
    -3
100
AcDbCircle
 10
7.48609955955587
 20
-10.52072598240631
 30
0.0000000000000017
 40
4.999999999999999
100
AcDbArc
 50
351.1914117744427
 51
352.6467956582056
  0
LINE
  5
1E7
330
1F
100
AcDbEntity
  8
Hidden
  6
HIDDEN
370
    -3
100
AcDbLine
 10
40.07779089795741
 20
4.13351471939506
 30
0.0000000000000035
 11
40.81016886665211
 21
8.859701997655431
 31
0.0000000000000037
  0
LINE
  5
1E8
330
1F
100
AcDbEntity
  8
Hidden
  6
HIDDEN
370
    -3
100
AcDbLine
 10
44.90848784317389
 20
-4.265069616357179
 30
0.0000000000000059
 11
19.8738364833598
 21
14.43935567874944
 31
0.0000000000000024
  0
LINE
  5
1E9
330
1F
100
AcDbEntity
  8
Hidden
  6
HIDDEN
370
    -3
100
AcDbLine
 10
12.43544994379496
 20
-11.22778541478727
 30
0.0000000000000026
 11
11.76512117204169
 21
-15.55355632643641
 31
0.0000000000000028
  0
LINE
  5
1EA
330
1F
100
AcDbEntity
  8
Hidden
  6
HIDDEN
370
    -3
100
AcDbLine
 10
11.75679795037606
 20
-15.61216691334917
 30
0.0000000000000017
 11
12.42712672212934
 21
-11.28639600170004
 31
0.0000000000000012
  0
ELLIPSE
  5
1EB
330
1F
100
AcDbEntity
  8
Hidden
  6
HIDDEN
 62
     7
370
    -3
100
AcDbEllipse
 10
38.07817012079043
 20
-47.87755989414994
 30
0.0000000000000069
 11
4.941027177582741
 21
-0.7656699226094457
 31
2.775557561562892E-16
210
7.185770892538945E-17
220
1.012121989835805E-16
230
-1.0
 40
0.4832541567787314
 41
1.243704221968351
 42
2.402983702695765
  0
LINE
  5
1EC
330
1F
100
AcDbEntity
  8
Hidden
  6
HIDDEN
 62
     7
370
    -3
100
AcDbLine
 10
35.51628841038871
 20
-40.26746844375069
 30
0.0000000000000052
 11
34.17563083691612
 21
-48.919010460426
 31
0.0000000000000028
  0
ELLIPSE
  5
1ED
330
1F
100
AcDbEntity
  8
Hidden
  6
HIDDEN
 62
     7
370
    -3
100
AcDbEllipse
 10
36.19316993008369
 20
-46.469198150198
 30
0.0000000000000035
 11
4.94102717758274
 21
-0.7656699226094456
 31
2.775557561562891E-16
210
7.185770892538945E-17
220
1.012121989835805E-16
230
-1.0
 40
0.4832541567787314
 41
2.402983702695761
 42
3.562263183423182
  0
LINE
  5
1EE
330
1F
100
AcDbEntity
  8
Hidden
  6
HIDDEN
 62
     7
370
    -3
100
AcDbLine
 10
32.87269227413596
 20
-38.09246496800062
 30
0.0000000000000035
 11
31.83402787510265
 21
-44.79518225186746
 31
0.0000000000000054
  0
ELLIPSE
  5
1EF
330
1F
100
AcDbEntity
  8
Hidden
  6
HIDDEN
 62
     7
370
    -3
100
AcDbEllipse
 10
-81.52657949139218
 20
-52.5184891477107
 30
-0.0000000000000035
 11
4.94102717758274
 21
-0.7656699226094456
 31
2.775557561562891E-16
210
7.185770892538945E-17
220
1.012121989835805E-16
230
-1.0
 40
0.4832541567787314
 41
5.135788453915707
 42
6.295067934643127
  0
LINE
  5
1F0
330
1F
100
AcDbEntity
  8
Hidden
  6
HIDDEN
 62
     7
370
    -3
100
AcDbLine
 10
-75.24964019015567
 20
-44.66093533572499
 30
-0.0000000000000035
 11
-76.59029776362824
 21
-53.31247735240031
 31
0.0000000000000014
  0
ELLIPSE
  5
1F1
330
1F
100
AcDbEntity
  8
Hidden
  6
HIDDEN
 62
     7
370
    -3
100
AcDbEllipse
 10
-82.14280049426196
 20
-55.93741061222129
 30
-0.0000000000000104
 11
4.94102717758274
 21
-0.7656699226094456
 31
2.775557561562891E-16
210
7.185770892538945E-17
220
1.012121989835805E-16
230
-1.0
 40
0.4832541567787314
 41
0.0118826274635326
 42
1.171162108190947
  0
LINE
  5
1F2
330
1F
100
AcDbEntity
  8
Hidden
  6
HIDDEN
 62
     7
370
    -3
100
AcDbLine
 10
-79.22053848656569
 20
-49.78340008014906
 30
-0.0000000000000104
 11
-80.56119606003824
 21
-58.43494209682439
 31
-0.0000000000000075
  0
ELLIPSE
  5
1F3
330
1F
100
AcDbEntity
  8
Hidden
  6
HIDDEN
 62
     7
370
    -3
100
AcDbEllipse
 10
-35.58284646157536
 20
-53.4318356659937
 30
0.0
 11
-0.7940311698471511
 21
-4.936548845236002
 31
-5.551115123135745E-16
210
1.238190186749648E-16
220
9.253333986689804E-17
230
-1.0
 40
0.010402759168023
 41
5.336528886657963
 42
5.778787524778451
  0
LINE
  5
1F4
330
1F
100
AcDbEntity
  8
Hidden
  6
HIDDEN
 62
     7
370
    -3
100
AcDbLine
 10
-41.46000049085922
 20
-56.92010224195019
 30
0.0
 11
-36.25317524831088
 21
-57.75760667432711
 31
0.0000000000000037
  0
ELLIPSE
  5
1F5
330
1F
100
AcDbEntity
  8
Hidden
  6
HIDDEN
 62
     7
370
    -3
100
AcDbEllipse
 10
-31.82234154380959
 20
-59.57837170904646
 30
-0.0000000000000035
 11
0.626888973297163
 21
-4.960545354611568
 31
-8.326672684688670E-16
210
-7.549835701813063E-17
220
-1.773991150322812E-16
230
1.0
 40
0.4469942694965938
 41
5.712476858348858
 42
7.283273185143753
  0
ELLIPSE
  5
1F6
330
1F
100
AcDbEntity
  8
Hidden
  6
HIDDEN
 62
     7
370
    -3
100
AcDbEllipse
 10
0.517361492648645
 20
-55.49144138506227
 30
0.0
 11
-0.6268889732971681
 21
4.960545354611567
 31
5.551115123125779E-16
210
1.237630602439153E-16
220
1.275458976486960E-16
230
-1.0
 40
0.4469942694965904
 41
2.141504775625626
 42
3.712301102412463
  0
LINE
  5
1F7
330
1F
100
AcDbEntity
  8
Hidden
  6
HIDDEN
 62
     7
370
    -3
100
AcDbLine
 10
-0.1529672941086163
 20
-59.81721239340258
 30
0.0
 11
-32.49267033054558
 21
-63.90414271738407
 31
0.0000000000000023
  0
ELLIPSE
  5
1F8
330
1F
100
AcDbEntity
  8
Hidden
  6
HIDDEN
 62
     7
370
    -3
100
AcDbEllipse
 10
-36.44613934867677
 20
-58.23667269205636
 30
-0.0000000000000035
 11
-0.7940311698457246
 21
-4.93654884522714
 31
-8.326672684688670E-16
210
1.437671468690508E-16
220
1.455493899041918E-16
230
-1.0
 40
0.0104027591680219
 41
5.778787524778452
 42
7.349583851573347
  0
LINE
  5
1F9
330
1F
100
AcDbEntity
  8
Hidden
  6
HIDDEN
 62
     7
370
    -3
100
AcDbLine
 10
-42.70170081422795
 20
-59.67794211193277
 30
-0.0000000000000069
 11
-36.87483740304242
 21
-60.61517808709955
 31
-0.0000000000000075
  0
SPLINE
  5
1FA
330
1F
100
AcDbEntity
  8
Hidden
  6
HIDDEN
 62
     7
370
    -3
100
AcDbSpline
210
0.0
220
0.0
230
1.0
 70
     8
 71
     3
 72
    10
 73
     6
 74
     0
 42
0.000000001
 43
0.00000001
 40
0.0076398953959574
 40
0.0076398953959574
 40
0.0076398953959574
 40
0.0076398953959574
 40
0.0098133774036781
 40
0.0098133774036781
 40
0.0118266540507871
 40
0.0118266540507871
 40
0.0118266540507871
 40
0.0118266540507871
 10
11.96176812886788
 20
-53.45368750231595
 30
0.0000000000000035
 10
12.06848702468956
 20
-53.9881591804283
 30
0.0000000000000035
 10
12.13978289279921
 20
-54.45880182379486
 30
0.0000000000000035
 10
12.18477652968923
 20
-55.12255501211331
 30
0.0000000000000035
 10
12.16483160609066
 20
-55.33520948862932
 30
-0.0000000000000035
 10
12.09540134747402
 20
-55.44358588001312
 30
0.0
  0
SPLINE
  5
1FB
330
1F
100
AcDbEntity
  8
Hidden
  6
HIDDEN
 62
     7
370
    -3
100
AcDbSpline
210
0.0
220
0.0
230
1.0
 70
     8
 71
     3
 72
    10
 73
     6
 74
     0
 42
0.000000001
 43
0.00000001
 40
0.0118266540507871
 40
0.0118266540507871
 40
0.0118266540507871
 40
0.0118266540507871
 40
0.0119868594113989
 40
0.0119868594113989
 40
0.0126095492862356
 40
0.0126095492862356
 40
0.0126095492862356
 40
0.0126095492862356
 10
12.09540134747402
 20
-55.44358588001312
 30
0.0
 10
12.08985657678711
 20
-55.4521345086144
 30
0.0
 10
12.08401677393842
 20
-55.46009220395091
 30
0.0
 10
12.05392734742824
 20
-55.49575648663988
 30
0.0
 10
12.02407233308112
 20
-55.51533047262043
 30
0.0
 10
11.98739029976052
 20
-55.52605228101308
 30
0.0
  0
SPLINE
  5
1FC
330
1F
100
AcDbEntity
  8
Hidden
  6
HIDDEN
 62
     7
370
    -3
100
AcDbSpline
210
0.0
220
0.0
230
1.0
 70
     8
 71
     3
 72
    10
 73
     6
 74
     0
 42
0.000000001
 43
0.00000001
 40
0.0126095492862356
 40
0.0126095492862356
 40
0.0126095492862356
 40
0.0126095492862356
 40
0.0139212571007526
 40
0.0139212571007526
 40
0.0158556547901064
 40
0.0158556547901064
 40
0.0158556547901064
 40
0.0158556547901064
 10
11.98739029976052
 20
-55.52605228101308
 30
0.0
 10
11.9095098158315
 20
-55.5462892590594
 30
0.0000000000000035
 10
11.80066099862294
 20
-55.52464650875302
 30
0.0
 10
11.42871656956483
 20
-55.34669947140936
 30
0.0000000000000035
 10
11.11053620359026
 20
-55.1311974807922
 30
0.0000000000000035
 10
10.71682100281772
 20
-54.8370365414384
 30
-0.0000000000000035
  0
ELLIPSE
  5
1FD
330
1F
100
AcDbEntity
  8
Hidden
  6
HIDDEN
 62
     7
370
    -3
100
AcDbEllipse
 10
4.301726801041263
 20
-52.4021158864031
 30
0.0000000000000035
 11
-1.289207085789954
 21
4.830936253973657
 31
5.551115123126676E-16
210
1.054592686883538E-16
220
1.430510179469837E-16
230
-1.0
 40
0.5894257495502165
 41
2.212072040905452
 42
3.782868367700344
  0
LINE
  5
1FE
330
1F
100
AcDbEntity
  8
Hidden
  6
HIDDEN
 62
     7
370
    -3
100
AcDbLine
 10
7.354732935246247
 20
-54.68314326489518
 30
0.0000000000000035
 11
11.96176812886789
 21
-53.45368750231597
 31
0.000000000000004
  0
ELLIPSE
  5
1FF
330
1F
100
AcDbEntity
  8
Hidden
  6
HIDDEN
 62
     7
370
    -3
100
AcDbEllipse
 10
-33.78486881990341
 20
-54.70277153710315
 30
0.0
 11
11.85846522619858
 21
-1.837607814262669
 31
1.376239012604933E-15
210
1.303351936157228E-16
220
9.215042911913155E-17
230
-1.0
 40
0.4832541567787313
 41
1.021315042490484
 42
3.073021182365005
  0
ELLIPSE
  5
200
330
1F
100
AcDbEntity
  8
Hidden
  6
HIDDEN
 62
     7
370
    -3
100
AcDbEllipse
 10
-32.44421124643083
 20
-46.05122952042784
 30
-0.0000000000000035
 11
-1.976410871033096
 21
0.3062679690437791
 31
-2.265516562549946E-16
210
-1.289410766151104E-16
220
-9.236646384583975E-17
230
1.0
 40
0.4832541567787298
 41
0.4912861517856628
 42
2.12027761109932
  0
ELLIPSE
  5
201
330
1F
100
AcDbEntity
  8
Hidden
  6
HIDDEN
 62
     7
370
    -3
100
AcDbEllipse
 10
-27.00849717123366
 20
-51.8979858570306
 30
0.0
 11
-1.335892049294934
 21
9.910367926198836
 31
5.551115123125784E-16
210
4.759790271315843E-17
220
6.242928382856765E-17
230
-1.0
 40
0.4572150572926419
 41
3.716045188496051
 42
5.286841515290947
  0
ELLIPSE
  5
202
330
1F
100
AcDbEntity
  8
Hidden
  6
HIDDEN
 62
     7
370
    -3
100
AcDbEllipse
 10
-2.416608946522621
 20
-40.7230865371078
 30
0.0
 11
5.985333984021361
 21
8.010978535717035
 31
2.220446049250313E-15
210
-1.329011119826386E-16
220
-1.778794564026194E-16
230
1.0
 40
0.6473350799417894
 41
2.257537930802752
 42
3.828334257597649
  0
ELLIPSE
  5
203
330
1F
100
AcDbEntity
  8
Hidden
  6
HIDDEN
 62
     7
370
    -3
100
AcDbEllipse
 10
-2.367236357073859
 20
-40.75997484434631
 30
0.0
 11
5.98533398402135
 21
8.010978535717044
 31
1.665334536937735E-15
210
-7.744090193665132E-17
220
-1.500222312997945E-16
230
1.0
 40
0.6473350799417898
 41
2.257537930802753
 42
3.828334257597652
  0
LINE
  5
204
330
1F
100
AcDbEntity
  8
Hidden
  6
HIDDEN
 62
     7
370
    -3
100
AcDbLine
 10
-10.17231492482253
 20
-42.84287597689845
 30
0.0
 11
-10.22168751427129
 21
-42.80598766965993
 31
-0.0000000000000041
  0
ELLIPSE
  5
205
330
1F
100
AcDbEntity
  8
Hidden
  6
HIDDEN
 62
     7
370
    -3
100
AcDbEllipse
 10
-6.2976165631751
 20
-49.10621254001165
 30
0.0
 11
1.335892049294941
 21
-9.910367926198834
 31
-5.551115123125784E-16
210
-1.026114959840214E-16
220
-6.984497438627233E-17
230
1.0
 40
0.4572150572926414
 41
4.137936445478431
 42
5.708732772273334
  0
LINE
  5
206
330
1F
100
AcDbEntity
  8
Hidden
  6
HIDDEN
 62
     7
370
    -3
100
AcDbLine
 10
-31.53825890056465
 20
-47.02568890986163
 30
0.0
 11
-10.82737829250607
 21
-44.23391559284269
 31
0.0
  0
ELLIPSE
  5
207
330
1F
100
AcDbEntity
  8
Hidden
  6
HIDDEN
 62
     7
370
    -3
100
AcDbEllipse
 10
-47.89453563813732
 20
-65.49252993018307
 30
0.0
 11
-9.870075870044859
 21
1.60673654329461
 31
-7.676151381197374E-16
210
1.025217350954523E-16
220
1.520362293497834E-16
230
-1.0
 40
0.8754741500941198
 41
3.141631468147682
 42
4.705705363143288
  0
ELLIPSE
  5
208
330
1F
100
AcDbEntity
  8
Hidden
  6
HIDDEN
 62
     7
370
    -3
100
AcDbEllipse
 10
-67.9733423900931
 20
-49.85305733264973
 30
-0.0000000000000069
 11
-4.920711940705464
 21
0.8869013454712247
 31
-5.030698080332742E-16
210
1.285582132853050E-16
220
1.460456992391479E-16
230
-1.0
 40
0.8754183014752265
 41
1.549273174584606
 42
2.233911390671344
  0
LINE
  5
209
330
1F
100
AcDbEntity
  8
Hidden
  6
HIDDEN
 62
     7
370
    -3
100
AcDbLine
 10
-64.33240459926044
 20
-47.00422038214956
 30
-0.0000000000000069
 11
-68.19926104963528
 21
-68.45833904541948
 31
-0.0000000000000081
  0
ELLIPSE
  5
20A
330
1F
100
AcDbEntity
  8
Hidden
  6
HIDDEN
 62
     7
370
    -3
100
AcDbEllipse
 10
13.98805815239403
 20
-44.80490047377106
 30
0.0000000000000035
 11
-2.99266699201068
 21
-4.005489267858513
 31
-5.551115123125782E-16
210
2.198069189066450E-17
220
1.221650061969694E-16
230
-1.0
 40
0.6473350799417894
 41
1.770212833495199
 42
2.454851049581938
  0
LINE
  5
20B
330
1F
100
AcDbEntity
  8
Hidden
  6
HIDDEN
 62
     7
370
    -3
100
AcDbLine
 10
37.07403949521297
 20
-60.81698144208787
 30
0.0000000000000035
 11
12.03938919473613
 21
-42.112556938456
 31
0.0000000000000043
  0
ELLIPSE
  5
20C
330
1F
100
AcDbEntity
  8
Hidden
  6
HIDDEN
 62
     7
370
    -3
100
AcDbEllipse
 10
-41.21148117008125
 20
-61.47098932492077
 30
0.0
 11
-1.18731254510743
 21
9.929264268828311
 31
5.551115123125786E-16
210
1.449849362465417E-16
220
7.324348776301803E-17
230
-1.0
 40
0.4385806695887504
 41
3.072253417321418
 42
3.709335848321277
  0
ELLIPSE
  5
20D
330
1F
100
AcDbEntity
  8
Hidden
  6
HIDDEN
 62
     7
370
    -3
100
AcDbEllipse
 10
-37.38008492988157
 20
-76.00280951638673
 30
-0.0000000000000069
 11
11.85846522619858
 21
-1.837607814262669
 31
1.376239012604937E-15
210
1.303351936157231E-16
220
9.215042911913149E-17
230
-1.0
 40
0.4832541567787313
 41
3.145281990681114
 42
4.187681133111559
  0
ELLIPSE
  5
20E
330
1F
100
AcDbEntity
  8
Hidden
  6
HIDDEN
 62
     7
370
    -3
100
AcDbEllipse
 10
7.537797881708296
 20
-55.6416923079362
 30
0.0000000000000035
 11
1.187312545107436
 21
-9.929264268828307
 31
0.0
210
-6.889811130525658E-17
220
-8.238635781278562E-18
230
1.0
 40
0.43858066958875
 41
5.715442112448102
 42
6.283089460587439
  0
LINE
  5
20F
330
1F
100
AcDbEntity
  8
Hidden
  6
HIDDEN
 62
     7
370
    -3
100
AcDbLine
 10
-42.55213874355388
 20
-70.1225313415961
 30
0.0
 11
6.197140308235746
 21
-64.2932343246115
 31
0.0000000000000007
  0
ELLIPSE
  5
210
330
1F
100
AcDbEntity
  8
Hidden
  6
HIDDEN
 62
     7
370
    -3
100
AcDbEllipse
 10
11.36919412190797
 20
-70.17351249940212
 30
-0.0000000000000035
 11
11.85846522619858
 21
-1.837607814262668
 31
1.376239012604931E-15
210
1.303351936157226E-16
220
9.215042911913157E-17
230
-1.0
 40
0.4832541567787313
 41
4.187681133111562
 42
5.544576356285557
  0
ELLIPSE
  5
211
330
1F
100
AcDbEntity
  8
Hidden
  6
HIDDEN
 62
     7
370
    -3
100
AcDbEllipse
 10
22.07594597667896
 20
-59.02248912366424
 30
0.0000000000000069
 11
-5.985333984021372
 21
-8.010978535717053
 31
-2.220446049250318E-15
210
1.996059081336209E-16
220
1.280415394091299E-16
230
-1.0
 40
0.6473350799417892
 41
5.59644370317173
 42
6.283186856011138
  0
LINE
  5
212
330
1F
100
AcDbEntity
  8
Hidden
  6
HIDDEN
 62
     7
370
    -3
100
AcDbLine
 10
14.65838693913033
 20
-40.47912946543342
 30
0.0
 11
39.69303723960718
 21
-59.18355396906527
 31
0.0000000000000078
  0
LINE
  5
213
330
1F
100
AcDbEntity
  8
Hidden
  6
HIDDEN
 62
     7
370
    -3
100
AcDbLine
 10
20.71580559132431
 20
-38.8626173366341
 30
0.0000000000000052
 11
14.65838693913033
 21
-40.47912946543342
 31
0.0000000000000014
  0
ELLIPSE
  5
214
330
1F
100
AcDbEntity
  8
Hidden
  6
HIDDEN
 62
     7
370
    -3
100
AcDbEllipse
 10
25.29531479263106
 20
-42.28415840437164
 30
0.0000000000000035
 11
-7.41154076637411
 21
1.148504883914168
 31
-4.163336342344337E-16
210
-7.185770892538943E-17
220
-1.012121989835805E-16
230
1.0
 40
0.4832541567787313
 41
2.720922123756415
 42
5.450997931278714
  0
LINE
  5
215
330
1F
100
AcDbEntity
  8
Hidden
  6
HIDDEN
 62
     7
370
    -3
100
AcDbLine
 10
34.17563083691612
 20
-48.919010460426
 30
0.0000000000000035
 11
32.29063064620935
 21
-47.51064871647409
 31
0.0000000000000052
  0
ELLIPSE
  5
216
330
1F
100
AcDbEntity
  8
Hidden
  6
HIDDEN
 62
     7
370
    -3
100
AcDbEllipse
 10
41.17094669049443
 20
-54.14550077252843
 30
0.0000000000000035
 11
-7.41154076637411
 21
1.148504883914168
 31
-4.163336342344337E-16
210
-7.185770892538943E-17
220
-1.012121989835805E-16
230
1.0
 40
0.4832541567787313
 41
3.141525211522082
 42
5.039481085211232
  0
LINE
  5
217
330
1F
100
AcDbEntity
  8
Hidden
  6
HIDDEN
 62
     7
370
    -3
100
AcDbLine
 10
-71.16987005373163
 20
-66.98140498758197
 30
0.0
 11
-67.30301360335679
 21
-45.52728632431207
 31
0.0000000000000012
  0
LINE
  5
218
330
1F
100
AcDbEntity
  8
Hidden
  6
HIDDEN
 62
     7
370
    -3
100
AcDbLine
 10
-67.30301360335679
 20
-45.52728632431207
 30
-0.0000000000000069
 11
-74.96498003987578
 21
-44.29487875302064
 31
-0.0000000000000061
  0
ELLIPSE
  5
219
330
1F
100
AcDbEntity
  8
Hidden
  6
HIDDEN
 62
     7
370
    -3
100
AcDbEllipse
 10
-78.18878940870268
 20
-62.18123932372904
 30
-0.0000000000000139
 11
-7.411540766374107
 21
1.148504883914168
 31
-4.163336342344336E-16
210
-7.185770892538945E-17
220
-1.012121989835805E-16
230
1.0
 40
0.4832541567787313
 41
5.112023198988644
 42
6.283114278863341
  0
LINE
  5
21A
330
1F
100
AcDbEntity
  8
Hidden
  6
HIDDEN
 62
     7
370
    -3
100
AcDbLine
 10
-76.59029776362824
 20
-53.31247735240029
 30
-0.0000000000000035
 11
-77.20651876649809
 21
-56.7313988169109
 31
-0.0000000000000106
  0
ELLIPSE
  5
21B
330
1F
100
AcDbEntity
  8
Hidden
  6
HIDDEN
 62
     7
370
    -3
100
AcDbEllipse
 10
-75.60802712142365
 20
-47.86263684558216
 30
-0.0000000000000035
 11
-7.411540766374111
 21
1.148504883914169
 31
-4.163336342344338E-16
210
-7.185770892538943E-17
220
-1.012121989835805E-16
230
1.0
 40
0.4832541567787314
 41
4.700506352921161
 42
6.283259586722007
  0
ELLIPSE
  5
21C
330
1F
100
AcDbEntity
  8
Hidden
  6
HIDDEN
 62
     7
370
    -3
100
AcDbEllipse
 10
-75.60802712142365
 20
-47.86263684558216
 30
-0.0000000000000035
 11
-7.411540766374111
 21
1.148504883914169
 31
-4.163336342344338E-16
210
-7.185770892538943E-17
220
-1.012121989835805E-16
230
1.0
 40
0.4832541567787314
 41
0.8961401098963175
 42
1.147396853263879
  0
LINE
  5
21D
330
1F
100
AcDbEntity
  8
Hidden
  6
HIDDEN
 62
     7
370
    -3
100
AcDbLine
 10
-49.33381931041995
 20
-74.74992552135014
 30
0.0
 11
-49.23519321160991
 21
-74.1440719468584
 31
0.0000000000000039
  0
LINE
  5
21E
330
1F
100
AcDbEntity
  8
Hidden
  6
HIDDEN
 62
     7
370
    -3
100
AcDbLine
 10
20.73528840320638
 20
-67.6740311403396
 30
0.0000000000000035
 11
21.27738378048157
 21
-68.07905305741502
 31
0.0000000000000045
  0
LINE
  5
21F
330
1F
100
AcDbEntity
  8
Hidden
  6
HIDDEN
 62
     7
370
    -3
100
AcDbLine
 10
-58.51507569628117
 20
-73.27314407396965
 30
0.0
 11
-54.64821924590632
 21
-51.81902541069974
 31
0.0000000000000012
  0
LINE
  5
220
330
1F
100
AcDbEntity
  8
Hidden
  6
HIDDEN
 62
     7
370
    -3
100
AcDbLine
 10
-45.67631136493894
 20
-53.26213369015299
 30
-0.0000000000000035
 11
-54.64821924590632
 21
-51.81902541069976
 31
-0.000000000000008
  0
LINE
  5
221
330
1F
100
AcDbEntity
  8
Hidden
  6
HIDDEN
 62
     7
370
    -3
100
AcDbLine
 10
-7.638274136647685
 20
-57.75775455668699
 30
0.0
 11
-28.34915474470626
 21
-60.54952787370593
 31
0.0000000000000003
  0
ELLIPSE
  5
222
330
1F
100
AcDbEntity
  8
Hidden
  6
HIDDEN
 62
     7
370
    -3
100
AcDbEllipse
 10
-13.07398821184484
 20
-51.91099822008421
 30
0.0000000000000035
 11
11.85846522619858
 21
-1.837607814262668
 31
1.376239012604928E-15
210
1.303351936157223E-16
220
9.215042911913162E-17
230
-1.0
 40
0.4832541567787313
 41
5.544576356285556
 42
7.304500349670071
  0
LINE
  5
223
330
1F
100
AcDbEntity
  8
Hidden
  6
HIDDEN
 62
     7
370
    -3
100
AcDbLine
 10
-3.757266519995209
 20
-49.3746285537831
 30
0.0000000000000035
 11
-3.707893930546447
 21
-49.41151686102165
 31
0.000000000000002
  0
LINE
  5
224
330
1F
100
AcDbEntity
  8
Hidden
  6
HIDDEN
 62
     7
370
    -3
100
AcDbLine
 10
-3.757266519995209
 20
-49.3746285537831
 30
0.0000000000000035
 11
3.501456548011076
 21
-47.43753050050962
 31
0.0000000000000028
  0
LINE
  5
225
330
1F
100
AcDbEntity
  8
Hidden
  6
HIDDEN
 62
     7
370
    -3
100
AcDbLine
 10
28.53610684848791
 20
-66.14195500414148
 30
0.0000000000000035
 11
3.501456548011074
 21
-47.43753050050962
 31
0.0000000000000009
  0
ELLIPSE
  5
226
330
1F
100
AcDbEntity
  8
Hidden
  6
HIDDEN
 62
     7
370
    -3
100
AcDbEllipse
 10
-11.73333063837226
 20
-43.25945620340889
 30
0.0
 11
-1.976410871033098
 21
0.3062679690437745
 31
-1.077431086990532E-16
210
-7.023745037480642E-17
220
-1.014632769870898E-16
230
1.0
 40
0.4832541567787311
 41
2.120277611099308
 42
3.880201604483821
  0
SPLINE
  5
227
330
1F
100
AcDbEntity
  8
Hidden
  6
HIDDEN
 62
     7
370
    -3
100
AcDbSpline
210
0.0
220
0.0
230
1.0
 70
     8
 71
     3
 72
    22
 73
    18
 74
     0
 42
0.000000001
 43
0.00000001
 40
0.0148237890604252
 40
0.0148237890604252
 40
0.0148237890604252
 40
0.0148237890604252
 40
0.0166784342273004
 40
0.0166784342273004
 40
0.0185330793941755
 40
0.0185330793941755
 40
0.0204033205127508
 40
0.0204033205127508
 40
0.022273561631326
 40
0.022273561631326
 40
0.0241743411218633
 40
0.0241743411218633
 40
0.0260751206124006
 40
0.0260751206124006
 40
0.0279061348408735
 40
0.0279061348408735
 40
0.0297371490693464
 40
0.0297371490693464
 40
0.0297371490693464
 40
0.0297371490693464
 10
-45.67631136493895
 20
-53.26213369015299
 30
-0.0000000000000035
 10
-45.06597462835685
 20
-53.36030478257856
 30
-0.0000000000000035
 10
-44.3912283925879
 20
-53.4149903044807
 30
-0.0000000000000035
 10
-43.05021972784754
 20
-53.39889399154588
 30
-0.0000000000000035
 10
-42.38395576073864
 20
-53.328134754193
 30
0.0
 10
-41.18667369229681
 20
-53.10291108306904
 30
-0.0000000000000035
 10
-40.54541998610889
 20
-52.92677417568506
 30
-0.0000000000000069
 10
-39.32454777948034
 20
-52.45876301937904
 30
-0.0000000000000035
 10
-38.74489874063071
 20
-52.16694598742652
 30
-0.0000000000000035
 10
-37.74087228160912
 20
-51.54802048969533
 30
0.0
 10
-37.2248287756656
 20
-51.16227204558867
 30
-0.0000000000000035
 10
-36.29883138307698
 20
-50.30140350449599
 30
-0.0000000000000069
 10
-35.88872518116205
 20
-49.8264117071468
 30
0.0
 10
-35.24613401019754
 20
-48.91822130828576
 30
-0.0000000000000035
 10
-34.95010732167952
 20
-48.40312746827794
 30
-0.0000000000000035
 10
-34.49558335029671
 20
-47.32417782154135
 30
-0.0000000000000035
 10
-34.33851419226625
 20
-46.75980379654343
 30
0.0
 10
-34.25668875584831
 20
-46.23176724551796
 30
-0.0000000000000035
  0
LINE
  5
228
330
1F
100
AcDbEntity
  8
Hidden
  6
HIDDEN
 62
     7
370
    -3
100
AcDbLine
 10
-9.58493936983125
 20
-38.69691952678286
 30
0.0
 11
-10.22168751427129
 21
-42.80598766965992
 31
-0.0000000000000009
  0
LINE
  5
229
330
1F
100
AcDbEntity
  8
Hidden
  6
HIDDEN
 62
     7
370
    -3
100
AcDbLine
 10
-9.526936870332188
 20
-38.6781172304865
 30
0.0
 11
-10.17231492482253
 21
-42.84287597689845
 31
0.0000000000000023
  0
LINE
  5
22A
330
1F
100
AcDbEntity
  8
Hidden
  6
HIDDEN
 62
     7
370
    -3
100
AcDbLine
 10
-9.982764021218344
 20
-38.78344412233726
 30
-0.0000000000000035
 11
-10.82737829250607
 21
-44.23391559284268
 31
0.0000000000000011
  0
LINE
  5
22B
330
1F
100
AcDbEntity
  8
Hidden
  6
HIDDEN
 62
     7
370
    -3
100
AcDbLine
 10
-30.69364462927691
 20
-41.57521743935617
 30
0.0
 11
-31.53825890056464
 21
-47.02568890986163
 31
0.0
  0
LINE
  5
22C
330
1F
100
AcDbEntity
  8
Hidden
  6
HIDDEN
 62
     7
370
    -3
100
AcDbLine
 10
-33.41207448456058
 20
-40.78129577501253
 30
-0.0000000000000069
 11
-34.2566887558483
 21
-46.23176724551797
 31
-0.0000000000000076
  0
ELLIPSE
  5
22D
330
1F
100
AcDbEntity
  8
Hidden
  6
HIDDEN
 62
     7
370
    -3
100
AcDbEllipse
 10
-52.46294740114602
 20
-37.717011923519
 30
-0.0000000000000069
 11
16.04152092669982
 21
-2.891298386236193
 31
1.951043493431116E-15
210
-1.374909942907077E-16
220
-8.803005941125483E-17
230
1.0
 40
0.875418301475226
 41
4.049273916508246
 42
4.73391213259498
  0
LINE
  5
22E
330
1F
100
AcDbEntity
  8
Hidden
  6
HIDDEN
 62
     7
370
    -3
100
AcDbLine
 10
-73.6243224664032
 20
-35.64333673634532
 30
-0.0000000000000035
 11
-74.9649800398758
 21
-44.29487875302064
 31
-0.000000000000003
  0
ELLIPSE
  5
22F
330
1F
100
AcDbEntity
  8
Hidden
  6
HIDDEN
 62
     7
370
    -3
100
AcDbEllipse
 10
-52.462947401146
 20
-37.717011923519
 30
-0.0000000000000035
 11
-14.07323615041762
 21
2.536537848047782
 31
-2.728720027711519E-16
210
3.847252983479883E-17
220
1.058769909956811E-16
230
-1.0
 40
0.8754183014752259
 41
3.120069501379497
 42
3.144273434195102
  0
ELLIPSE
  5
230
330
1F
100
AcDbEntity
  8
Hidden
  6
HIDDEN
 62
     7
370
    -3
100
AcDbEllipse
 10
9.737410282713958
 20
-61.28994165172415
 30
0.0
 11
-9.882054355165483
 21
1.531339845218891
 31
-1.146865843837444E-15
210
-1.303351936157227E-16
220
-9.215042911913159E-17
230
1.0
 40
0.4832541567787314
 41
5.450997931278719
 42
6.29543462736824
  0
ELLIPSE
  5
231
330
1F
100
AcDbEntity
  8
Hidden
  6
HIDDEN
 62
     7
370
    -3
100
AcDbEllipse
 10
0.5173614926454045
 20
-55.49144138508459
 30
0.0000000000000035
 11
4.95884309230331
 21
-0.6402149528992082
 31
3.209238430557092E-16
210
-7.787206692004967E-17
220
-1.018900258089251E-16
230
1.0
 40
0.8754144280032757
 41
4.690201880445533
 42
6.26099820724043
  0
ELLIPSE
  5
232
330
1F
100
AcDbEntity
  8
Hidden
  6
HIDDEN
 62
     7
370
    -3
100
AcDbEllipse
 10
10.40773906945024
 20
-56.96417064338649
 30
0.0000000000000035
 11
4.941027177582741
 21
-0.7656699226094468
 31
4.939650241190384E-16
210
1.061284281313389E-16
220
3.972785490695020E-17
230
-1.0
 40
0.4832541567787315
 41
3.12934333340114
 42
3.97378002949066
  0
LINE
  5
233
330
1F
100
AcDbEntity
  8
Hidden
  6
HIDDEN
 62
     7
370
    -3
100
AcDbLine
 10
10.71682100281774
 20
-54.83703654143839
 30
0.0000000000000069
 11
3.631398014305471
 21
-56.72788689474114
 31
0.0000000000000033
  0
ELLIPSE
  5
234
330
1F
100
AcDbEntity
  8
Hidden
  6
HIDDEN
 62
     7
370
    -3
100
AcDbEllipse
 10
-37.97386424414363
 20
-67.31945449047602
 30
0.0000000000000035
 11
-9.882054355165481
 21
1.53133984521889
 31
-1.146865843837443E-15
210
-1.303351936157226E-16
220
-9.215042911913156E-17
230
1.0
 40
0.4832541567787314
 41
4.201039524970408
 42
4.700506352921158
  0
ELLIPSE
  5
235
330
1F
100
AcDbEntity
  8
Hidden
  6
HIDDEN
 62
     7
370
    -3
100
AcDbEllipse
 10
-37.30353545740735
 20
-62.99368348213838
 30
0.0
 11
4.941027177582741
 21
-0.7656699226094446
 31
-6.132608149608481E-17
210
4.880734132206986E-18
220
1.115910641999421E-16
230
-1.0
 40
0.4832541567787317
 41
4.724271607848222
 42
5.22373843579897
  0
ELLIPSE
  5
236
330
1F
100
AcDbEntity
  8
Hidden
  6
HIDDEN
 62
     7
370
    -3
100
AcDbEllipse
 10
-31.82234154380932
 20
-59.57837170904637
 30
-0.0000000000000035
 11
2.032135448858338
 21
4.568416084103442
 31
2.775557561562986E-16
210
-7.328084287118790E-17
220
-2.815837158159937E-17
230
1.0
 40
0.4284201585067252
 41
2.135093250857832
 42
3.705889577652728
  0
LINE
  5
237
330
1F
100
AcDbEntity
  8
Hidden
  6
HIDDEN
 62
     7
370
    -3
100
AcDbLine
 10
-37.11646813541345
 20
-62.56244370039618
 30
0.0
 11
-44.30087357631146
 21
-61.40685058550221
 31
0.000000000000003
  0
LINE
  5
238
330
1F
100
AcDbEntity
  8
Hidden
  6
HIDDEN
 62
     7
370
    -3
100
AcDbLine
 10
-29.61774971220768
 20
-62.02239222475453
 30
0.0
 11
2.721953324250577
 21
-57.93546190077036
 31
-0.0000000000000005
  0
ELLIPSE
  5
239
330
1F
100
AcDbEntity
  8
Hidden
  6
HIDDEN
 62
     7
370
    -3
100
AcDbEllipse
 10
-31.82234154380953
 20
-59.57837170904651
 30
-0.0000000000000035
 11
-4.94102717758267
 21
0.7656699226094345
 31
-4.537926133010887E-16
210
-1.066893529591596E-16
220
-9.581462855274071E-17
230
1.0
 40
0.4832541567787313
 41
1.059446871380614
 42
2.106644422577203
  0
ELLIPSE
  5
23A
330
1F
100
AcDbEntity
  8
Hidden
  6
HIDDEN
 62
     7
370
    -3
100
AcDbEllipse
 10
0.5173614926723882
 20
-55.49144138508861
 30
0.0
 11
-4.941027177529492
 21
0.7656699226011943
 31
-2.776432129284116E-16
210
-7.187499397749762E-17
220
-1.012095204626912E-16
230
1.0
 40
0.4832541567787313
 41
2.106644422577203
 42
3.153841973778446
  0
ELLIPSE
  5
23B
330
1F
100
AcDbEntity
  8
Hidden
  6
HIDDEN
 62
     7
370
    -3
100
AcDbEllipse
 10
23.08886335773744
 20
-46.33737307073191
 30
0.0000000000000035
 11
-8.559027597150543
 21
-11.45569930607536
 31
-2.381428387820961E-15
210
1.886155621882887E-16
220
6.695903631064529E-17
230
-1.0
 40
0.647335079941789
 41
0.5268568522259323
 42
0.8840547227870411
  0
LINE
  5
23C
330
1F
100
AcDbEntity
  8
Hidden
  6
HIDDEN
 62
     7
370
    -3
100
AcDbLine
 10
8.025061721982537
 20
-50.3573722565575
 30
0.0000000000000035
 11
7.354732935246244
 21
-54.68314326489518
 31
0.0000000000000037
  0
LINE
  5
23D
330
1F
100
AcDbEntity
  8
Hidden
  6
HIDDEN
 62
     7
370
    -3
100
AcDbLine
 10
6.128130769953721
 20
-51.93267675878378
 30
0.0
 11
5.462550281034672
 21
-56.22780601423359
 31
0.0000000000000024
  0
LINE
  5
23E
330
1F
100
AcDbEntity
  8
Hidden
  6
HIDDEN
 62
     7
370
    -3
100
AcDbLine
 10
2.721953324250554
 20
-57.93546190077035
 30
0.0000000000000035
 11
3.392282110986844
 21
-53.60969089243269
 31
0.0000000000000049
  0
LINE
  5
23F
330
1F
100
AcDbEntity
  8
Hidden
  6
HIDDEN
 62
     7
370
    -3
100
AcDbLine
 10
-28.94742092547137
 20
-57.69662121641686
 30
0.0
 11
-29.61774971220766
 21
-62.02239222475452
 31
-0.0000000000000015
  0
ELLIPSE
  5
240
330
1F
100
AcDbEntity
  8
Hidden
  6
HIDDEN
 62
     7
370
    -3
100
AcDbEllipse
 10
-6.138221615149405
 20
-49.42859928356734
 30
-0.0000000000000035
 11
-9.882054355165479
 21
1.53133984521889
 31
-1.146865843837442E-15
210
-1.303351936157226E-16
220
-9.215042911913157E-17
230
1.0
 40
0.4832541567787314
 41
1.969202801169144
 42
2.232515923699104
  0
SPLINE
  5
241
330
1F
100
AcDbEntity
  8
Hidden
  6
HIDDEN
 62
     7
370
    -3
100
AcDbSpline
210
0.0
220
0.0
230
1.0
 70
     8
 71
     3
 72
     8
 73
     4
 74
     0
 42
0.000000001
 43
0.00000001
 40
0.0
 40
0.0
 40
0.0
 40
0.0
 40
0.0011520184130351
 40
0.0011520184130351
 40
0.0011520184130351
 40
0.0011520184130351
 10
7.053213641770316
 20
-52.09980368724686
 30
0.0000000000000035
 10
6.818739022989473
 20
-51.92461798453622
 30
0.0000000000000035
 10
6.55155727402047
 20
-51.71718814350679
 30
0.0
 10
6.26901797054837
 20
-51.48701129582856
 30
0.0
  0
LINE
  5
242
330
1F
100
AcDbEntity
  8
Hidden
  6
HIDDEN
 62
     7
370
    -3
100
AcDbLine
 10
5.954290545607992
 20
-52.3930676360612
 30
0.0
 11
7.053213641770327
 21
-52.09980368724685
 31
-0.0000000000000026
  0
ELLIPSE
  5
243
330
1F
100
AcDbEntity
  8
Hidden
  6
HIDDEN
 62
     7
370
    -3
100
AcDbEllipse
 10
-35.39577913958107
 20
-53.00059588424936
 30
0.0
 11
-9.882054355165481
 21
1.53133984521889
 31
-1.146865843837443E-15
210
-1.303351936157226E-16
220
-9.215042911913156E-17
230
1.0
 40
0.4832541567787314
 41
1.558913699331364
 42
2.198305815484022
  0
ELLIPSE
  5
244
330
1F
100
AcDbEntity
  8
Hidden
  6
HIDDEN
 62
     7
370
    -3
100
AcDbEllipse
 10
-24.83965529831814
 20
-50.18112936281498
 30
-0.0000000000000069
 11
-4.949035700350898
 21
0.7120713704765399
 31
-8.716985466783464E-16
210
1.883738497117938E-16
220
8.506220453340267E-17
230
-1.0
 40
0.875468098008008
 41
6.28313269072552
 42
6.292674385832763
  0
ELLIPSE
  5
245
330
1F
100
AcDbEntity
  8
Hidden
  6
HIDDEN
 62
     7
370
    -3
100
AcDbEllipse
 10
-34.72545035284478
 20
-48.67482487591171
 30
0.0
 11
4.941027177582741
 21
-0.7656699226094437
 31
1.033369155226293E-15
210
2.212374907648325E-16
220
7.806405551265609E-17
230
-1.0
 40
0.4832541567787311
 41
6.277947272335457
 42
6.283217160356981
  0
ELLIPSE
  5
246
330
1F
100
AcDbEntity
  8
Hidden
  6
HIDDEN
 62
     7
370
    -3
100
AcDbEllipse
 10
-24.83965529831863
 20
-50.18112936281491
 30
-0.0000000000000035
 11
-4.941027177582232
 21
0.7656699226093664
 31
-4.965858354301104E-16
210
-1.151470519014016E-16
220
-9.450400922970984E-17
230
1.0
 40
0.4832541567787313
 41
6.282915661796615
 42
6.28842334202372
  0
LINE
  5
247
330
1F
100
AcDbEntity
  8
Hidden
  6
HIDDEN
 62
     7
370
    -3
100
AcDbLine
 10
7.053213641770306
 20
-52.09980368724685
 30
0.0
 11
10.71682100281772
 21
-54.83703654143839
 31
0.0000000000000038
  0
LINE
  5
248
330
1F
100
AcDbEntity
  8
Hidden
  6
HIDDEN
 62
     7
370
    -3
100
AcDbLine
 10
-29.11222403884517
 20
-45.10220611102569
 30
-0.0000000000000035
 11
-29.78255282558147
 21
-49.42797711936335
 31
-0.000000000000003
  0
ELLIPSE
  5
249
330
1F
100
AcDbEntity
  8
Hidden
  6
HIDDEN
 62
     7
370
    -3
100
AcDbEllipse
 10
-55.25802815189925
 20
-53.22469752541617
 30
0.0000000000000035
 11
14.07323615041763
 21
-2.536537848047714
 31
1.761264745159253E-15
210
-1.507520070426641E-16
220
-1.420455249185004E-16
230
1.0
 40
0.8754183014752259
 41
6.280344801409144
 42
6.304708459389891
  0
LINE
  5
24A
330
1F
100
AcDbEntity
  8
Hidden
  6
HIDDEN
 62
     7
370
    -3
100
AcDbLine
 10
-75.86586119302548
 20
-48.07985680023558
 30
0.0
 11
-77.20651876649808
 21
-56.73139881691092
 31
-0.000000000000001
  0
LINE
  5
24B
330
1F
100
AcDbEntity
  8
Hidden
  6
HIDDEN
 62
     7
370
    -3
100
AcDbLine
 10
-79.0219758829577
 20
-49.77088000154865
 30
-0.0000000000000069
 11
-79.1591585434048
 21
-50.65614822685928
 31
0.0000000000000011
  0
LINE
  5
24C
330
1F
100
AcDbEntity
  8
Hidden
  6
HIDDEN
 62
     7
370
    -3
100
AcDbLine
 10
22.0564631647969
 20
-30.21107531995879
 30
0.0000000000000035
 11
20.71580559132431
 21
-38.8626173366341
 31
0.000000000000003
  0
LINE
  5
24D
330
1F
100
AcDbEntity
  8
Hidden
  6
HIDDEN
 62
     7
370
    -3
100
AcDbLine
 10
33.63128821968193
 20
-38.85910669979877
 30
-0.0000000000000035
 11
32.29063064620935
 21
-47.51064871647409
 31
0.0000000000000024
  0
LINE
  5
24E
330
1F
100
AcDbEntity
  8
Hidden
  6
HIDDEN
 62
     7
370
    -3
100
AcDbLine
 10
40.65593832214464
 20
-41.73319422882602
 30
0.0000000000000035
 11
39.31528074867204
 21
-50.38473624550133
 31
0.0000000000000054
  0
ELLIPSE
  5
24F
330
1F
100
AcDbEntity
  8
Hidden
  6
HIDDEN
 62
     7
370
    -3
100
AcDbEllipse
 10
5.68672839277138
 20
-33.33551701332888
 30
0.0000000000000035
 11
9.756094393954822
 21
13.05789501321878
 31
3.619327060278013E-15
210
-1.996059081336209E-16
220
-1.280415394091299E-16
230
1.0
 40
0.6473350799417892
 41
3.828334257597649
 42
4.512972473684385
  0
LINE
  5
250
330
1F
100
AcDbEntity
  8
Hidden
  6
HIDDEN
 62
     7
370
    -3
100
AcDbLine
 10
-36.20450861630616
 20
-56.28940707876188
 30
0.0
 11
-36.87483740304246
 21
-60.61517808709954
 31
0.0000000000000002
  0
LINE
  5
251
330
1F
100
AcDbEntity
  8
Hidden
  6
HIDDEN
 62
     7
370
    -3
100
AcDbLine
 10
-34.56293850060843
 20
-61.28602759559244
 30
0.0000000000000035
 11
-33.89260971387213
 21
-56.96025658725478
 31
-0.0000000000000058
  0
ELLIPSE
  5
252
330
1F
100
AcDbEntity
  8
Hidden
  6
HIDDEN
 62
     7
370
    -3
100
AcDbEllipse
 10
5.686728392771339
 20
-33.33551701332888
 30
0.0000000000000017
 11
-8.559027597150543
 21
-11.45569930607536
 31
-2.381428387820961E-15
210
1.886155621882887E-16
220
6.695903631064529E-17
230
-1.0
 40
0.647335079941789
 41
5.742624834730935
 42
7.167240029966627
  0
LINE
  5
253
330
1F
100
AcDbEntity
  8
Hidden
  6
HIDDEN
 62
     7
370
    -3
100
AcDbLine
 10
32.59280013962475
 20
-37.05198741346055
 30
0.0000000000000069
 11
31.25214284583512
 21
-45.70352762528357
 31
0.000000000000005
  0
LINE
  5
254
330
1F
100
AcDbEntity
  8
Hidden
  6
HIDDEN
 62
     7
370
    -3
100
AcDbLine
 10
-76.58555222047525
 20
-53.28415846801514
 30
-0.0000000000000139
 11
-75.24489492668562
 21
-44.63261825619214
 31
-0.0000000000000056
  0
LINE
  5
255
330
1F
100
AcDbEntity
  8
Hidden
  6
HIDDEN
 62
     7
370
    -3
100
AcDbLine
 10
-31.1954542423921
 20
-64.53891727494184
 30
0.0
 11
1.144250365269973
 21
-60.45198675239674
 31
0.0000000000000032
  0
SPLINE
  5
256
330
1F
100
AcDbEntity
  8
Hidden
  6
HIDDEN
 62
     7
370
    -3
100
AcDbSpline
210
0.0
220
0.0
230
1.0
 70
     8
 71
     3
 72
    18
 73
    14
 74
     0
 42
0.000000001
 43
0.00000001
 40
0.0000675372020324
 40
0.0000675372020324
 40
0.0000675372020324
 40
0.0000675372020324
 40
0.0044011804104649
 40
0.0044011804104649
 40
0.0079176260838562
 40
0.0079176260838562
 40
0.0104691228720283
 40
0.0104691228720283
 40
0.0127455029058133
 40
0.0127455029058133
 40
0.0149220893269774
 40
0.0149220893269774
 40
0.0154033381046931
 40
0.0154033381046931
 40
0.0154033381046931
 40
0.0154033381046931
 10
-38.02448559827943
 20
-67.09942513542799
 30
-0.0000000000000035
 10
-38.2136102627328
 20
-68.26102618264602
 30
-0.0000000000000035
 10
-38.66964400962942
 20
-69.26456298154385
 30
0.0
 10
-39.67275216973837
 20
-70.66165802479651
 30
0.0
 10
-40.13252789551282
 20
-71.06559607970262
 30
0.0
 10
-40.71102490998023
 20
-71.47772978320776
 30
0.0
 10
-40.87375320028247
 20
-71.55498983964931
 30
0.0
 10
-40.97663118407382
 20
-71.60076768564825
 30
0.0000000000000069
 10
-40.93729596743469
 20
-71.57955706942931
 30
0.0
 10
-40.68741076467632
 20
-71.51088022119356
 30
0.0
 10
-40.48610731083441
 20
-71.46491270868857
 30
0.0
 10
-40.15408953531395
 20
-71.4166355662333
 30
0.0
 10
-40.09068258072917
 20
-71.40823122823316
 30
0.0
 10
-40.0241427531884
 20
-71.40025050011883
 30
0.0
  0
LINE
  5
257
330
1F
100
AcDbEntity
  8
Hidden
  6
HIDDEN
 62
     7
370
    -3
100
AcDbLine
 10
-40.0241695593546
 20
-71.40025370547963
 30
-0.0000000000000069
 11
-39.74600996017245
 21
-71.3669921895496
 31
-0.000000000000003
  0
SPLINE
  5
258
330
1F
100
AcDbEntity
  8
Hidden
  6
HIDDEN
 62
     7
370
    -3
100
AcDbSpline
210
0.0
220
0.0
230
1.0
 70
     8
 71
     3
 72
    16
 73
    12
 74
     0
 42
0.000000001
 43
0.00000001
 40
0.030611668829893
 40
0.030611668829893
 40
0.030611668829893
 40
0.030611668829893
 40
0.0319555131576141
 40
0.0319555131576141
 40
0.0340690726682108
 40
0.0340690726682108
 40
0.0366021107778496
 40
0.0366021107778496
 40
0.0394885305253884
 40
0.0394885305253884
 40
0.0421442866760606
 40
0.0421442866760606
 40
0.0421442866760606
 40
0.0421442866760606
 10
-8.352597494854255
 20
-48.77093309308489
 30
-0.0000000000000035
 10
-8.329138216750952
 20
-48.78864488292714
 30
0.0
 10
-8.332466312026678
 20
-48.78774864085901
 30
-0.0000000000000104
 10
-8.40424197717696
 20
-48.72288947762939
 30
0.0000000000000035
 10
-8.507657831470981
 20
-48.62400234826875
 30
0.0000000000000035
 10
-8.816702521750853
 20
-48.23366723970322
 30
0.0
 10
-9.030366748378077
 20
-47.91721395720315
 30
0.0
 10
-9.465694312732111
 20
-46.99033480789019
 30
0.0
 10
-9.669570555531468
 20
-46.37391557724638
 30
-0.0000000000000035
 10
-9.866473123834197
 20
-44.98871665924393
 30
0.0
 10
-9.868014410754672
 20
-44.28264100069784
 30
-0.0000000000000035
 10
-9.756919767339163
 20
-43.56572417245266
 30
0.0
  0
LINE
  5
259
330
1F
100
AcDbEntity
  8
Hidden
  6
HIDDEN
 62
     7
370
    -3
100
AcDbLine
 10
-8.401942931450263
 20
-48.73406507214771
 30
0.0
 11
-8.352570341682418
 21
-48.77095337962464
 31
0.0000000000000003
  0
LINE
  5
25A
330
1F
100
AcDbEntity
  8
Hidden
  6
HIDDEN
 62
     7
370
    -3
100
AcDbLine
 10
-9.756919859394822
 20
-43.56572476650692
 30
0.0
 11
-8.91230527486217
 21
-38.11525127456689
 31
0.0000000000000031
  0
SPLINE
  5
25B
330
1F
100
AcDbEntity
  8
Hidden
  6
HIDDEN
 62
     7
370
    -3
100
AcDbSpline
210
0.0
220
0.0
230
1.0
 70
     8
 71
     3
 72
    14
 73
    10
 74
     0
 42
0.000000001
 43
0.00000001
 40
0.0
 40
0.0
 40
0.0
 40
0.0
 40
0.0017628468942291
 40
0.0017628468942291
 40
0.0034356398998915
 40
0.0034356398998915
 40
0.0051287201301198
 40
0.0051287201301198
 40
0.0067642749903431
 40
0.0067642749903431
 40
0.0067642749903431
 40
0.0067642749903431
 10
5.590931901019337
 20
-57.23305267031967
 30
-0.0000000000000035
 10
5.25252361978639
 20
-57.3233619460206
 30
0.0
 10
5.019844306916118
 20
-57.41919903988268
 30
-0.0000000000000035
 10
4.775917089920338
 20
-57.54047552174338
 30
0.0
 10
4.756987012934661
 20
-57.56805962849064
 30
-0.0000000000000035
 10
4.874090563175198
 20
-57.46744046094064
 30
-0.0000000000000035
 10
5.007386503505413
 20
-57.3402178146467
 30
0.0
 10
5.288139786990537
 20
-56.86455193214438
 30
0.0000000000000035
 10
5.410981553287608
 20
-56.5580525775737
 30
0.0
 10
5.466696835876444
 20
-56.19859786837505
 30
0.0
  0
LINE
  5
25C
330
1F
100
AcDbEntity
  8
Hidden
  6
HIDDEN
 62
     7
370
    -3
100
AcDbLine
 10
5.590934021274008
 20
-57.23305210449838
 30
0.0000000000000035
 11
11.98549004589167
 21
-55.52656986088835
 31
0.0000000000000035
  0
SPLINE
  5
25D
330
1F
100
AcDbEntity
  8
Hidden
  6
HIDDEN
 62
     7
370
    -3
100
AcDbSpline
210
0.0
220
0.0
230
1.0
 70
     8
 71
     3
 72
    12
 73
     8
 74
     0
 42
0.000000001
 43
0.00000001
 40
0.0011342968030846
 40
0.0011342968030846
 40
0.0011342968030846
 40
0.0011342968030846
 40
0.0018608997589099
 40
0.0018608997589099
 40
0.0038807391186146
 40
0.0038807391186146
 40
0.0045973731305411
 40
0.0045973731305411
 40
0.0045973731305411
 40
0.0045973731305411
 10
-33.8544906002144
 20
-64.14678174021495
 30
-0.0000000000000069
 10
-34.04239626149906
 20
-64.06332531396077
 30
-0.0000000000000035
 10
-34.24407941212028
 20
-63.98026409356245
 30
-0.0000000000000035
 10
-35.05505882703858
 20
-63.67494924219934
 30
0.0000000000000035
 10
-35.73485316651099
 20
-63.47401976048835
 30
-0.0000000000000035
 10
-36.717552530016
 20
-63.26411187043365
 30
-0.0000000000000069
 10
-36.97822066661614
 20
-63.21539102029438
 30
-0.0000000000000035
 10
-37.24017007258769
 20
-63.17322160901097
 30
-0.0000000000000069
  0
LINE
  5
25E
330
1F
100
AcDbEntity
  8
Hidden
  6
HIDDEN
 62
     7
370
    -3
100
AcDbLine
 10
-45.63505882095649
 20
-61.8229253711796
 30
-0.0000000000000069
 11
-37.24016861937881
 21
-63.1732218427581
 31
-0.0000000000000041
  0
ARC
  5
25F
330
1F
100
AcDbEntity
  8
Hidden
  6
HIDDEN
 62
     7
370
    -3
100
AcDbCircle
 10
-31.82234154380959
 20
-59.57837170904646
 30
-0.0000000000000035
 40
4.999999999999999
100
AcDbArc
 50
246.0197774471338
 51
277.2005819511678
  0
ARC
  5
260
330
1F
100
AcDbEntity
  8
Hidden
  6
HIDDEN
 62
     7
370
    -3
100
AcDbCircle
 10
0.517361492648645
 20
-55.49144138506227
 30
0.0
 40
4.999999999999999
100
AcDbArc
 50
277.2005832973693
 51
351.1914025385459
  0
LINE
  5
261
330
1F
100
AcDbEntity
  8
Hidden
  6
HIDDEN
 62
     7
370
    -3
100
AcDbLine
 10
6.127515697115941
 20
-51.93419639802771
 30
0.0000000000000035
 11
5.466711753464397
 21
-56.1985016139211
 31
0.0000000000000071
  0
LINE
  5
262
330
1F
100
AcDbEntity
  8
Hidden
  6
HIDDEN
 62
     7
370
    -3
100
AcDbLine
 10
5.458388531798774
 20
-56.25711220083384
 30
0.0
 11
6.128717678127446
 21
-51.9313388719718
 31
0.0000000000000007
  0
ARC
  5
263
330
1F
100
AcDbEntity
  8
Hidden
  6
HIDDEN
 62
     7
370
    -3
100
AcDbCircle
 10
-24.83965529831842
 20
-50.18112936281516
 30
-0.0000000000000035
 40
4.999999999999999
100
AcDbArc
 50
171.1904298146862
 51
171.4802358804018
  0
LINE
  5
264
330
1F
100
AcDbEntity
  8
Hidden
  6
HIDDEN
 62
     7
370
    -3
100
AcDbLine
 10
-38.38990861335566
 20
-40.2546429474185
 30
0.0
 11
-39.46162627262225
 21
-46.20075570753677
 31
-0.0000000000000057
  0
LINE
  5
265
330
1F
100
AcDbEntity
  8
Hidden
  6
HIDDEN
 62
     7
370
    -3
100
AcDbLine
 10
-41.18496192994385
 20
-55.76217835184541
 30
0.0
 11
-42.25676283737704
 21
-61.70876153770452
 31
0.000000000000002
  0
LINE
  5
266
330
1F
100
AcDbEntity
  8
Hidden
  6
HIDDEN
 62
     7
370
    -3
100
AcDbLine
 10
-29.11035346797532
 20
-45.08968700448753
 30
0.0
 11
-29.78068261430398
 21
-49.41546033334959
 31
-0.000000000000001
  0
LINE
  5
267
330
1F
100
AcDbEntity
  8
Hidden
  6
HIDDEN
 62
     7
370
    -3
100
AcDbLine
 10
32.70685565233935
 20
-43.43266268598081
 30
0.0
 11
33.43923346321295
 21
-38.70647642617281
 31
0.0000000000000045
  0
LINE
  5
268
330
1F
100
AcDbEntity
  8
Hidden
  6
HIDDEN
 62
     7
370
    -3
100
AcDbLine
 10
-2.872299205285481
 20
-44.79121631872712
 30
-0.0000000000000035
 11
22.16235215543489
 21
-63.49564161451085
 31
0.0000000000000043
  0
ENDSEC
  0
SECTION
  2
OBJECTS
  0
DICTIONARY
  5
C
330
0
100
AcDbDictionary
281
     1
  3
ACAD_DETAILVIEWSTYLE
350
2AE
  3
ACAD_GROUP
350
D
  3
ACAD_LAYOUT
350
1A
  3
ACAD_MATERIAL
350
43
  3
ACAD_MLEADERSTYLE
350
6B
  3
ACAD_MLINESTYLE
350
17
  3
ACAD_PLOTSETTINGS
350
19
  3
ACAD_PLOTSTYLENAME
350
E
  3
ACAD_SCALELIST
350
47
  3
ACAD_SECTIONVIEWSTYLE
350
2AF
  3
ACAD_TABLESTYLE
350
69
  3
ACAD_VISUALSTYLE
350
2A
  3
ACDB_RECOMPOSE_DATA
350
2AB
  3
AcDbVariableDictionary
350
26B
  0
DICTIONARY
  5
269
330
8
100
AcDbDictionary
280
     1
281
     1
  3
ACAD_XREC_ROUNDTRIP
360
26A
  0
DICTIONARY
  5
2AE
102
{ACAD_REACTORS
330
C
102
}
330
C
100
AcDbDictionary
281
     1
  0
DICTIONARY
  5
D
102
{ACAD_REACTORS
330
C
102
}
330
C
100
AcDbDictionary
281
     1
  0
DICTIONARY
  5
1A
102
{ACAD_REACTORS
330
C
102
}
330
C
100
AcDbDictionary
281
     1
  3
Layout1
350
1E
  3
Layout2
350
26
  3
Model
350
22
  0
DICTIONARY
  5
43
102
{ACAD_REACTORS
330
C
102
}
330
C
100
AcDbDictionary
281
     1
  3
ByBlock
350
45
  3
ByLayer
350
44
  3
Global
350
46
  0
DICTIONARY
  5
6B
102
{ACAD_REACTORS
330
C
102
}
330
C
100
AcDbDictionary
281
     1
  3
Standard
350
6C
  0
DICTIONARY
  5
17
102
{ACAD_REACTORS
330
C
102
}
330
C
100
AcDbDictionary
281
     1
  3
Standard
350
18
  0
DICTIONARY
  5
19
102
{ACAD_REACTORS
330
C
102
}
330
C
100
AcDbDictionary
281
     1
  0
ACDBDICTIONARYWDFLT
  5
E
102
{ACAD_REACTORS
330
C
102
}
330
C
100
AcDbDictionary
281
     1
  3
Normal
350
F
100
AcDbDictionaryWithDefault
340
F
  0
DICTIONARY
  5
47
102
{ACAD_REACTORS
330
C
102
}
330
C
100
AcDbDictionary
281
     1
  3
A0
350
48
  3
A1
350
49
  3
A2
350
4A
  3
A3
350
4B
  3
A4
350
4C
  3
A5
350
4D
  3
A6
350
4E
  3
A7
350
4F
  3
A8
350
50
  3
A9
350
51
  3
B0
350
52
  3
B1
350
53
  3
B2
350
54
  3
B3
350
55
  3
B4
350
56
  3
B5
350
57
  3
B6
350
58
  3
B7
350
59
  3
B8
350
5A
  3
B9
350
5B
  3
C0
350
5C
  3
C1
350
5D
  3
C2
350
5E
  3
C3
350
5F
  3
C4
350
60
  3
C5
350
61
  3
C6
350
62
  3
C7
350
63
  3
C8
350
64
  3
C9
350
65
  3
D0
350
66
  3
D1
350
67
  3
D2
350
68
  0
DICTIONARY
  5
2AF
102
{ACAD_REACTORS
330
C
102
}
330
C
100
AcDbDictionary
281
     1
  0
DICTIONARY
  5
69
102
{ACAD_REACTORS
330
C
102
}
330
C
100
AcDbDictionary
281
     1
  3
Standard
350
6A
  0
DICTIONARY
  5
2A
102
{ACAD_REACTORS
330
C
102
}
330
C
100
AcDbDictionary
281
     1
  3
2dWireframe
350
2F
  3
Basic
350
32
  3
Brighten
350
36
  3
ColorChange
350
3A
  3
Conceptual
350
34
  3
Dim
350
35
  3
EdgeColorOff
350
3D
  3
Facepattern
350
39
  3
Flat
350
2B
  3
FlatWithEdges
350
2C
  3
Gouraud
350
2D
  3
GouraudWithEdges
350
2E
  3
Hidden
350
31
  3
JitterOff
350
3B
  3
Linepattern
350
38
  3
OverhangOff
350
3C
  3
Realistic
350
33
  3
Shaded
350
42
  3
Shaded with edges
350
41
  3
Shades of Gray
350
3E
  3
Sketchy
350
3F
  3
Thicken
350
37
  3
Wireframe
350
30
  3
X-Ray
350
40
  0
XRECORD
  5
2AB
102
{ACAD_REACTORS
330
C
102
}
330
C
100
AcDbXrecord
280
     1
 90
        1
330
6A
  0
DICTIONARY
  5
26B
102
{ACAD_REACTORS
330
C
102
}
330
C
100
AcDbDictionary
281
     1
  3
CANNOSCALE
350
26C
  3
CENTEREXE
350
2B0
  3
CENTERLTYPEFILE
350
2B1
  3
CMLEADERSTYLE
350
2AD
  3
CTABLESTYLE
350
2AC
  3
MSLTSCALE
350
26D
  3
XCLIPFRAME
350
26E
  0
XRECORD
  5
26A
102
{ACAD_REACTORS
330
269
102
}
330
269
100
AcDbXrecord
280
     1
102
VTR_0.000_0.000_1.000_1.000_VISUALSTYLE
340
2F
102
VTR_0.000_0.000_1.000_1.000_GRIDDISPLAY
 70
     3
102
VTR_0.000_0.000_1.000_1.000_GRIDMAJOR
 70
     5
102
VTR_0.000_0.000_1.000_1.000_DEFAULTLIGHTING
280
     1
102
VTR_0.000_0.000_1.000_1.000_DEFAULTLIGHTINGTYPE
 70
     1
102
VTR_0.000_0.000_1.000_1.000_BRIGHTNESS
141
0.0
102
VTR_0.000_0.000_1.000_1.000_CONTRAST
142
0.0
  0
LAYOUT
  5
1E
102
{ACAD_REACTORS
330
1A
102
}
330
1A
100
AcDbPlotSettings
  1

  2
none_device
  4

  6

 40
0.0
 41
0.0
 42
0.0
 43
0.0
 44
0.0
 45
0.0
 46
0.0
 47
0.0
 48
0.0
 49
0.0
140
0.0
141
0.0
142
1.0
143
1.0
 70
   688
 72
     1
 73
     0
 74
     5
  7

 75
    16
 76
     0
 77
     2
 78
   300
147
1.0
148
0.0
149
0.0
100
AcDbLayout
  1
Layout1
 70
     1
 71
     1
 10
0.0
 20
0.0
 11
420.0
 21
297.0
 12
0.0
 22
0.0
 32
0.0
 14
1.000000000000000E+20
 24
1.000000000000000E+20
 34
1.000000000000000E+20
 15
-1.000000000000000E+20
 25
-1.000000000000000E+20
 35
-1.000000000000000E+20
146
0.0
 13
0.0
 23
0.0
 33
0.0
 16
1.0
 26
0.0
 36
0.0
 17
0.0
 27
1.0
 37
0.0
 76
     0
330
1B
  0
LAYOUT
  5
26
102
{ACAD_REACTORS
330
1A
102
}
330
1A
100
AcDbPlotSettings
  1

  2
none_device
  4

  6

 40
0.0
 41
0.0
 42
0.0
 43
0.0
 44
0.0
 45
0.0
 46
0.0
 47
0.0
 48
0.0
 49
0.0
140
0.0
141
0.0
142
1.0
143
1.0
 70
   688
 72
     1
 73
     0
 74
     5
  7

 75
    16
 76
     0
 77
     2
 78
   300
147
1.0
148
0.0
149
0.0
100
AcDbLayout
  1
Layout2
 70
     1
 71
     2
 10
0.0
 20
0.0
 11
0.0
 21
0.0
 12
0.0
 22
0.0
 32
0.0
 14
0.0
 24
0.0
 34
0.0
 15
0.0
 25
0.0
 35
0.0
146
0.0
 13
0.0
 23
0.0
 33
0.0
 16
1.0
 26
0.0
 36
0.0
 17
0.0
 27
1.0
 37
0.0
 76
     0
330
23
  0
LAYOUT
  5
22
102
{ACAD_REACTORS
330
1A
102
}
330
1A
100
AcDbPlotSettings
  1

  2
none_device
  4
Letter_(8.50_x_11.00_Inches)
  6

 40
6.35
 41
6.35
 42
6.35000508
 43
6.35000508
 44
215.9
 45
279.4
 46
0.0
 47
0.0
 48
0.0
 49
0.0
140
0.0
141
0.0
142
1.0
143
1.0
 70
  1712
 72
     1
 73
     0
 74
     0
  7

 75
     0
 76
     0
 77
     2
 78
   300
147
1.0
148
0.0
149
0.0
100
AcDbLayout
  1
Model
 70
     1
 71
     0
 10
0.0
 20
0.0
 11
420.0
 21
297.0
 12
0.0
 22
0.0
 32
0.0
 14
-85.62108269306407
 24
-74.89446317861379
 34
1.058849727303843
 15
57.31483288728064
 25
17.69485616610921
 35
13.7103150075111
146
0.0
 13
0.0
 23
0.0
 33
0.0
 16
1.0
 26
0.0
 36
0.0
 17
0.0
 27
1.0
 37
0.0
 76
     0
330
1F
331
29
  0
MATERIAL
  5
45
102
{ACAD_REACTORS
330
43
102
}
102
{ACAD_XDICTIONARY
360
2A1
102
}
330
43
100
AcDbMaterial
  1
ByBlock
  0
MATERIAL
  5
44
102
{ACAD_REACTORS
330
43
102
}
102
{ACAD_XDICTIONARY
360
29F
102
}
330
43
100
AcDbMaterial
  1
ByLayer
  0
MATERIAL
  5
46
102
{ACAD_REACTORS
330
43
102
}
102
{ACAD_XDICTIONARY
360
2A3
102
}
330
43
100
AcDbMaterial
  1
Global
  0
MLEADERSTYLE
  5
6C
102
{ACAD_REACTORS
330
6B
102
}
102
{ACAD_XDICTIONARY
360
2A9
102
}
330
6B
100
AcDbMLeaderStyle
170
     2
171
     1
172
     0
 90
        2
 40
0.0
 41
0.0
173
     1
 91
-1056964608
340
14
 92
       -2
290
     1
 42
2.0
291
     1
 43
8.0
  3
Standard
341
0
 44
4.0
300

342
11
174
     1
178
     6
175
     1
176
     0
 93
-1056964608
 45
4.0
292
     0
297
     0
 46
4.0
343
0
 94
-1056964608
 47
1.0
 49
1.0
140
1.0
293
     1
141
0.0
294
     1
177
     0
142
1.0
295
     0
296
     0
143
3.75
1001
ACAD_MLEADERVER
1070
     2
  0
MLINESTYLE
  5
18
102
{ACAD_REACTORS
330
17
102
}
330
17
100
AcDbMlineStyle
  2
Standard
 70
     0
  3

 62
   256
 51
90.0
 52
90.0
 71
     2
 49
0.5
 62
   256
  6
BYLAYER
 49
-0.5
 62
   256
  6
BYLAYER
  0
ACDBPLACEHOLDER
  5
F
102
{ACAD_REACTORS
330
E
102
}
330
E
  0
SCALE
  5
48
102
{ACAD_REACTORS
330
47
102
}
330
47
100
AcDbScale
 70
     0
300
1:1
140
1.0
141
1.0
290
     1
  0
SCALE
  5
49
102
{ACAD_REACTORS
330
47
102
}
330
47
100
AcDbScale
 70
     0
300
1:2
140
1.0
141
2.0
290
     0
  0
SCALE
  5
4A
102
{ACAD_REACTORS
330
47
102
}
330
47
100
AcDbScale
 70
     0
300
1:4
140
1.0
141
4.0
290
     0
  0
SCALE
  5
4B
102
{ACAD_REACTORS
330
47
102
}
330
47
100
AcDbScale
 70
     0
300
1:5
140
1.0
141
5.0
290
     0
  0
SCALE
  5
4C
102
{ACAD_REACTORS
330
47
102
}
330
47
100
AcDbScale
 70
     0
300
1:8
140
1.0
141
8.0
290
     0
  0
SCALE
  5
4D
102
{ACAD_REACTORS
330
47
102
}
330
47
100
AcDbScale
 70
     0
300
1:10
140
1.0
141
10.0
290
     0
  0
SCALE
  5
4E
102
{ACAD_REACTORS
330
47
102
}
330
47
100
AcDbScale
 70
     0
300
1:16
140
1.0
141
16.0
290
     0
  0
SCALE
  5
4F
102
{ACAD_REACTORS
330
47
102
}
330
47
100
AcDbScale
 70
     0
300
1:20
140
1.0
141
20.0
290
     0
  0
SCALE
  5
50
102
{ACAD_REACTORS
330
47
102
}
330
47
100
AcDbScale
 70
     0
300
1:30
140
1.0
141
30.0
290
     0
  0
SCALE
  5
51
102
{ACAD_REACTORS
330
47
102
}
330
47
100
AcDbScale
 70
     0
300
1:40
140
1.0
141
40.0
290
     0
  0
SCALE
  5
52
102
{ACAD_REACTORS
330
47
102
}
330
47
100
AcDbScale
 70
     0
300
1:50
140
1.0
141
50.0
290
     0
  0
SCALE
  5
53
102
{ACAD_REACTORS
330
47
102
}
330
47
100
AcDbScale
 70
     0
300
1:100
140
1.0
141
100.0
290
     0
  0
SCALE
  5
54
102
{ACAD_REACTORS
330
47
102
}
330
47
100
AcDbScale
 70
     0
300
2:1
140
2.0
141
1.0
290
     0
  0
SCALE
  5
55
102
{ACAD_REACTORS
330
47
102
}
330
47
100
AcDbScale
 70
     0
300
4:1
140
4.0
141
1.0
290
     0
  0
SCALE
  5
56
102
{ACAD_REACTORS
330
47
102
}
330
47
100
AcDbScale
 70
     0
300
8:1
140
8.0
141
1.0
290
     0
  0
SCALE
  5
57
102
{ACAD_REACTORS
330
47
102
}
330
47
100
AcDbScale
 70
     0
300
10:1
140
10.0
141
1.0
290
     0
  0
SCALE
  5
58
102
{ACAD_REACTORS
330
47
102
}
330
47
100
AcDbScale
 70
     0
300
100:1
140
100.0
141
1.0
290
     0
  0
SCALE
  5
59
102
{ACAD_REACTORS
330
47
102
}
330
47
100
AcDbScale
 70
     0
300
1/128" = 1'-0"
140
0.0078125
141
12.0
290
     0
  0
SCALE
  5
5A
102
{ACAD_REACTORS
330
47
102
}
330
47
100
AcDbScale
 70
     0
300
1/64" = 1'-0"
140
0.015625
141
12.0
290
     0
  0
SCALE
  5
5B
102
{ACAD_REACTORS
330
47
102
}
330
47
100
AcDbScale
 70
     0
300
1/32" = 1'-0"
140
0.03125
141
12.0
290
     0
  0
SCALE
  5
5C
102
{ACAD_REACTORS
330
47
102
}
330
47
100
AcDbScale
 70
     0
300
1/16" = 1'-0"
140
0.0625
141
12.0
290
     0
  0
SCALE
  5
5D
102
{ACAD_REACTORS
330
47
102
}
330
47
100
AcDbScale
 70
     0
300
3/32" = 1'-0"
140
0.09375
141
12.0
290
     0
  0
SCALE
  5
5E
102
{ACAD_REACTORS
330
47
102
}
330
47
100
AcDbScale
 70
     0
300
1/8" = 1'-0"
140
0.125
141
12.0
290
     0
  0
SCALE
  5
5F
102
{ACAD_REACTORS
330
47
102
}
330
47
100
AcDbScale
 70
     0
300
3/16" = 1'-0"
140
0.1875
141
12.0
290
     0
  0
SCALE
  5
60
102
{ACAD_REACTORS
330
47
102
}
330
47
100
AcDbScale
 70
     0
300
1/4" = 1'-0"
140
0.25
141
12.0
290
     0
  0
SCALE
  5
61
102
{ACAD_REACTORS
330
47
102
}
330
47
100
AcDbScale
 70
     0
300
3/8" = 1'-0"
140
0.375
141
12.0
290
     0
  0
SCALE
  5
62
102
{ACAD_REACTORS
330
47
102
}
330
47
100
AcDbScale
 70
     0
300
1/2" = 1'-0"
140
0.5
141
12.0
290
     0
  0
SCALE
  5
63
102
{ACAD_REACTORS
330
47
102
}
330
47
100
AcDbScale
 70
     0
300
3/4" = 1'-0"
140
0.75
141
12.0
290
     0
  0
SCALE
  5
64
102
{ACAD_REACTORS
330
47
102
}
330
47
100
AcDbScale
 70
     0
300
1" = 1'-0"
140
1.0
141
12.0
290
     0
  0
SCALE
  5
65
102
{ACAD_REACTORS
330
47
102
}
330
47
100
AcDbScale
 70
     0
300
1-1/2" = 1'-0"
140
1.5
141
12.0
290
     0
  0
SCALE
  5
66
102
{ACAD_REACTORS
330
47
102
}
330
47
100
AcDbScale
 70
     0
300
3" = 1'-0"
140
3.0
141
12.0
290
     0
  0
SCALE
  5
67
102
{ACAD_REACTORS
330
47
102
}
330
47
100
AcDbScale
 70
     0
300
6" = 1'-0"
140
6.0
141
12.0
290
     0
  0
SCALE
  5
68
102
{ACAD_REACTORS
330
47
102
}
330
47
100
AcDbScale
 70
     0
300
1'-0" = 1'-0"
140
12.0
141
12.0
290
     0
  0
TABLESTYLE
  5
6A
102
{ACAD_REACTORS
330
69
102
}
102
{ACAD_XDICTIONARY
360
2A5
102
}
330
69
100
AcDbTableStyle
  3
Standard
 70
     0
 71
     0
 40
0.06
 41
0.06
280
     0
281
     0
  7
Standard
140
4.5
170
     2
 62
     0
 63
   257
283
     0
274
    -2
284
     1
 64
     0
275
    -2
285
     1
 65
     0
276
    -2
286
     1
 66
     0
277
    -2
287
     1
 67
     0
278
    -2
288
     1
 68
     0
279
    -2
289
     1
 69
     0
  7
Standard
140
6.0
170
     5
 62
     0
 63
   257
283
     0
274
    -2
284
     1
 64
     0
275
    -2
285
     1
 65
     0
276
    -2
286
     1
 66
     0
277
    -2
287
     1
 67
     0
278
    -2
288
     1
 68
     0
279
    -2
289
     1
 69
     0
  7
Standard
140
4.5
170
     5
 62
     0
 63
   257
283
     0
274
    -2
284
     1
 64
     0
275
    -2
285
     1
 65
     0
276
    -2
286
     1
 66
     0
277
    -2
287
     1
 67
     0
278
    -2
288
     1
 68
     0
279
    -2
289
     1
 69
     0
  0
VISUALSTYLE
  5
2F
102
{ACAD_REACTORS
330
2A
102
}
102
{ACAD_XDICTIONARY
360
277
102
}
330
2A
100
AcDbVisualStyle
  2
2dWireframe
 70
     4
 71
     0
 72
     2
 73
     0
 90
        0
 40
0.6
 41
30.0
 62
     5
 63
     7
421
 16777215
 74
     1
 91
        4
 64
     7
 65
   257
 75
     1
175
     1
 42
1.0
 92
        0
 66
   257
 43
1.0
 76
     1
 77
     6
 78
     2
 67
     7
 79
     5
170
     0
171
     0
290
     0
174
     0
 93
        1
 44
0.0
173
     0
291
     0
 45
0.0
1001
ACAD
1000
AcDbSavedByObjectVersion
1070
     0
  0
VISUALSTYLE
  5
32
102
{ACAD_REACTORS
330
2A
102
}
102
{ACAD_XDICTIONARY
360
27D
102
}
330
2A
100
AcDbVisualStyle
  2
Basic
 70
     7
 71
     1
 72
     0
 73
     1
 90
        0
 40
0.6
 41
30.0
 62
     5
 63
     7
421
 16777215
 74
     0
 91
        4
 64
     7
 65
   257
 75
     1
175
     1
 42
1.0
 92
        8
 66
     7
 43
1.0
 76
     1
 77
     6
 78
     2
 67
     7
 79
     5
170
     0
171
     0
290
     0
174
     0
 93
        1
 44
0.0
173
     0
291
     1
 45
0.0
1001
ACAD
1000
AcDbSavedByObjectVersion
1070
     0
  0
VISUALSTYLE
  5
36
102
{ACAD_REACTORS
330
2A
102
}
102
{ACAD_XDICTIONARY
360
285
102
}
330
2A
100
AcDbVisualStyle
  2
Brighten
 70
    12
 71
     2
 72
     2
 73
     0
 90
        0
 40
0.6
 41
30.0
 62
     5
 63
     7
421
 16777215
 74
     1
 91
        4
 64
     7
 65
   257
 75
     1
175
     1
 42
1.0
 92
        8
 66
     7
 43
1.0
 76
     1
 77
     6
 78
     2
 67
     7
 79
     5
170
     0
171
     0
290
     0
174
     0
 93
        1
 44
50.0
173
     0
291
     1
 45
0.0
1001
ACAD
1000
AcDbSavedByObjectVersion
1070
     0
  0
VISUALSTYLE
  5
3A
102
{ACAD_REACTORS
330
2A
102
}
102
{ACAD_XDICTIONARY
360
28D
102
}
330
2A
100
AcDbVisualStyle
  2
ColorChange
 70
    16
 71
     2
 72
     2
 73
     3
 90
        0
 40
0.6
 41
30.0
 62
     5
 63
     8
421
  8421504
 74
     1
 91
        4
 64
     7
 65
   257
 75
     1
175
     1
 42
1.0
 92
        8
 66
     8
424
  8421504
 43
1.0
 76
     1
 77
     6
 78
     2
 67
     7
 79
     5
170
     0
171
     0
290
     0
174
     0
 93
        1
 44
0.0
173
     0
291
     1
 45
0.0
1001
ACAD
1000
AcDbSavedByObjectVersion
1070
     0
  0
VISUALSTYLE
  5
34
102
{ACAD_REACTORS
330
2A
102
}
102
{ACAD_XDICTIONARY
360
281
102
}
330
2A
100
AcDbVisualStyle
  2
Conceptual
 70
     9
 71
     3
 72
     2
 73
     0
 90
        0
 40
0.6
 41
30.0
 62
     5
 63
     7
421
 16777215
 74
     2
 91
        2
 64
     7
 65
   257
 75
     1
175
     1
 42
179.0
 92
        8
 66
     7
 43
1.0
 76
     1
 77
     6
 78
     2
 67
     7
 79
     3
170
     0
171
     0
290
     0
174
     0
 93
        1
 44
0.0
173
     0
291
     0
 45
0.0
1001
ACAD
1000
AcDbSavedByObjectVersion
1070
     0
  0
VISUALSTYLE
  5
35
102
{ACAD_REACTORS
330
2A
102
}
102
{ACAD_XDICTIONARY
360
283
102
}
330
2A
100
AcDbVisualStyle
  2
Dim
 70
    11
 71
     2
 72
     2
 73
     0
 90
        0
 40
0.6
 41
30.0
 62
     5
 63
     7
421
 16777215
 74
     1
 91
        4
 64
     7
 65
   257
 75
     1
175
     1
 42
1.0
 92
        8
 66
     7
 43
1.0
 76
     1
 77
     6
 78
     2
 67
     7
 79
     5
170
     0
171
     0
290
     0
174
     0
 93
        1
 44
-50.0
173
     0
291
     1
 45
0.0
1001
ACAD
1000
AcDbSavedByObjectVersion
1070
     0
  0
VISUALSTYLE
  5
3D
102
{ACAD_REACTORS
330
2A
102
}
102
{ACAD_XDICTIONARY
360
293
102
}
330
2A
100
AcDbVisualStyle
  2
EdgeColorOff
 70
    22
 71
     2
 72
     2
 73
     0
 90
        0
 40
0.6
 41
30.0
 62
     5
 63
     7
421
 16777215
 74
     1
 91
        4
 64
     7
 65
   257
 75
     1
175
     1
 42
1.0
 92
        8
 66
     7
 43
1.0
 76
     1
 77
     6
 78
     2
 67
     7
 79
     5
170
     0
171
     0
290
     0
174
     0
 93
        1
 44
0.0
173
     0
291
     1
 45
0.0
1001
ACAD
1000
AcDbSavedByObjectVersion
1070
     0
  0
VISUALSTYLE
  5
39
102
{ACAD_REACTORS
330
2A
102
}
102
{ACAD_XDICTIONARY
360
28B
102
}
330
2A
100
AcDbVisualStyle
  2
Facepattern
 70
    15
 71
     2
 72
     2
 73
     0
 90
        0
 40
0.6
 41
30.0
 62
     5
 63
     7
421
 16777215
 74
     1
 91
        4
 64
     7
 65
   257
 75
     1
175
     1
 42
1.0
 92
        8
 66
     7
 43
1.0
 76
     1
 77
     6
 78
     2
 67
     7
 79
     5
170
     0
171
     0
290
     0
174
     0
 93
        1
 44
0.0
173
     0
291
     1
 45
0.0
1001
ACAD
1000
AcDbSavedByObjectVersion
1070
     0
  0
VISUALSTYLE
  5
2B
102
{ACAD_REACTORS
330
2A
102
}
102
{ACAD_XDICTIONARY
360
26F
102
}
330
2A
100
AcDbVisualStyle
  2
Flat
 70
     0
 71
     2
 72
     1
 73
     1
 90
        2
 40
0.6
 41
30.0
 62
     5
 63
     7
421
 16777215
 74
     0
 91
        0
 64
     7
 65
   257
 75
     1
175
     1
 42
1.0
 92
        8
 66
     7
 43
1.0
 76
     1
 77
     6
 78
     2
 67
     7
 79
     5
170
     0
171
     0
290
     0
174
     0
 93
       13
 44
0.0
173
     0
291
     1
 45
0.0
1001
ACAD
1000
AcDbSavedByObjectVersion
1070
     0
  0
VISUALSTYLE
  5
2C
102
{ACAD_REACTORS
330
2A
102
}
102
{ACAD_XDICTIONARY
360
271
102
}
330
2A
100
AcDbVisualStyle
  2
FlatWithEdges
 70
     1
 71
     2
 72
     1
 73
     1
 90
        2
 40
0.6
 41
30.0
 62
     5
 63
     7
421
 16777215
 74
     1
 91
        0
 64
     7
 65
   257
 75
     1
175
     1
 42
1.0
 92
        0
 66
   257
 43
1.0
 76
     1
 77
     6
 78
     2
 67
     7
 79
     5
170
     0
171
     0
290
     0
174
     0
 93
       13
 44
0.0
173
     0
291
     1
 45
0.0
1001
ACAD
1000
AcDbSavedByObjectVersion
1070
     0
  0
VISUALSTYLE
  5
2D
102
{ACAD_REACTORS
330
2A
102
}
102
{ACAD_XDICTIONARY
360
273
102
}
330
2A
100
AcDbVisualStyle
  2
Gouraud
 70
     2
 71
     2
 72
     2
 73
     1
 90
        2
 40
0.6
 41
30.0
 62
     5
 63
     7
421
 16777215
 74
     0
 91
        0
 64
     7
 65
   257
 75
     1
175
     1
 42
1.0
 92
        0
 66
     7
 43
1.0
 76
     1
 77
     6
 78
     2
 67
     7
 79
     5
170
     0
171
     0
290
     0
174
     0
 93
       13
 44
0.0
173
     0
291
     1
 45
0.0
1001
ACAD
1000
AcDbSavedByObjectVersion
1070
     0
  0
VISUALSTYLE
  5
2E
102
{ACAD_REACTORS
330
2A
102
}
102
{ACAD_XDICTIONARY
360
275
102
}
330
2A
100
AcDbVisualStyle
  2
GouraudWithEdges
 70
     3
 71
     2
 72
     2
 73
     1
 90
        2
 40
0.6
 41
30.0
 62
     5
 63
     7
421
 16777215
 74
     1
 91
        0
 64
     7
 65
   257
 75
     1
175
     1
 42
1.0
 92
        0
 66
   257
 43
1.0
 76
     1
 77
     6
 78
     2
 67
     7
 79
     5
170
     0
171
     0
290
     0
174
     0
 93
       13
 44
0.0
173
     0
291
     1
 45
0.0
1001
ACAD
1000
AcDbSavedByObjectVersion
1070
     0
  0
VISUALSTYLE
  5
31
102
{ACAD_REACTORS
330
2A
102
}
102
{ACAD_XDICTIONARY
360
27B
102
}
330
2A
100
AcDbVisualStyle
  2
Hidden
 70
     6
 71
     1
 72
     2
 73
     2
 90
        0
 40
0.6
 41
30.0
 62
     5
 63
     7
421
 16777215
 74
     2
 91
        2
 64
     7
 65
   257
 75
     2
175
     1
 42
40.0
 92
        0
 66
   257
 43
1.0
 76
     1
 77
     6
 78
     2
 67
     7
 79
     3
170
     0
171
     0
290
     0
174
     0
 93
        1
 44
0.0
173
     0
291
     0
 45
0.0
1001
ACAD
1000
AcDbSavedByObjectVersion
1070
     0
  0
VISUALSTYLE
  5
3B
102
{ACAD_REACTORS
330
2A
102
}
102
{ACAD_XDICTIONARY
360
28F
102
}
330
2A
100
AcDbVisualStyle
  2
JitterOff
 70
    20
 71
     2
 72
     2
 73
     0
 90
        0
 40
0.6
 41
30.0
 62
     5
 63
     7
421
 16777215
 74
     1
 91
        4
 64
     7
 65
   257
 75
     1
175
     1
 42
1.0
 92
       10
 66
     7
 43
1.0
 76
     1
 77
     6
 78
     2
 67
     7
 79
     5
170
     0
171
     0
290
     0
174
     0
 93
        1
 44
0.0
173
     0
291
     1
 45
0.0
1001
ACAD
1000
AcDbSavedByObjectVersion
1070
     0
  0
VISUALSTYLE
  5
38
102
{ACAD_REACTORS
330
2A
102
}
102
{ACAD_XDICTIONARY
360
289
102
}
330
2A
100
AcDbVisualStyle
  2
Linepattern
 70
    14
 71
     2
 72
     2
 73
     0
 90
        0
 40
0.6
 41
30.0
 62
     5
 63
     7
421
 16777215
 74
     1
 91
        4
 64
     7
 65
   257
 75
     7
175
     7
 42
1.0
 92
        8
 66
     7
 43
1.0
 76
     1
 77
     6
 78
     2
 67
     7
 79
     5
170
     0
171
     0
290
     0
174
     0
 93
        1
 44
0.0
173
     0
291
     1
 45
0.0
1001
ACAD
1000
AcDbSavedByObjectVersion
1070
     0
  0
VISUALSTYLE
  5
3C
102
{ACAD_REACTORS
330
2A
102
}
102
{ACAD_XDICTIONARY
360
291
102
}
330
2A
100
AcDbVisualStyle
  2
OverhangOff
 70
    21
 71
     2
 72
     2
 73
     0
 90
        0
 40
0.6
 41
30.0
 62
     5
 63
     7
421
 16777215
 74
     1
 91
        4
 64
     7
 65
   257
 75
     1
175
     1
 42
1.0
 92
        9
 66
     7
 43
1.0
 76
     1
 77
     6
 78
     2
 67
     7
 79
     5
170
     0
171
     0
290
     0
174
     0
 93
        1
 44
0.0
173
     0
291
     1
 45
0.0
1001
ACAD
1000
AcDbSavedByObjectVersion
1070
     0
  0
VISUALSTYLE
  5
33
102
{ACAD_REACTORS
330
2A
102
}
102
{ACAD_XDICTIONARY
360
27F
102
}
330
2A
100
AcDbVisualStyle
  2
Realistic
 70
     8
 71
     2
 72
     3
 73
     0
 90
        2
 40
0.6
 41
30.0
 62
     5
 63
     7
421
 16777215
 74
     0
 91
        0
 64
     7
 65
   257
 75
     1
175
     1
 42
1.0
 92
        8
 66
   257
 43
1.0
 76
     1
 77
     6
 78
     2
 67
     7
 79
     3
170
     0
171
     0
290
     0
174
     0
 93
       13
 44
0.0
173
     0
291
     0
 45
0.0
1001
ACAD
1000
AcDbSavedByObjectVersion
1070
     0
  0
VISUALSTYLE
  5
42
102
{ACAD_REACTORS
330
2A
102
}
102
{ACAD_XDICTIONARY
360
29D
102
}
330
2A
100
AcDbVisualStyle
  2
Shaded
 70
    27
 71
     2
 72
     2
 73
     1
 90
        2
 40
0.6
 41
30.0
 62
     5
 63
     7
421
 16777215
 74
     0
 91
        4
 64
     7
 65
   257
 75
     1
175
     1
 42
1.0
 92
        8
 66
   257
 43
1.0
 76
     1
 77
     6
 78
     2
 67
     8
425
  7895160
 79
     3
170
     0
171
     0
290
     0
174
     0
 93
        5
 44
0.0
173
     0
291
     0
 45
0.0
1001
ACAD
1000
AcDbSavedByObjectVersion
1070
     0
  0
VISUALSTYLE
  5
41
102
{ACAD_REACTORS
330
2A
102
}
102
{ACAD_XDICTIONARY
360
29B
102
}
330
2A
100
AcDbVisualStyle
  2
Shaded with edges
 70
    26
 71
     2
 72
     2
 73
     1
 90
        2
 40
0.6
 41
30.0
 62
     5
 63
     7
421
 16777215
 74
     1
 91
       10
 64
     7
 65
   257
 75
     2
175
     1
 42
1.0
 92
        8
 66
   257
 43
1.0
 76
     1
 77
     6
 78
     2
 67
     7
 79
     3
170
     0
171
     0
290
     0
174
     0
 93
        5
 44
0.0
173
     0
291
     0
 45
0.0
1001
ACAD
1000
AcDbSavedByObjectVersion
1070
     0
  0
VISUALSTYLE
  5
3E
102
{ACAD_REACTORS
330
2A
102
}
102
{ACAD_XDICTIONARY
360
295
102
}
330
2A
100
AcDbVisualStyle
  2
Shades of Gray
 70
    23
 71
     2
 72
     2
 73
     3
 90
        0
 40
0.6
 41
30.0
 62
     5
 63
     7
421
 16777215
 74
     2
 91
        2
 64
     7
 65
     7
 75
     1
175
     1
 42
40.0
 92
        8
 66
     7
 43
1.0
 76
     1
 77
     6
 78
     2
 67
     7
 79
     3
170
     0
171
     0
290
     0
174
     0
 93
        1
 44
0.0
173
     0
291
     0
 45
0.0
1001
ACAD
1000
AcDbSavedByObjectVersion
1070
     0
  0
VISUALSTYLE
  5
3F
102
{ACAD_REACTORS
330
2A
102
}
102
{ACAD_XDICTIONARY
360
297
102
}
330
2A
100
AcDbVisualStyle
  2
Sketchy
 70
    24
 71
     1
 72
     2
 73
     2
 90
        0
 40
0.6
 41
30.0
 62
     5
 63
     7
421
 16777215
 74
     2
 91
        2
 64
     7
 65
     7
 75
     1
175
     1
 42
40.0
 92
       11
 66
     7
 43
1.0
 76
     1
 77
     6
 78
     2
 67
     7
 79
     6
170
     0
171
     0
290
     0
174
     0
 93
        1
 44
0.0
173
     0
291
     0
 45
0.0
1001
ACAD
1000
AcDbSavedByObjectVersion
1070
     0
  0
VISUALSTYLE
  5
37
102
{ACAD_REACTORS
330
2A
102
}
102
{ACAD_XDICTIONARY
360
287
102
}
330
2A
100
AcDbVisualStyle
  2
Thicken
 70
    13
 71
     2
 72
     2
 73
     0
 90
        0
 40
0.6
 41
30.0
 62
     5
 63
     7
421
 16777215
 74
     1
 91
        4
 64
     7
 65
   257
 75
     1
175
     1
 42
1.0
 92
       12
 66
     7
 43
1.0
 76
     1
 77
     6
 78
     2
 67
     7
 79
     5
170
     0
171
     0
290
     0
174
     0
 93
        1
 44
0.0
173
     0
291
     1
 45
0.0
1001
ACAD
1000
AcDbSavedByObjectVersion
1070
     0
  0
VISUALSTYLE
  5
30
102
{ACAD_REACTORS
330
2A
102
}
102
{ACAD_XDICTIONARY
360
279
102
}
330
2A
100
AcDbVisualStyle
  2
Wireframe
 70
     5
 71
     0
 72
     2
 73
     0
 90
        0
 40
0.6
 41
30.0
 62
     5
 63
     7
421
 16777215
 74
     1
 91
        4
 64
     7
 65
   257
 75
     1
175
     1
 42
1.0
 92
        0
 66
   257
 43
1.0
 76
     1
 77
     6
 78
     2
 67
     7
 79
     3
170
     0
171
     0
290
     0
174
     0
 93
        1
 44
0.0
173
     0
291
     0
 45
0.0
1001
ACAD
1000
AcDbSavedByObjectVersion
1070
     0
  0
VISUALSTYLE
  5
40
102
{ACAD_REACTORS
330
2A
102
}
102
{ACAD_XDICTIONARY
360
299
102
}
330
2A
100
AcDbVisualStyle
  2
X-Ray
 70
    25
 71
     2
 72
     2
 73
     1
 90
        1
 40
0.5
 41
30.0
 62
     5
 63
     7
421
 16777215
 74
     1
 91
        0
 64
     7
 65
   257
 75
     1
175
     1
 42
1.0
 92
        8
 66
     7
 43
1.0
 76
     1
 77
     6
 78
     2
 67
     7
 79
     3
170
     0
171
     0
290
     0
174
     0
 93
       13
 44
0.0
173
     0
291
     0
 45
0.0
1001
ACAD
1000
AcDbSavedByObjectVersion
1070
     0
  0
DICTIONARYVAR
  5
26C
102
{ACAD_REACTORS
330
26B
102
}
330
26B
100
DictionaryVariables
280
     0
  1
1:1
  0
DICTIONARYVAR
  5
2B0
102
{ACAD_REACTORS
330
26B
102
}
330
26B
100
DictionaryVariables
280
     0
  1
3.500000
  0
DICTIONARYVAR
  5
2B1
102
{ACAD_REACTORS
330
26B
102
}
330
26B
100
DictionaryVariables
280
     0
  1
acadiso.lin
  0
DICTIONARYVAR
  5
2AD
102
{ACAD_REACTORS
330
26B
102
}
330
26B
100
DictionaryVariables
280
     0
  1
Standard
  0
DICTIONARYVAR
  5
2AC
102
{ACAD_REACTORS
330
26B
102
}
330
26B
100
DictionaryVariables
280
     0
  1
Standard
  0
DICTIONARYVAR
  5
26D
102
{ACAD_REACTORS
330
26B
102
}
330
26B
100
DictionaryVariables
280
     0
  1
1
  0
DICTIONARYVAR
  5
26E
102
{ACAD_REACTORS
330
26B
102
}
330
26B
100
DictionaryVariables
280
     0
  1
2
  0
DICTIONARY
  5
2A1
330
45
100
AcDbDictionary
280
     1
281
     1
  3
ACAD_XREC_ROUNDTRIP
360
2A2
  0
DICTIONARY
  5
29F
330
44
100
AcDbDictionary
280
     1
281
     1
  3
ACAD_XREC_ROUNDTRIP
360
2A0
  0
DICTIONARY
  5
2A3
330
46
100
AcDbDictionary
280
     1
281
     1
  3
ACAD_XREC_ROUNDTRIP
360
2A4
  0
DICTIONARY
  5
2A9
330
6C
100
AcDbDictionary
280
     1
281
     1
  3
ACAD_XREC_ROUNDTRIP
360
2AA
  0
DICTIONARY
  5
2A5
330
6A
100
AcDbDictionary
280
     1
281
     1
  3
ACAD_ROUNDTRIP_2008_TABLESTYLE_CELLSTYLEMAP
360
2A7
  3
ACAD_XREC_ROUNDTRIP
360
2A6
  0
DICTIONARY
  5
277
330
2F
100
AcDbDictionary
280
     1
281
     1
  3
ACAD_XREC_ROUNDTRIP
360
278
  0
DICTIONARY
  5
27D
330
32
100
AcDbDictionary
280
     1
281
     1
  3
ACAD_XREC_ROUNDTRIP
360
27E
  0
DICTIONARY
  5
285
330
36
100
AcDbDictionary
280
     1
281
     1
  3
ACAD_XREC_ROUNDTRIP
360
286
  0
DICTIONARY
  5
28D
330
3A
100
AcDbDictionary
280
     1
281
     1
  3
ACAD_XREC_ROUNDTRIP
360
28E
  0
DICTIONARY
  5
281
330
34
100
AcDbDictionary
280
     1
281
     1
  3
ACAD_XREC_ROUNDTRIP
360
282
  0
DICTIONARY
  5
283
330
35
100
AcDbDictionary
280
     1
281
     1
  3
ACAD_XREC_ROUNDTRIP
360
284
  0
DICTIONARY
  5
293
330
3D
100
AcDbDictionary
280
     1
281
     1
  3
ACAD_XREC_ROUNDTRIP
360
294
  0
DICTIONARY
  5
28B
330
39
100
AcDbDictionary
280
     1
281
     1
  3
ACAD_XREC_ROUNDTRIP
360
28C
  0
DICTIONARY
  5
26F
330
2B
100
AcDbDictionary
280
     1
281
     1
  3
ACAD_XREC_ROUNDTRIP
360
270
  0
DICTIONARY
  5
271
330
2C
100
AcDbDictionary
280
     1
281
     1
  3
ACAD_XREC_ROUNDTRIP
360
272
  0
DICTIONARY
  5
273
330
2D
100
AcDbDictionary
280
     1
281
     1
  3
ACAD_XREC_ROUNDTRIP
360
274
  0
DICTIONARY
  5
275
330
2E
100
AcDbDictionary
280
     1
281
     1
  3
ACAD_XREC_ROUNDTRIP
360
276
  0
DICTIONARY
  5
27B
330
31
100
AcDbDictionary
280
     1
281
     1
  3
ACAD_XREC_ROUNDTRIP
360
27C
  0
DICTIONARY
  5
28F
330
3B
100
AcDbDictionary
280
     1
281
     1
  3
ACAD_XREC_ROUNDTRIP
360
290
  0
DICTIONARY
  5
289
330
38
100
AcDbDictionary
280
     1
281
     1
  3
ACAD_XREC_ROUNDTRIP
360
28A
  0
DICTIONARY
  5
291
330
3C
100
AcDbDictionary
280
     1
281
     1
  3
ACAD_XREC_ROUNDTRIP
360
292
  0
DICTIONARY
  5
27F
330
33
100
AcDbDictionary
280
     1
281
     1
  3
ACAD_XREC_ROUNDTRIP
360
280
  0
DICTIONARY
  5
29D
330
42
100
AcDbDictionary
280
     1
281
     1
  3
ACAD_XREC_ROUNDTRIP
360
29E
  0
DICTIONARY
  5
29B
330
41
100
AcDbDictionary
280
     1
281
     1
  3
ACAD_XREC_ROUNDTRIP
360
29C
  0
DICTIONARY
  5
295
330
3E
100
AcDbDictionary
280
     1
281
     1
  3
ACAD_XREC_ROUNDTRIP
360
296
  0
DICTIONARY
  5
297
330
3F
100
AcDbDictionary
280
     1
281
     1
  3
ACAD_XREC_ROUNDTRIP
360
298
  0
DICTIONARY
  5
287
330
37
100
AcDbDictionary
280
     1
281
     1
  3
ACAD_XREC_ROUNDTRIP
360
288
  0
DICTIONARY
  5
279
330
30
100
AcDbDictionary
280
     1
281
     1
  3
ACAD_XREC_ROUNDTRIP
360
27A
  0
DICTIONARY
  5
299
330
40
100
AcDbDictionary
280
     1
281
     1
  3
ACAD_XREC_ROUNDTRIP
360
29A
  0
XRECORD
  5
2A2
102
{ACAD_REACTORS
330
2A1
102
}
330
2A1
100
AcDbXrecord
280
     1
102
MATERIAL
148
0.0
149
0.0
149
0.0
 93
        0
 94
      127
282
     0
 72
     1
 77
     1
171
     1
175
     1
179
     1
273
     0
  0
XRECORD
  5
2A0
102
{ACAD_REACTORS
330
29F
102
}
330
29F
100
AcDbXrecord
280
     1
102
MATERIAL
148
0.0
149
0.0
149
0.0
 93
        0
 94
      127
282
     0
 72
     1
 77
     1
171
     1
175
     1
179
     1
273
     0
  0
XRECORD
  5
2A4
102
{ACAD_REACTORS
330
2A3
102
}
330
2A3
100
AcDbXrecord
280
     1
102
MATERIAL
148
0.0
149
0.0
149
0.0
 93
        0
 94
      127
282
     0
 72
     1
 77
     1
171
     1
175
     1
179
     1
273
     0
  0
XRECORD
  5
2AA
102
{ACAD_REACTORS
330
2A9
102
}
330
2A9
100
AcDbXrecord
280
     1
102
ACAD_ROUNDTRIP_2010_MLEADER_STYLE
  0
CELLSTYLEMAP
  5
2A7
102
{ACAD_REACTORS
330
2A5
102
}
330
2A5
100
AcDbCellStyleMap
 90
        3
300
CELLSTYLE
  1
TABLEFORMAT_BEGIN
 90
        5
170
     1
 91
        0
 92
    32768
 62
   257
 93
        1
300
CONTENTFORMAT
  1
CONTENTFORMAT_BEGIN
 90
        0
 91
        0
 92
        4
 93
        0
300

 40
0.0
140
1.0
 94
        5
 62
     0
340
11
144
6.0
309
CONTENTFORMAT_END
171
     1
301
MARGIN
  1
CELLMARGIN_BEGIN
 40
1.5
 40
1.5
 40
1.5
 40
1.5
 40
1.5
 40
1.5
309
CELLMARGIN_END
 94
        6
 95
        1
302
GRIDFORMAT
  1
GRIDFORMAT_BEGIN
 90
        0
 91
        1
 62
     0
 92
       -2
340
14
 93
        0
 40
0.045
309
GRIDFORMAT_END
 95
        2
302
GRIDFORMAT
  1
GRIDFORMAT_BEGIN
 90
        0
 91
        1
 62
     0
 92
       -2
340
14
 93
        0
 40
0.045
309
GRIDFORMAT_END
 95
        4
302
GRIDFORMAT
  1
GRIDFORMAT_BEGIN
 90
        0
 91
        1
 62
     0
 92
       -2
340
14
 93
        0
 40
0.045
309
GRIDFORMAT_END
 95
        8
302
GRIDFORMAT
  1
GRIDFORMAT_BEGIN
 90
        0
 91
        1
 62
     0
 92
       -2
340
14
 93
        0
 40
0.045
309
GRIDFORMAT_END
 95
       16
302
GRIDFORMAT
  1
GRIDFORMAT_BEGIN
 90
        0
 91
        1
 62
     0
 92
       -2
340
14
 93
        0
 40
0.045
309
GRIDFORMAT_END
 95
       32
302
GRIDFORMAT
  1
GRIDFORMAT_BEGIN
 90
        0
 91
        1
 62
     0
 92
       -2
340
14
 93
        0
 40
0.045
309
GRIDFORMAT_END
309
TABLEFORMAT_END
  1
CELLSTYLE_BEGIN
 90
        1
 91
        1
300
_TITLE
309
CELLSTYLE_END
300
CELLSTYLE
  1
TABLEFORMAT_BEGIN
 90
        5
170
     1
 91
        0
 92
        0
 62
   257
 93
        1
300
CONTENTFORMAT
  1
CONTENTFORMAT_BEGIN
 90
        0
 91
        0
 92
        4
 93
        0
300

 40
0.0
140
1.0
 94
        5
 62
     0
340
11
144
4.5
309
CONTENTFORMAT_END
171
     1
301
MARGIN
  1
CELLMARGIN_BEGIN
 40
1.5
 40
1.5
 40
1.5
 40
1.5
 40
1.5
 40
1.5
309
CELLMARGIN_END
 94
        6
 95
        1
302
GRIDFORMAT
  1
GRIDFORMAT_BEGIN
 90
        0
 91
        1
 62
     0
 92
       -2
340
14
 93
        0
 40
0.045
309
GRIDFORMAT_END
 95
        2
302
GRIDFORMAT
  1
GRIDFORMAT_BEGIN
 90
        0
 91
        1
 62
     0
 92
       -2
340
14
 93
        0
 40
0.045
309
GRIDFORMAT_END
 95
        4
302
GRIDFORMAT
  1
GRIDFORMAT_BEGIN
 90
        0
 91
        1
 62
     0
 92
       -2
340
14
 93
        0
 40
0.045
309
GRIDFORMAT_END
 95
        8
302
GRIDFORMAT
  1
GRIDFORMAT_BEGIN
 90
        0
 91
        1
 62
     0
 92
       -2
340
14
 93
        0
 40
0.045
309
GRIDFORMAT_END
 95
       16
302
GRIDFORMAT
  1
GRIDFORMAT_BEGIN
 90
        0
 91
        1
 62
     0
 92
       -2
340
14
 93
        0
 40
0.045
309
GRIDFORMAT_END
 95
       32
302
GRIDFORMAT
  1
GRIDFORMAT_BEGIN
 90
        0
 91
        1
 62
     0
 92
       -2
340
14
 93
        0
 40
0.045
309
GRIDFORMAT_END
309
TABLEFORMAT_END
  1
CELLSTYLE_BEGIN
 90
        2
 91
        1
300
_HEADER
309
CELLSTYLE_END
300
CELLSTYLE
  1
TABLEFORMAT_BEGIN
 90
        5
170
     1
 91
        0
 92
        0
 62
   257
 93
        1
300
CONTENTFORMAT
  1
CONTENTFORMAT_BEGIN
 90
        0
 91
        0
 92
        4
 93
        0
300

 40
0.0
140
1.0
 94
        2
 62
     0
340
11
144
4.5
309
CONTENTFORMAT_END
171
     1
301
MARGIN
  1
CELLMARGIN_BEGIN
 40
1.5
 40
1.5
 40
1.5
 40
1.5
 40
1.5
 40
1.5
309
CELLMARGIN_END
 94
        6
 95
        1
302
GRIDFORMAT
  1
GRIDFORMAT_BEGIN
 90
        0
 91
        1
 62
     0
 92
       -2
340
14
 93
        0
 40
0.045
309
GRIDFORMAT_END
 95
        2
302
GRIDFORMAT
  1
GRIDFORMAT_BEGIN
 90
        0
 91
        1
 62
     0
 92
       -2
340
14
 93
        0
 40
0.045
309
GRIDFORMAT_END
 95
        4
302
GRIDFORMAT
  1
GRIDFORMAT_BEGIN
 90
        0
 91
        1
 62
     0
 92
       -2
340
14
 93
        0
 40
0.045
309
GRIDFORMAT_END
 95
        8
302
GRIDFORMAT
  1
GRIDFORMAT_BEGIN
 90
        0
 91
        1
 62
     0
 92
       -2
340
14
 93
        0
 40
0.045
309
GRIDFORMAT_END
 95
       16
302
GRIDFORMAT
  1
GRIDFORMAT_BEGIN
 90
        0
 91
        1
 62
     0
 92
       -2
340
14
 93
        0
 40
0.045
309
GRIDFORMAT_END
 95
       32
302
GRIDFORMAT
  1
GRIDFORMAT_BEGIN
 90
        0
 91
        1
 62
     0
 92
       -2
340
14
 93
        0
 40
0.045
309
GRIDFORMAT_END
309
TABLEFORMAT_END
  1
CELLSTYLE_BEGIN
 90
        3
 91
        2
300
_DATA
309
CELLSTYLE_END
  0
XRECORD
  5
2A6
102
{ACAD_REACTORS
330
2A5
102
}
330
2A5
100
AcDbXrecord
280
     1
102
ACAD_ROUNDTRIP_PRE2007_TABLESTYLE
 90
        4
 91
        0
  1

 92
        4
 93
        0
  2

 94
        4
 95
        0
  3

  0
XRECORD
  5
278
102
{ACAD_REACTORS
330
277
102
}
330
277
100
AcDbXrecord
280
     1
102
RTVSPropertyOp0
 70
     1
102
RTVSPropertyOp1
 70
     1
102
RTVSPropertyOp2
 70
     1
102
RTVSPropertyOp3
 70
     1
102
RTVSPropertyOp4
 70
     1
102
RTVSPropertyOp5
 70
     1
102
RTVSPropertyOp6
 70
     1
102
RTVSPropertyOp7
 70
     1
102
RTVSPropertyOp8
 70
     1
102
RTVSPropertyOp9
 70
     1
102
RTVSPropertyOp10
 70
     1
102
RTVSPropertyOp11
 70
     1
102
RTVSPropertyOp12
 70
     1
102
RTVSPropertyOp13
 70
     1
102
RTVSPropertyOp14
 70
     1
102
RTVSPropertyOp15
 70
     1
102
RTVSPropertyOp16
 70
     1
102
RTVSPropertyOp17
 70
     1
102
RTVSPropertyOp18
 70
     1
102
RTVSPropertyOp19
 70
     1
102
RTVSPropertyOp20
 70
     1
102
RTVSPropertyOp21
 70
     1
102
RTVSPropertyOp22
 70
     1
102
RTVSPropertyOp23
 70
     1
102
RTVSPropertyOp24
 70
     1
102
RTVSPropertyOp25
 70
     1
102
RTVSPropertyOp26
 70
     1
102
RTVSPropertyOp27
 70
     1
102
RTVSPropertyOp28
 70
     1
102
RTVSPropertyOp29
 70
     1
102
RTVSPropertyOp30
 70
     1
102
RTVSPropertyOp31
 70
     1
102
RTVSPropertyOp32
 70
     1
102
RTVSPropertyOp33
 70
     1
102
RTVSPropertyOp34
 70
     1
102
RTVSPropertyOp35
 70
     1
102
RTVSPropertyOp36
 70
     1
102
RTVSPropertyOp37
 70
     1
102
RTVSPropertyOp38
 70
     1
102
RTVSPropertyOp39
 70
     1
102
RTVSPropertyOp40
 70
     1
102
RTVSPropertyOp41
 70
     1
102
RTVSPropertyOp42
 70
     1
102
RTVSPropertyOp43
 70
     1
102
RTVSPropertyOp44
 70
     1
102
RTVSPropertyOp45
 70
     1
102
RTVSPropertyOp46
 70
     1
102
RTVSPropertyOp47
 70
     1
102
RTVSPropertyOp48
 70
     1
102
RTVSPropertyOp49
 70
     1
102
RTVSPropertyOp50
 70
     1
102
RTVSPropertyOp51
 70
     0
102
RTVSPropertyOp52
 70
     0
102
RTVSPropertyOp53
 70
     1
102
RTVSPropertyOp54
 70
     1
102
RTVSPropertyOp55
 70
     1
102
RTVSPropertyOp56
 70
     1
102
RTVSPropertyOp57
 70
     1
102
RTVSPost2010Prop28
280
     1
102
RTVSPost2010PropOp28
 70
     1
102
RTVSPost2010Prop29
280
     1
102
RTVSPost2010PropOp29
 70
     1
102
RTVSPost2010Prop30
280
     0
102
RTVSPost2010PropOp30
 70
     1
102
RTVSPost2010Prop31
280
     0
102
RTVSPost2010PropOp31
 70
     1
102
RTVSPost2010Prop32
280
     0
102
RTVSPost2010PropOp32
 70
     1
102
RTVSPost2010Prop33
280
     0
102
RTVSPost2010PropOp33
 70
     1
102
RTVSPost2010Prop34
280
     0
102
RTVSPost2010PropOp34
 70
     1
102
RTVSPost2010Prop35
280
     0
102
RTVSPost2010PropOp35
 70
     1
102
RTVSPost2010Prop36
280
     0
102
RTVSPost2010PropOp36
 70
     1
102
RTVSPost2010Prop37
 90
       50
102
RTVSPost2010PropOp37
 70
     1
102
RTVSPost2010Prop38
140
0.0
102
RTVSPost2010PropOp38
 70
     1
102
RTVSPost2010Prop39
140
1.0
102
RTVSPost2010PropOp39
 70
     1
102
RTVSPost2010Prop40
 90
        0
102
RTVSPost2010PropOp40
 70
     1
102
RTVSPost2010Prop41ColorIndex
 90
       18
102
RTVSPost2010Prop41ColorRGB
 90
        0
102
RTVSPost2010PropOp41
 70
     1
102
RTVSPost2010Prop42
 90
       50
102
RTVSPost2010PropOp42
 70
     1
102
RTVSPost2010Prop43
 90
        3
102
RTVSPost2010PropOp43
 70
     1
102
RTVSPost2010Prop44ColorIndex
 90
        5
102
RTVSPost2010Prop44ColorRGB
 90
      255
102
RTVSPost2010PropOp44
 70
     1
102
RTVSPost2010Prop45
280
     0
102
RTVSPost2010PropOp45
 70
     1
102
RTVSPost2010Prop46
 90
       50
102
RTVSPost2010PropOp46
 70
     1
102
RTVSPost2010Prop47
 90
       50
102
RTVSPost2010PropOp47
 70
     1
102
RTVSPost2010Prop48
 90
       50
102
RTVSPost2010PropOp48
 70
     1
102
RTVSPost2010Prop49
280
     0
102
RTVSPost2010PropOp49
 70
     1
102
RTVSPost2010Prop50
 90
       50
102
RTVSPost2010PropOp50
 70
     1
102
RTVSPost2010Prop51ColorIndex
 90
      256
102
RTVSPost2010Prop51ColorRGB
 90
-16777216
102
RTVSPost2010PropOp51
 70
     0
102
RTVSPost2010Prop52
140
1.0
102
RTVSPost2010PropOp52
 70
     0
102
RTVSPost2010Prop53
 90
        2
102
RTVSPost2010PropOp53
 70
     1
102
RTVSPost2010Prop54
  1
strokes_ogs.tif
102
RTVSPost2010PropOp54
 70
     1
102
RTVSPost2010Prop55
280
     0
102
RTVSPost2010PropOp55
 70
     1
102
RTVSPost2010Prop56
140
1.0
102
RTVSPost2010PropOp56
 70
     1
102
RTVSPost2010Prop57
140
1.0
102
RTVSPost2010PropOp57
 70
     1
  0
XRECORD
  5
27E
102
{ACAD_REACTORS
330
27D
102
}
330
27D
100
AcDbXrecord
280
     1
102
RTVSPropertyOp0
 70
     1
102
RTVSPropertyOp1
 70
     1
102
RTVSPropertyOp2
 70
     1
102
RTVSPropertyOp3
 70
     1
102
RTVSPropertyOp4
 70
     1
102
RTVSPropertyOp5
 70
     1
102
RTVSPropertyOp6
 70
     1
102
RTVSPropertyOp7
 70
     1
102
RTVSPropertyOp8
 70
     1
102
RTVSPropertyOp9
 70
     1
102
RTVSPropertyOp10
 70
     1
102
RTVSPropertyOp11
 70
     1
102
RTVSPropertyOp12
 70
     1
102
RTVSPropertyOp13
 70
     1
102
RTVSPropertyOp14
 70
     1
102
RTVSPropertyOp15
 70
     1
102
RTVSPropertyOp16
 70
     1
102
RTVSPropertyOp17
 70
     1
102
RTVSPropertyOp18
 70
     1
102
RTVSPropertyOp19
 70
     1
102
RTVSPropertyOp20
 70
     1
102
RTVSPropertyOp21
 70
     1
102
RTVSPropertyOp22
 70
     1
102
RTVSPropertyOp23
 70
     1
102
RTVSPropertyOp24
 70
     1
102
RTVSPropertyOp25
 70
     1
102
RTVSPropertyOp26
 70
     1
102
RTVSPropertyOp27
 70
     1
102
RTVSPropertyOp28
 70
     1
102
RTVSPropertyOp29
 70
     1
102
RTVSPropertyOp30
 70
     1
102
RTVSPropertyOp31
 70
     1
102
RTVSPropertyOp32
 70
     1
102
RTVSPropertyOp33
 70
     1
102
RTVSPropertyOp34
 70
     1
102
RTVSPropertyOp35
 70
     1
102
RTVSPropertyOp36
 70
     1
102
RTVSPropertyOp37
 70
     1
102
RTVSPropertyOp38
 70
     1
102
RTVSPropertyOp39
 70
     1
102
RTVSPropertyOp40
 70
     1
102
RTVSPropertyOp41
 70
     1
102
RTVSPropertyOp42
 70
     1
102
RTVSPropertyOp43
 70
     1
102
RTVSPropertyOp44
 70
     1
102
RTVSPropertyOp45
 70
     1
102
RTVSPropertyOp46
 70
     1
102
RTVSPropertyOp47
 70
     1
102
RTVSPropertyOp48
 70
     1
102
RTVSPropertyOp49
 70
     1
102
RTVSPropertyOp50
 70
     1
102
RTVSPropertyOp51
 70
     0
102
RTVSPropertyOp52
 70
     0
102
RTVSPropertyOp53
 70
     1
102
RTVSPropertyOp54
 70
     1
102
RTVSPropertyOp55
 70
     1
102
RTVSPropertyOp56
 70
     1
102
RTVSPropertyOp57
 70
     1
102
RTVSPost2010Prop28
280
     0
102
RTVSPost2010PropOp28
 70
     1
102
RTVSPost2010Prop29
280
     1
102
RTVSPost2010PropOp29
 70
     1
102
RTVSPost2010Prop30
280
     1
102
RTVSPost2010PropOp30
 70
     1
102
RTVSPost2010Prop31
280
     0
102
RTVSPost2010PropOp31
 70
     1
102
RTVSPost2010Prop32
280
     0
102
RTVSPost2010PropOp32
 70
     1
102
RTVSPost2010Prop33
280
     0
102
RTVSPost2010PropOp33
 70
     1
102
RTVSPost2010Prop34
280
     0
102
RTVSPost2010PropOp34
 70
     1
102
RTVSPost2010Prop35
280
     0
102
RTVSPost2010PropOp35
 70
     1
102
RTVSPost2010Prop36
280
     0
102
RTVSPost2010PropOp36
 70
     1
102
RTVSPost2010Prop37
 90
       50
102
RTVSPost2010PropOp37
 70
     1
102
RTVSPost2010Prop38
140
0.0
102
RTVSPost2010PropOp38
 70
     1
102
RTVSPost2010Prop39
140
1.0
102
RTVSPost2010PropOp39
 70
     1
102
RTVSPost2010Prop40
 90
        0
102
RTVSPost2010PropOp40
 70
     1
102
RTVSPost2010Prop41ColorIndex
 90
       18
102
RTVSPost2010Prop41ColorRGB
 90
        0
102
RTVSPost2010PropOp41
 70
     1
102
RTVSPost2010Prop42
 90
       50
102
RTVSPost2010PropOp42
 70
     1
102
RTVSPost2010Prop43
 90
        3
102
RTVSPost2010PropOp43
 70
     1
102
RTVSPost2010Prop44ColorIndex
 90
        5
102
RTVSPost2010Prop44ColorRGB
 90
      255
102
RTVSPost2010PropOp44
 70
     1
102
RTVSPost2010Prop45
280
     0
102
RTVSPost2010PropOp45
 70
     1
102
RTVSPost2010Prop46
 90
       50
102
RTVSPost2010PropOp46
 70
     1
102
RTVSPost2010Prop47
 90
       50
102
RTVSPost2010PropOp47
 70
     1
102
RTVSPost2010Prop48
 90
       50
102
RTVSPost2010PropOp48
 70
     1
102
RTVSPost2010Prop49
280
     0
102
RTVSPost2010PropOp49
 70
     1
102
RTVSPost2010Prop50
 90
       50
102
RTVSPost2010PropOp50
 70
     1
102
RTVSPost2010Prop51ColorIndex
 90
      256
102
RTVSPost2010Prop51ColorRGB
 90
-16777216
102
RTVSPost2010PropOp51
 70
     0
102
RTVSPost2010Prop52
140
1.0
102
RTVSPost2010PropOp52
 70
     0
102
RTVSPost2010Prop53
 90
        2
102
RTVSPost2010PropOp53
 70
     1
102
RTVSPost2010Prop54
  1
strokes_ogs.tif
102
RTVSPost2010PropOp54
 70
     1
102
RTVSPost2010Prop55
280
     0
102
RTVSPost2010PropOp55
 70
     1
102
RTVSPost2010Prop56
140
1.0
102
RTVSPost2010PropOp56
 70
     1
102
RTVSPost2010Prop57
140
1.0
102
RTVSPost2010PropOp57
 70
     1
  0
XRECORD
  5
286
102
{ACAD_REACTORS
330
285
102
}
330
285
100
AcDbXrecord
280
     1
102
RTVSPropertyOp0
 70
     1
102
RTVSPropertyOp1
 70
     1
102
RTVSPropertyOp2
 70
     1
102
RTVSPropertyOp3
 70
     1
102
RTVSPropertyOp4
 70
     1
102
RTVSPropertyOp5
 70
     1
102
RTVSPropertyOp6
 70
     1
102
RTVSPropertyOp7
 70
     1
102
RTVSPropertyOp8
 70
     1
102
RTVSPropertyOp9
 70
     1
102
RTVSPropertyOp10
 70
     1
102
RTVSPropertyOp11
 70
     1
102
RTVSPropertyOp12
 70
     1
102
RTVSPropertyOp13
 70
     1
102
RTVSPropertyOp14
 70
     1
102
RTVSPropertyOp15
 70
     1
102
RTVSPropertyOp16
 70
     1
102
RTVSPropertyOp17
 70
     1
102
RTVSPropertyOp18
 70
     1
102
RTVSPropertyOp19
 70
     1
102
RTVSPropertyOp20
 70
     1
102
RTVSPropertyOp21
 70
     1
102
RTVSPropertyOp22
 70
     1
102
RTVSPropertyOp23
 70
     1
102
RTVSPropertyOp24
 70
     1
102
RTVSPropertyOp25
 70
     1
102
RTVSPropertyOp26
 70
     1
102
RTVSPropertyOp27
 70
     1
102
RTVSPropertyOp28
 70
     1
102
RTVSPropertyOp29
 70
     1
102
RTVSPropertyOp30
 70
     1
102
RTVSPropertyOp31
 70
     1
102
RTVSPropertyOp32
 70
     1
102
RTVSPropertyOp33
 70
     1
102
RTVSPropertyOp34
 70
     1
102
RTVSPropertyOp35
 70
     1
102
RTVSPropertyOp36
 70
     1
102
RTVSPropertyOp37
 70
     1
102
RTVSPropertyOp38
 70
     1
102
RTVSPropertyOp39
 70
     1
102
RTVSPropertyOp40
 70
     1
102
RTVSPropertyOp41
 70
     1
102
RTVSPropertyOp42
 70
     1
102
RTVSPropertyOp43
 70
     1
102
RTVSPropertyOp44
 70
     1
102
RTVSPropertyOp45
 70
     1
102
RTVSPropertyOp46
 70
     1
102
RTVSPropertyOp47
 70
     1
102
RTVSPropertyOp48
 70
     1
102
RTVSPropertyOp49
 70
     1
102
RTVSPropertyOp50
 70
     1
102
RTVSPropertyOp51
 70
     0
102
RTVSPropertyOp52
 70
     0
102
RTVSPropertyOp53
 70
     1
102
RTVSPropertyOp54
 70
     1
102
RTVSPropertyOp55
 70
     1
102
RTVSPropertyOp56
 70
     1
102
RTVSPropertyOp57
 70
     1
102
RTVSPost2010Prop28
280
     0
102
RTVSPost2010PropOp28
 70
     1
102
RTVSPost2010Prop29
280
     1
102
RTVSPost2010PropOp29
 70
     1
102
RTVSPost2010Prop30
280
     1
102
RTVSPost2010PropOp30
 70
     1
102
RTVSPost2010Prop31
280
     0
102
RTVSPost2010PropOp31
 70
     1
102
RTVSPost2010Prop32
280
     0
102
RTVSPost2010PropOp32
 70
     1
102
RTVSPost2010Prop33
280
     0
102
RTVSPost2010PropOp33
 70
     1
102
RTVSPost2010Prop34
280
     0
102
RTVSPost2010PropOp34
 70
     1
102
RTVSPost2010Prop35
280
     0
102
RTVSPost2010PropOp35
 70
     1
102
RTVSPost2010Prop36
280
     0
102
RTVSPost2010PropOp36
 70
     1
102
RTVSPost2010Prop37
 90
       50
102
RTVSPost2010PropOp37
 70
     1
102
RTVSPost2010Prop38
140
0.0
102
RTVSPost2010PropOp38
 70
     1
102
RTVSPost2010Prop39
140
1.0
102
RTVSPost2010PropOp39
 70
     1
102
RTVSPost2010Prop40
 90
        0
102
RTVSPost2010PropOp40
 70
     1
102
RTVSPost2010Prop41ColorIndex
 90
       18
102
RTVSPost2010Prop41ColorRGB
 90
        0
102
RTVSPost2010PropOp41
 70
     1
102
RTVSPost2010Prop42
 90
       50
102
RTVSPost2010PropOp42
 70
     1
102
RTVSPost2010Prop43
 90
        3
102
RTVSPost2010PropOp43
 70
     1
102
RTVSPost2010Prop44ColorIndex
 90
        5
102
RTVSPost2010Prop44ColorRGB
 90
      255
102
RTVSPost2010PropOp44
 70
     1
102
RTVSPost2010Prop45
280
     0
102
RTVSPost2010PropOp45
 70
     1
102
RTVSPost2010Prop46
 90
       50
102
RTVSPost2010PropOp46
 70
     1
102
RTVSPost2010Prop47
 90
       50
102
RTVSPost2010PropOp47
 70
     1
102
RTVSPost2010Prop48
 90
       50
102
RTVSPost2010PropOp48
 70
     1
102
RTVSPost2010Prop49
280
     0
102
RTVSPost2010PropOp49
 70
     1
102
RTVSPost2010Prop50
 90
       50
102
RTVSPost2010PropOp50
 70
     1
102
RTVSPost2010Prop51ColorIndex
 90
      256
102
RTVSPost2010Prop51ColorRGB
 90
-16777216
102
RTVSPost2010PropOp51
 70
     0
102
RTVSPost2010Prop52
140
1.0
102
RTVSPost2010PropOp52
 70
     0
102
RTVSPost2010Prop53
 90
        2
102
RTVSPost2010PropOp53
 70
     1
102
RTVSPost2010Prop54
  1
strokes_ogs.tif
102
RTVSPost2010PropOp54
 70
     1
102
RTVSPost2010Prop55
280
     0
102
RTVSPost2010PropOp55
 70
     1
102
RTVSPost2010Prop56
140
1.0
102
RTVSPost2010PropOp56
 70
     1
102
RTVSPost2010Prop57
140
1.0
102
RTVSPost2010PropOp57
 70
     1
  0
XRECORD
  5
28E
102
{ACAD_REACTORS
330
28D
102
}
330
28D
100
AcDbXrecord
280
     1
102
RTVSPropertyOp0
 70
     1
102
RTVSPropertyOp1
 70
     1
102
RTVSPropertyOp2
 70
     1
102
RTVSPropertyOp3
 70
     1
102
RTVSPropertyOp4
 70
     1
102
RTVSPropertyOp5
 70
     1
102
RTVSPropertyOp6
 70
     1
102
RTVSPropertyOp7
 70
     1
102
RTVSPropertyOp8
 70
     1
102
RTVSPropertyOp9
 70
     1
102
RTVSPropertyOp10
 70
     1
102
RTVSPropertyOp11
 70
     1
102
RTVSPropertyOp12
 70
     1
102
RTVSPropertyOp13
 70
     1
102
RTVSPropertyOp14
 70
     1
102
RTVSPropertyOp15
 70
     1
102
RTVSPropertyOp16
 70
     1
102
RTVSPropertyOp17
 70
     1
102
RTVSPropertyOp18
 70
     1
102
RTVSPropertyOp19
 70
     1
102
RTVSPropertyOp20
 70
     1
102
RTVSPropertyOp21
 70
     1
102
RTVSPropertyOp22
 70
     1
102
RTVSPropertyOp23
 70
     1
102
RTVSPropertyOp24
 70
     1
102
RTVSPropertyOp25
 70
     1
102
RTVSPropertyOp26
 70
     1
102
RTVSPropertyOp27
 70
     1
102
RTVSPropertyOp28
 70
     1
102
RTVSPropertyOp29
 70
     1
102
RTVSPropertyOp30
 70
     1
102
RTVSPropertyOp31
 70
     1
102
RTVSPropertyOp32
 70
     1
102
RTVSPropertyOp33
 70
     1
102
RTVSPropertyOp34
 70
     1
102
RTVSPropertyOp35
 70
     1
102
RTVSPropertyOp36
 70
     1
102
RTVSPropertyOp37
 70
     1
102
RTVSPropertyOp38
 70
     1
102
RTVSPropertyOp39
 70
     1
102
RTVSPropertyOp40
 70
     1
102
RTVSPropertyOp41
 70
     1
102
RTVSPropertyOp42
 70
     1
102
RTVSPropertyOp43
 70
     1
102
RTVSPropertyOp44
 70
     1
102
RTVSPropertyOp45
 70
     1
102
RTVSPropertyOp46
 70
     1
102
RTVSPropertyOp47
 70
     1
102
RTVSPropertyOp48
 70
     1
102
RTVSPropertyOp49
 70
     1
102
RTVSPropertyOp50
 70
     1
102
RTVSPropertyOp51
 70
     0
102
RTVSPropertyOp52
 70
     0
102
RTVSPropertyOp53
 70
     1
102
RTVSPropertyOp54
 70
     1
102
RTVSPropertyOp55
 70
     1
102
RTVSPropertyOp56
 70
     1
102
RTVSPropertyOp57
 70
     1
102
RTVSPost2010Prop28
280
     0
102
RTVSPost2010PropOp28
 70
     1
102
RTVSPost2010Prop29
280
     1
102
RTVSPost2010PropOp29
 70
     1
102
RTVSPost2010Prop30
280
     1
102
RTVSPost2010PropOp30
 70
     1
102
RTVSPost2010Prop31
280
     0
102
RTVSPost2010PropOp31
 70
     1
102
RTVSPost2010Prop32
280
     0
102
RTVSPost2010PropOp32
 70
     1
102
RTVSPost2010Prop33
280
     0
102
RTVSPost2010PropOp33
 70
     1
102
RTVSPost2010Prop34
280
     0
102
RTVSPost2010PropOp34
 70
     1
102
RTVSPost2010Prop35
280
     0
102
RTVSPost2010PropOp35
 70
     1
102
RTVSPost2010Prop36
280
     0
102
RTVSPost2010PropOp36
 70
     1
102
RTVSPost2010Prop37
 90
       50
102
RTVSPost2010PropOp37
 70
     1
102
RTVSPost2010Prop38
140
0.0
102
RTVSPost2010PropOp38
 70
     1
102
RTVSPost2010Prop39
140
1.0
102
RTVSPost2010PropOp39
 70
     1
102
RTVSPost2010Prop40
 90
        0
102
RTVSPost2010PropOp40
 70
     1
102
RTVSPost2010Prop41ColorIndex
 90
       18
102
RTVSPost2010Prop41ColorRGB
 90
        0
102
RTVSPost2010PropOp41
 70
     1
102
RTVSPost2010Prop42
 90
       50
102
RTVSPost2010PropOp42
 70
     1
102
RTVSPost2010Prop43
 90
        3
102
RTVSPost2010PropOp43
 70
     1
102
RTVSPost2010Prop44ColorIndex
 90
        5
102
RTVSPost2010Prop44ColorRGB
 90
      255
102
RTVSPost2010PropOp44
 70
     1
102
RTVSPost2010Prop45
280
     0
102
RTVSPost2010PropOp45
 70
     1
102
RTVSPost2010Prop46
 90
       50
102
RTVSPost2010PropOp46
 70
     1
102
RTVSPost2010Prop47
 90
       50
102
RTVSPost2010PropOp47
 70
     1
102
RTVSPost2010Prop48
 90
       50
102
RTVSPost2010PropOp48
 70
     1
102
RTVSPost2010Prop49
280
     0
102
RTVSPost2010PropOp49
 70
     1
102
RTVSPost2010Prop50
 90
       50
102
RTVSPost2010PropOp50
 70
     1
102
RTVSPost2010Prop51ColorIndex
 90
      256
102
RTVSPost2010Prop51ColorRGB
 90
-16777216
102
RTVSPost2010PropOp51
 70
     0
102
RTVSPost2010Prop52
140
1.0
102
RTVSPost2010PropOp52
 70
     0
102
RTVSPost2010Prop53
 90
        2
102
RTVSPost2010PropOp53
 70
     1
102
RTVSPost2010Prop54
  1
strokes_ogs.tif
102
RTVSPost2010PropOp54
 70
     1
102
RTVSPost2010Prop55
280
     0
102
RTVSPost2010PropOp55
 70
     1
102
RTVSPost2010Prop56
140
1.0
102
RTVSPost2010PropOp56
 70
     1
102
RTVSPost2010Prop57
140
1.0
102
RTVSPost2010PropOp57
 70
     1
  0
XRECORD
  5
282
102
{ACAD_REACTORS
330
281
102
}
330
281
100
AcDbXrecord
280
     1
102
RTVSPropertyOp0
 70
     1
102
RTVSPropertyOp1
 70
     1
102
RTVSPropertyOp2
 70
     1
102
RTVSPropertyOp3
 70
     1
102
RTVSPropertyOp4
 70
     1
102
RTVSPropertyOp5
 70
     1
102
RTVSPropertyOp6
 70
     1
102
RTVSPropertyOp7
 70
     1
102
RTVSPropertyOp8
 70
     1
102
RTVSPropertyOp9
 70
     1
102
RTVSPropertyOp10
 70
     1
102
RTVSPropertyOp11
 70
     1
102
RTVSPropertyOp12
 70
     1
102
RTVSPropertyOp13
 70
     1
102
RTVSPropertyOp14
 70
     1
102
RTVSPropertyOp15
 70
     1
102
RTVSPropertyOp16
 70
     1
102
RTVSPropertyOp17
 70
     1
102
RTVSPropertyOp18
 70
     1
102
RTVSPropertyOp19
 70
     1
102
RTVSPropertyOp20
 70
     1
102
RTVSPropertyOp21
 70
     1
102
RTVSPropertyOp22
 70
     1
102
RTVSPropertyOp23
 70
     1
102
RTVSPropertyOp24
 70
     1
102
RTVSPropertyOp25
 70
     1
102
RTVSPropertyOp26
 70
     1
102
RTVSPropertyOp27
 70
     1
102
RTVSPropertyOp28
 70
     1
102
RTVSPropertyOp29
 70
     1
102
RTVSPropertyOp30
 70
     1
102
RTVSPropertyOp31
 70
     1
102
RTVSPropertyOp32
 70
     1
102
RTVSPropertyOp33
 70
     1
102
RTVSPropertyOp34
 70
     1
102
RTVSPropertyOp35
 70
     1
102
RTVSPropertyOp36
 70
     1
102
RTVSPropertyOp37
 70
     1
102
RTVSPropertyOp38
 70
     1
102
RTVSPropertyOp39
 70
     1
102
RTVSPropertyOp40
 70
     1
102
RTVSPropertyOp41
 70
     1
102
RTVSPropertyOp42
 70
     1
102
RTVSPropertyOp43
 70
     1
102
RTVSPropertyOp44
 70
     1
102
RTVSPropertyOp45
 70
     1
102
RTVSPropertyOp46
 70
     1
102
RTVSPropertyOp47
 70
     1
102
RTVSPropertyOp48
 70
     1
102
RTVSPropertyOp49
 70
     1
102
RTVSPropertyOp50
 70
     1
102
RTVSPropertyOp51
 70
     0
102
RTVSPropertyOp52
 70
     0
102
RTVSPropertyOp53
 70
     1
102
RTVSPropertyOp54
 70
     1
102
RTVSPropertyOp55
 70
     1
102
RTVSPropertyOp56
 70
     1
102
RTVSPropertyOp57
 70
     1
102
RTVSPost2010Prop28
280
     0
102
RTVSPost2010PropOp28
 70
     1
102
RTVSPost2010Prop29
280
     1
102
RTVSPost2010PropOp29
 70
     1
102
RTVSPost2010Prop30
280
     1
102
RTVSPost2010PropOp30
 70
     1
102
RTVSPost2010Prop31
280
     0
102
RTVSPost2010PropOp31
 70
     1
102
RTVSPost2010Prop32
280
     0
102
RTVSPost2010PropOp32
 70
     1
102
RTVSPost2010Prop33
280
     0
102
RTVSPost2010PropOp33
 70
     1
102
RTVSPost2010Prop34
280
     0
102
RTVSPost2010PropOp34
 70
     1
102
RTVSPost2010Prop35
280
     0
102
RTVSPost2010PropOp35
 70
     1
102
RTVSPost2010Prop36
280
     0
102
RTVSPost2010PropOp36
 70
     1
102
RTVSPost2010Prop37
 90
       50
102
RTVSPost2010PropOp37
 70
     1
102
RTVSPost2010Prop38
140
0.0
102
RTVSPost2010PropOp38
 70
     1
102
RTVSPost2010Prop39
140
1.0
102
RTVSPost2010PropOp39
 70
     1
102
RTVSPost2010Prop40
 90
        0
102
RTVSPost2010PropOp40
 70
     1
102
RTVSPost2010Prop41ColorIndex
 90
       18
102
RTVSPost2010Prop41ColorRGB
 90
        0
102
RTVSPost2010PropOp41
 70
     1
102
RTVSPost2010Prop42
 90
       50
102
RTVSPost2010PropOp42
 70
     1
102
RTVSPost2010Prop43
 90
        3
102
RTVSPost2010PropOp43
 70
     1
102
RTVSPost2010Prop44ColorIndex
 90
        5
102
RTVSPost2010Prop44ColorRGB
 90
      255
102
RTVSPost2010PropOp44
 70
     1
102
RTVSPost2010Prop45
280
     0
102
RTVSPost2010PropOp45
 70
     1
102
RTVSPost2010Prop46
 90
       50
102
RTVSPost2010PropOp46
 70
     1
102
RTVSPost2010Prop47
 90
       50
102
RTVSPost2010PropOp47
 70
     1
102
RTVSPost2010Prop48
 90
       50
102
RTVSPost2010PropOp48
 70
     1
102
RTVSPost2010Prop49
280
     0
102
RTVSPost2010PropOp49
 70
     1
102
RTVSPost2010Prop50
 90
       50
102
RTVSPost2010PropOp50
 70
     1
102
RTVSPost2010Prop51ColorIndex
 90
      256
102
RTVSPost2010Prop51ColorRGB
 90
-16777216
102
RTVSPost2010PropOp51
 70
     0
102
RTVSPost2010Prop52
140
1.0
102
RTVSPost2010PropOp52
 70
     0
102
RTVSPost2010Prop53
 90
        2
102
RTVSPost2010PropOp53
 70
     1
102
RTVSPost2010Prop54
  1
strokes_ogs.tif
102
RTVSPost2010PropOp54
 70
     1
102
RTVSPost2010Prop55
280
     0
102
RTVSPost2010PropOp55
 70
     1
102
RTVSPost2010Prop56
140
1.0
102
RTVSPost2010PropOp56
 70
     1
102
RTVSPost2010Prop57
140
1.0
102
RTVSPost2010PropOp57
 70
     1
  0
XRECORD
  5
284
102
{ACAD_REACTORS
330
283
102
}
330
283
100
AcDbXrecord
280
     1
102
RTVSPropertyOp0
 70
     1
102
RTVSPropertyOp1
 70
     1
102
RTVSPropertyOp2
 70
     1
102
RTVSPropertyOp3
 70
     1
102
RTVSPropertyOp4
 70
     1
102
RTVSPropertyOp5
 70
     1
102
RTVSPropertyOp6
 70
     1
102
RTVSPropertyOp7
 70
     1
102
RTVSPropertyOp8
 70
     1
102
RTVSPropertyOp9
 70
     1
102
RTVSPropertyOp10
 70
     1
102
RTVSPropertyOp11
 70
     1
102
RTVSPropertyOp12
 70
     1
102
RTVSPropertyOp13
 70
     1
102
RTVSPropertyOp14
 70
     1
102
RTVSPropertyOp15
 70
     1
102
RTVSPropertyOp16
 70
     1
102
RTVSPropertyOp17
 70
     1
102
RTVSPropertyOp18
 70
     1
102
RTVSPropertyOp19
 70
     1
102
RTVSPropertyOp20
 70
     1
102
RTVSPropertyOp21
 70
     1
102
RTVSPropertyOp22
 70
     1
102
RTVSPropertyOp23
 70
     1
102
RTVSPropertyOp24
 70
     1
102
RTVSPropertyOp25
 70
     1
102
RTVSPropertyOp26
 70
     1
102
RTVSPropertyOp27
 70
     1
102
RTVSPropertyOp28
 70
     1
102
RTVSPropertyOp29
 70
     1
102
RTVSPropertyOp30
 70
     1
102
RTVSPropertyOp31
 70
     1
102
RTVSPropertyOp32
 70
     1
102
RTVSPropertyOp33
 70
     1
102
RTVSPropertyOp34
 70
     1
102
RTVSPropertyOp35
 70
     1
102
RTVSPropertyOp36
 70
     1
102
RTVSPropertyOp37
 70
     1
102
RTVSPropertyOp38
 70
     1
102
RTVSPropertyOp39
 70
     1
102
RTVSPropertyOp40
 70
     1
102
RTVSPropertyOp41
 70
     1
102
RTVSPropertyOp42
 70
     1
102
RTVSPropertyOp43
 70
     1
102
RTVSPropertyOp44
 70
     1
102
RTVSPropertyOp45
 70
     1
102
RTVSPropertyOp46
 70
     1
102
RTVSPropertyOp47
 70
     1
102
RTVSPropertyOp48
 70
     1
102
RTVSPropertyOp49
 70
     1
102
RTVSPropertyOp50
 70
     1
102
RTVSPropertyOp51
 70
     0
102
RTVSPropertyOp52
 70
     0
102
RTVSPropertyOp53
 70
     1
102
RTVSPropertyOp54
 70
     1
102
RTVSPropertyOp55
 70
     1
102
RTVSPropertyOp56
 70
     1
102
RTVSPropertyOp57
 70
     1
102
RTVSPost2010Prop28
280
     0
102
RTVSPost2010PropOp28
 70
     1
102
RTVSPost2010Prop29
280
     1
102
RTVSPost2010PropOp29
 70
     1
102
RTVSPost2010Prop30
280
     1
102
RTVSPost2010PropOp30
 70
     1
102
RTVSPost2010Prop31
280
     0
102
RTVSPost2010PropOp31
 70
     1
102
RTVSPost2010Prop32
280
     0
102
RTVSPost2010PropOp32
 70
     1
102
RTVSPost2010Prop33
280
     0
102
RTVSPost2010PropOp33
 70
     1
102
RTVSPost2010Prop34
280
     0
102
RTVSPost2010PropOp34
 70
     1
102
RTVSPost2010Prop35
280
     0
102
RTVSPost2010PropOp35
 70
     1
102
RTVSPost2010Prop36
280
     0
102
RTVSPost2010PropOp36
 70
     1
102
RTVSPost2010Prop37
 90
       50
102
RTVSPost2010PropOp37
 70
     1
102
RTVSPost2010Prop38
140
0.0
102
RTVSPost2010PropOp38
 70
     1
102
RTVSPost2010Prop39
140
1.0
102
RTVSPost2010PropOp39
 70
     1
102
RTVSPost2010Prop40
 90
        0
102
RTVSPost2010PropOp40
 70
     1
102
RTVSPost2010Prop41ColorIndex
 90
       18
102
RTVSPost2010Prop41ColorRGB
 90
        0
102
RTVSPost2010PropOp41
 70
     1
102
RTVSPost2010Prop42
 90
       50
102
RTVSPost2010PropOp42
 70
     1
102
RTVSPost2010Prop43
 90
        3
102
RTVSPost2010PropOp43
 70
     1
102
RTVSPost2010Prop44ColorIndex
 90
        5
102
RTVSPost2010Prop44ColorRGB
 90
      255
102
RTVSPost2010PropOp44
 70
     1
102
RTVSPost2010Prop45
280
     0
102
RTVSPost2010PropOp45
 70
     1
102
RTVSPost2010Prop46
 90
       50
102
RTVSPost2010PropOp46
 70
     1
102
RTVSPost2010Prop47
 90
       50
102
RTVSPost2010PropOp47
 70
     1
102
RTVSPost2010Prop48
 90
       50
102
RTVSPost2010PropOp48
 70
     1
102
RTVSPost2010Prop49
280
     0
102
RTVSPost2010PropOp49
 70
     1
102
RTVSPost2010Prop50
 90
       50
102
RTVSPost2010PropOp50
 70
     1
102
RTVSPost2010Prop51ColorIndex
 90
      256
102
RTVSPost2010Prop51ColorRGB
 90
-16777216
102
RTVSPost2010PropOp51
 70
     0
102
RTVSPost2010Prop52
140
1.0
102
RTVSPost2010PropOp52
 70
     0
102
RTVSPost2010Prop53
 90
        2
102
RTVSPost2010PropOp53
 70
     1
102
RTVSPost2010Prop54
  1
strokes_ogs.tif
102
RTVSPost2010PropOp54
 70
     1
102
RTVSPost2010Prop55
280
     0
102
RTVSPost2010PropOp55
 70
     1
102
RTVSPost2010Prop56
140
1.0
102
RTVSPost2010PropOp56
 70
     1
102
RTVSPost2010Prop57
140
1.0
102
RTVSPost2010PropOp57
 70
     1
  0
XRECORD
  5
294
102
{ACAD_REACTORS
330
293
102
}
330
293
100
AcDbXrecord
280
     1
102
RTVSPropertyOp0
 70
     0
102
RTVSPropertyOp1
 70
     0
102
RTVSPropertyOp2
 70
     0
102
RTVSPropertyOp3
 70
     0
102
RTVSPropertyOp4
 70
     0
102
RTVSPropertyOp5
 70
     0
102
RTVSPropertyOp6
 70
     0
102
RTVSPropertyOp7
 70
     0
102
RTVSPropertyOp8
 70
     0
102
RTVSPropertyOp9
 70
     0
102
RTVSPropertyOp10
 70
     0
102
RTVSPropertyOp11
 70
     0
102
RTVSPropertyOp12
 70
     0
102
RTVSPropertyOp13
 70
     0
102
RTVSPropertyOp14
 70
     2
102
RTVSPropertyOp15
 70
     0
102
RTVSPropertyOp16
 70
     0
102
RTVSPropertyOp17
 70
     0
102
RTVSPropertyOp18
 70
     0
102
RTVSPropertyOp19
 70
     0
102
RTVSPropertyOp20
 70
     0
102
RTVSPropertyOp21
 70
     0
102
RTVSPropertyOp22
 70
     0
102
RTVSPropertyOp23
 70
     0
102
RTVSPropertyOp24
 70
     0
102
RTVSPropertyOp25
 70
     0
102
RTVSPropertyOp26
 70
     0
102
RTVSPropertyOp27
 70
     0
102
RTVSPropertyOp28
 70
     0
102
RTVSPropertyOp29
 70
     0
102
RTVSPropertyOp30
 70
     0
102
RTVSPropertyOp31
 70
     0
102
RTVSPropertyOp32
 70
     0
102
RTVSPropertyOp33
 70
     0
102
RTVSPropertyOp34
 70
     0
102
RTVSPropertyOp35
 70
     0
102
RTVSPropertyOp36
 70
     0
102
RTVSPropertyOp37
 70
     0
102
RTVSPropertyOp38
 70
     0
102
RTVSPropertyOp39
 70
     0
102
RTVSPropertyOp40
 70
     0
102
RTVSPropertyOp41
 70
     0
102
RTVSPropertyOp42
 70
     0
102
RTVSPropertyOp43
 70
     0
102
RTVSPropertyOp44
 70
     0
102
RTVSPropertyOp45
 70
     0
102
RTVSPropertyOp46
 70
     0
102
RTVSPropertyOp47
 70
     0
102
RTVSPropertyOp48
 70
     0
102
RTVSPropertyOp49
 70
     0
102
RTVSPropertyOp50
 70
     0
102
RTVSPropertyOp51
 70
     0
102
RTVSPropertyOp52
 70
     0
102
RTVSPropertyOp53
 70
     0
102
RTVSPropertyOp54
 70
     0
102
RTVSPropertyOp55
 70
     0
102
RTVSPropertyOp56
 70
     0
102
RTVSPropertyOp57
 70
     0
102
RTVSPost2010Prop28
280
     0
102
RTVSPost2010PropOp28
 70
     0
102
RTVSPost2010Prop29
280
     1
102
RTVSPost2010PropOp29
 70
     0
102
RTVSPost2010Prop30
280
     1
102
RTVSPost2010PropOp30
 70
     0
102
RTVSPost2010Prop31
280
     0
102
RTVSPost2010PropOp31
 70
     0
102
RTVSPost2010Prop32
280
     0
102
RTVSPost2010PropOp32
 70
     0
102
RTVSPost2010Prop33
280
     0
102
RTVSPost2010PropOp33
 70
     0
102
RTVSPost2010Prop34
280
     0
102
RTVSPost2010PropOp34
 70
     0
102
RTVSPost2010Prop35
280
     0
102
RTVSPost2010PropOp35
 70
     0
102
RTVSPost2010Prop36
280
     0
102
RTVSPost2010PropOp36
 70
     0
102
RTVSPost2010Prop37
 90
       50
102
RTVSPost2010PropOp37
 70
     0
102
RTVSPost2010Prop38
140
0.0
102
RTVSPost2010PropOp38
 70
     0
102
RTVSPost2010Prop39
140
1.0
102
RTVSPost2010PropOp39
 70
     0
102
RTVSPost2010Prop40
 90
        0
102
RTVSPost2010PropOp40
 70
     0
102
RTVSPost2010Prop41ColorIndex
 90
       18
102
RTVSPost2010Prop41ColorRGB
 90
        0
102
RTVSPost2010PropOp41
 70
     0
102
RTVSPost2010Prop42
 90
       50
102
RTVSPost2010PropOp42
 70
     0
102
RTVSPost2010Prop43
 90
        3
102
RTVSPost2010PropOp43
 70
     0
102
RTVSPost2010Prop44ColorIndex
 90
        5
102
RTVSPost2010Prop44ColorRGB
 90
      255
102
RTVSPost2010PropOp44
 70
     0
102
RTVSPost2010Prop45
280
     0
102
RTVSPost2010PropOp45
 70
     0
102
RTVSPost2010Prop46
 90
       50
102
RTVSPost2010PropOp46
 70
     0
102
RTVSPost2010Prop47
 90
       50
102
RTVSPost2010PropOp47
 70
     0
102
RTVSPost2010Prop48
 90
       50
102
RTVSPost2010PropOp48
 70
     0
102
RTVSPost2010Prop49
280
     0
102
RTVSPost2010PropOp49
 70
     0
102
RTVSPost2010Prop50
 90
       50
102
RTVSPost2010PropOp50
 70
     0
102
RTVSPost2010Prop51ColorIndex
 90
      256
102
RTVSPost2010Prop51ColorRGB
 90
-16777216
102
RTVSPost2010PropOp51
 70
     0
102
RTVSPost2010Prop52
140
1.0
102
RTVSPost2010PropOp52
 70
     0
102
RTVSPost2010Prop53
 90
        2
102
RTVSPost2010PropOp53
 70
     0
102
RTVSPost2010Prop54
  1
strokes_ogs.tif
102
RTVSPost2010PropOp54
 70
     0
102
RTVSPost2010Prop55
280
     0
102
RTVSPost2010PropOp55
 70
     0
102
RTVSPost2010Prop56
140
1.0
102
RTVSPost2010PropOp56
 70
     0
102
RTVSPost2010Prop57
140
1.0
102
RTVSPost2010PropOp57
 70
     0
  0
XRECORD
  5
28C
102
{ACAD_REACTORS
330
28B
102
}
330
28B
100
AcDbXrecord
280
     1
102
RTVSPropertyOp0
 70
     1
102
RTVSPropertyOp1
 70
     1
102
RTVSPropertyOp2
 70
     1
102
RTVSPropertyOp3
 70
     1
102
RTVSPropertyOp4
 70
     1
102
RTVSPropertyOp5
 70
     1
102
RTVSPropertyOp6
 70
     1
102
RTVSPropertyOp7
 70
     1
102
RTVSPropertyOp8
 70
     1
102
RTVSPropertyOp9
 70
     1
102
RTVSPropertyOp10
 70
     1
102
RTVSPropertyOp11
 70
     1
102
RTVSPropertyOp12
 70
     1
102
RTVSPropertyOp13
 70
     1
102
RTVSPropertyOp14
 70
     1
102
RTVSPropertyOp15
 70
     1
102
RTVSPropertyOp16
 70
     1
102
RTVSPropertyOp17
 70
     1
102
RTVSPropertyOp18
 70
     1
102
RTVSPropertyOp19
 70
     1
102
RTVSPropertyOp20
 70
     1
102
RTVSPropertyOp21
 70
     1
102
RTVSPropertyOp22
 70
     1
102
RTVSPropertyOp23
 70
     1
102
RTVSPropertyOp24
 70
     1
102
RTVSPropertyOp25
 70
     1
102
RTVSPropertyOp26
 70
     1
102
RTVSPropertyOp27
 70
     1
102
RTVSPropertyOp28
 70
     1
102
RTVSPropertyOp29
 70
     1
102
RTVSPropertyOp30
 70
     1
102
RTVSPropertyOp31
 70
     1
102
RTVSPropertyOp32
 70
     1
102
RTVSPropertyOp33
 70
     1
102
RTVSPropertyOp34
 70
     1
102
RTVSPropertyOp35
 70
     1
102
RTVSPropertyOp36
 70
     1
102
RTVSPropertyOp37
 70
     1
102
RTVSPropertyOp38
 70
     1
102
RTVSPropertyOp39
 70
     1
102
RTVSPropertyOp40
 70
     1
102
RTVSPropertyOp41
 70
     1
102
RTVSPropertyOp42
 70
     1
102
RTVSPropertyOp43
 70
     1
102
RTVSPropertyOp44
 70
     1
102
RTVSPropertyOp45
 70
     1
102
RTVSPropertyOp46
 70
     1
102
RTVSPropertyOp47
 70
     1
102
RTVSPropertyOp48
 70
     1
102
RTVSPropertyOp49
 70
     1
102
RTVSPropertyOp50
 70
     1
102
RTVSPropertyOp51
 70
     0
102
RTVSPropertyOp52
 70
     0
102
RTVSPropertyOp53
 70
     1
102
RTVSPropertyOp54
 70
     1
102
RTVSPropertyOp55
 70
     1
102
RTVSPropertyOp56
 70
     1
102
RTVSPropertyOp57
 70
     1
102
RTVSPost2010Prop28
280
     0
102
RTVSPost2010PropOp28
 70
     1
102
RTVSPost2010Prop29
280
     1
102
RTVSPost2010PropOp29
 70
     1
102
RTVSPost2010Prop30
280
     1
102
RTVSPost2010PropOp30
 70
     1
102
RTVSPost2010Prop31
280
     0
102
RTVSPost2010PropOp31
 70
     1
102
RTVSPost2010Prop32
280
     0
102
RTVSPost2010PropOp32
 70
     1
102
RTVSPost2010Prop33
280
     0
102
RTVSPost2010PropOp33
 70
     1
102
RTVSPost2010Prop34
280
     0
102
RTVSPost2010PropOp34
 70
     1
102
RTVSPost2010Prop35
280
     0
102
RTVSPost2010PropOp35
 70
     1
102
RTVSPost2010Prop36
280
     0
102
RTVSPost2010PropOp36
 70
     1
102
RTVSPost2010Prop37
 90
       50
102
RTVSPost2010PropOp37
 70
     1
102
RTVSPost2010Prop38
140
0.0
102
RTVSPost2010PropOp38
 70
     1
102
RTVSPost2010Prop39
140
1.0
102
RTVSPost2010PropOp39
 70
     1
102
RTVSPost2010Prop40
 90
        0
102
RTVSPost2010PropOp40
 70
     1
102
RTVSPost2010Prop41ColorIndex
 90
       18
102
RTVSPost2010Prop41ColorRGB
 90
        0
102
RTVSPost2010PropOp41
 70
     1
102
RTVSPost2010Prop42
 90
       50
102
RTVSPost2010PropOp42
 70
     1
102
RTVSPost2010Prop43
 90
        3
102
RTVSPost2010PropOp43
 70
     1
102
RTVSPost2010Prop44ColorIndex
 90
        5
102
RTVSPost2010Prop44ColorRGB
 90
      255
102
RTVSPost2010PropOp44
 70
     1
102
RTVSPost2010Prop45
280
     0
102
RTVSPost2010PropOp45
 70
     1
102
RTVSPost2010Prop46
 90
       50
102
RTVSPost2010PropOp46
 70
     1
102
RTVSPost2010Prop47
 90
       50
102
RTVSPost2010PropOp47
 70
     1
102
RTVSPost2010Prop48
 90
       50
102
RTVSPost2010PropOp48
 70
     1
102
RTVSPost2010Prop49
280
     0
102
RTVSPost2010PropOp49
 70
     1
102
RTVSPost2010Prop50
 90
       50
102
RTVSPost2010PropOp50
 70
     1
102
RTVSPost2010Prop51ColorIndex
 90
      256
102
RTVSPost2010Prop51ColorRGB
 90
-16777216
102
RTVSPost2010PropOp51
 70
     0
102
RTVSPost2010Prop52
140
1.0
102
RTVSPost2010PropOp52
 70
     0
102
RTVSPost2010Prop53
 90
        2
102
RTVSPost2010PropOp53
 70
     1
102
RTVSPost2010Prop54
  1
strokes_ogs.tif
102
RTVSPost2010PropOp54
 70
     1
102
RTVSPost2010Prop55
280
     0
102
RTVSPost2010PropOp55
 70
     1
102
RTVSPost2010Prop56
140
1.0
102
RTVSPost2010PropOp56
 70
     1
102
RTVSPost2010Prop57
140
1.0
102
RTVSPost2010PropOp57
 70
     1
  0
XRECORD
  5
270
102
{ACAD_REACTORS
330
26F
102
}
330
26F
100
AcDbXrecord
280
     1
102
RTVSPropertyOp0
 70
     1
102
RTVSPropertyOp1
 70
     1
102
RTVSPropertyOp2
 70
     1
102
RTVSPropertyOp3
 70
     1
102
RTVSPropertyOp4
 70
     1
102
RTVSPropertyOp5
 70
     1
102
RTVSPropertyOp6
 70
     1
102
RTVSPropertyOp7
 70
     1
102
RTVSPropertyOp8
 70
     1
102
RTVSPropertyOp9
 70
     1
102
RTVSPropertyOp10
 70
     1
102
RTVSPropertyOp11
 70
     1
102
RTVSPropertyOp12
 70
     1
102
RTVSPropertyOp13
 70
     1
102
RTVSPropertyOp14
 70
     1
102
RTVSPropertyOp15
 70
     1
102
RTVSPropertyOp16
 70
     1
102
RTVSPropertyOp17
 70
     1
102
RTVSPropertyOp18
 70
     1
102
RTVSPropertyOp19
 70
     1
102
RTVSPropertyOp20
 70
     1
102
RTVSPropertyOp21
 70
     1
102
RTVSPropertyOp22
 70
     1
102
RTVSPropertyOp23
 70
     1
102
RTVSPropertyOp24
 70
     1
102
RTVSPropertyOp25
 70
     1
102
RTVSPropertyOp26
 70
     1
102
RTVSPropertyOp27
 70
     1
102
RTVSPropertyOp28
 70
     1
102
RTVSPropertyOp29
 70
     1
102
RTVSPropertyOp30
 70
     1
102
RTVSPropertyOp31
 70
     1
102
RTVSPropertyOp32
 70
     1
102
RTVSPropertyOp33
 70
     1
102
RTVSPropertyOp34
 70
     1
102
RTVSPropertyOp35
 70
     1
102
RTVSPropertyOp36
 70
     1
102
RTVSPropertyOp37
 70
     1
102
RTVSPropertyOp38
 70
     1
102
RTVSPropertyOp39
 70
     1
102
RTVSPropertyOp40
 70
     1
102
RTVSPropertyOp41
 70
     1
102
RTVSPropertyOp42
 70
     1
102
RTVSPropertyOp43
 70
     1
102
RTVSPropertyOp44
 70
     1
102
RTVSPropertyOp45
 70
     1
102
RTVSPropertyOp46
 70
     1
102
RTVSPropertyOp47
 70
     1
102
RTVSPropertyOp48
 70
     1
102
RTVSPropertyOp49
 70
     1
102
RTVSPropertyOp50
 70
     1
102
RTVSPropertyOp51
 70
     0
102
RTVSPropertyOp52
 70
     0
102
RTVSPropertyOp53
 70
     1
102
RTVSPropertyOp54
 70
     1
102
RTVSPropertyOp55
 70
     1
102
RTVSPropertyOp56
 70
     1
102
RTVSPropertyOp57
 70
     1
102
RTVSPost2010Prop28
280
     0
102
RTVSPost2010PropOp28
 70
     1
102
RTVSPost2010Prop29
280
     1
102
RTVSPost2010PropOp29
 70
     1
102
RTVSPost2010Prop30
280
     1
102
RTVSPost2010PropOp30
 70
     1
102
RTVSPost2010Prop31
280
     0
102
RTVSPost2010PropOp31
 70
     1
102
RTVSPost2010Prop32
280
     0
102
RTVSPost2010PropOp32
 70
     1
102
RTVSPost2010Prop33
280
     0
102
RTVSPost2010PropOp33
 70
     1
102
RTVSPost2010Prop34
280
     0
102
RTVSPost2010PropOp34
 70
     1
102
RTVSPost2010Prop35
280
     0
102
RTVSPost2010PropOp35
 70
     1
102
RTVSPost2010Prop36
280
     0
102
RTVSPost2010PropOp36
 70
     1
102
RTVSPost2010Prop37
 90
       50
102
RTVSPost2010PropOp37
 70
     1
102
RTVSPost2010Prop38
140
0.0
102
RTVSPost2010PropOp38
 70
     1
102
RTVSPost2010Prop39
140
1.0
102
RTVSPost2010PropOp39
 70
     1
102
RTVSPost2010Prop40
 90
        0
102
RTVSPost2010PropOp40
 70
     1
102
RTVSPost2010Prop41ColorIndex
 90
       18
102
RTVSPost2010Prop41ColorRGB
 90
        0
102
RTVSPost2010PropOp41
 70
     1
102
RTVSPost2010Prop42
 90
       50
102
RTVSPost2010PropOp42
 70
     1
102
RTVSPost2010Prop43
 90
        3
102
RTVSPost2010PropOp43
 70
     1
102
RTVSPost2010Prop44ColorIndex
 90
        5
102
RTVSPost2010Prop44ColorRGB
 90
      255
102
RTVSPost2010PropOp44
 70
     1
102
RTVSPost2010Prop45
280
     0
102
RTVSPost2010PropOp45
 70
     1
102
RTVSPost2010Prop46
 90
       50
102
RTVSPost2010PropOp46
 70
     1
102
RTVSPost2010Prop47
 90
       50
102
RTVSPost2010PropOp47
 70
     1
102
RTVSPost2010Prop48
 90
       50
102
RTVSPost2010PropOp48
 70
     1
102
RTVSPost2010Prop49
280
     0
102
RTVSPost2010PropOp49
 70
     1
102
RTVSPost2010Prop50
 90
       50
102
RTVSPost2010PropOp50
 70
     1
102
RTVSPost2010Prop51ColorIndex
 90
      256
102
RTVSPost2010Prop51ColorRGB
 90
-16777216
102
RTVSPost2010PropOp51
 70
     0
102
RTVSPost2010Prop52
140
1.0
102
RTVSPost2010PropOp52
 70
     0
102
RTVSPost2010Prop53
 90
        2
102
RTVSPost2010PropOp53
 70
     1
102
RTVSPost2010Prop54
  1
strokes_ogs.tif
102
RTVSPost2010PropOp54
 70
     1
102
RTVSPost2010Prop55
280
     0
102
RTVSPost2010PropOp55
 70
     1
102
RTVSPost2010Prop56
140
1.0
102
RTVSPost2010PropOp56
 70
     1
102
RTVSPost2010Prop57
140
1.0
102
RTVSPost2010PropOp57
 70
     1
  0
XRECORD
  5
272
102
{ACAD_REACTORS
330
271
102
}
330
271
100
AcDbXrecord
280
     1
102
RTVSPropertyOp0
 70
     1
102
RTVSPropertyOp1
 70
     1
102
RTVSPropertyOp2
 70
     1
102
RTVSPropertyOp3
 70
     1
102
RTVSPropertyOp4
 70
     1
102
RTVSPropertyOp5
 70
     1
102
RTVSPropertyOp6
 70
     1
102
RTVSPropertyOp7
 70
     1
102
RTVSPropertyOp8
 70
     1
102
RTVSPropertyOp9
 70
     1
102
RTVSPropertyOp10
 70
     1
102
RTVSPropertyOp11
 70
     1
102
RTVSPropertyOp12
 70
     1
102
RTVSPropertyOp13
 70
     1
102
RTVSPropertyOp14
 70
     1
102
RTVSPropertyOp15
 70
     1
102
RTVSPropertyOp16
 70
     1
102
RTVSPropertyOp17
 70
     1
102
RTVSPropertyOp18
 70
     1
102
RTVSPropertyOp19
 70
     1
102
RTVSPropertyOp20
 70
     1
102
RTVSPropertyOp21
 70
     1
102
RTVSPropertyOp22
 70
     1
102
RTVSPropertyOp23
 70
     1
102
RTVSPropertyOp24
 70
     1
102
RTVSPropertyOp25
 70
     1
102
RTVSPropertyOp26
 70
     1
102
RTVSPropertyOp27
 70
     1
102
RTVSPropertyOp28
 70
     1
102
RTVSPropertyOp29
 70
     1
102
RTVSPropertyOp30
 70
     1
102
RTVSPropertyOp31
 70
     1
102
RTVSPropertyOp32
 70
     1
102
RTVSPropertyOp33
 70
     1
102
RTVSPropertyOp34
 70
     1
102
RTVSPropertyOp35
 70
     1
102
RTVSPropertyOp36
 70
     1
102
RTVSPropertyOp37
 70
     1
102
RTVSPropertyOp38
 70
     1
102
RTVSPropertyOp39
 70
     1
102
RTVSPropertyOp40
 70
     1
102
RTVSPropertyOp41
 70
     1
102
RTVSPropertyOp42
 70
     1
102
RTVSPropertyOp43
 70
     1
102
RTVSPropertyOp44
 70
     1
102
RTVSPropertyOp45
 70
     1
102
RTVSPropertyOp46
 70
     1
102
RTVSPropertyOp47
 70
     1
102
RTVSPropertyOp48
 70
     1
102
RTVSPropertyOp49
 70
     1
102
RTVSPropertyOp50
 70
     1
102
RTVSPropertyOp51
 70
     0
102
RTVSPropertyOp52
 70
     0
102
RTVSPropertyOp53
 70
     1
102
RTVSPropertyOp54
 70
     1
102
RTVSPropertyOp55
 70
     1
102
RTVSPropertyOp56
 70
     1
102
RTVSPropertyOp57
 70
     1
102
RTVSPost2010Prop28
280
     0
102
RTVSPost2010PropOp28
 70
     1
102
RTVSPost2010Prop29
280
     1
102
RTVSPost2010PropOp29
 70
     1
102
RTVSPost2010Prop30
280
     1
102
RTVSPost2010PropOp30
 70
     1
102
RTVSPost2010Prop31
280
     0
102
RTVSPost2010PropOp31
 70
     1
102
RTVSPost2010Prop32
280
     0
102
RTVSPost2010PropOp32
 70
     1
102
RTVSPost2010Prop33
280
     0
102
RTVSPost2010PropOp33
 70
     1
102
RTVSPost2010Prop34
280
     0
102
RTVSPost2010PropOp34
 70
     1
102
RTVSPost2010Prop35
280
     0
102
RTVSPost2010PropOp35
 70
     1
102
RTVSPost2010Prop36
280
     0
102
RTVSPost2010PropOp36
 70
     1
102
RTVSPost2010Prop37
 90
       50
102
RTVSPost2010PropOp37
 70
     1
102
RTVSPost2010Prop38
140
0.0
102
RTVSPost2010PropOp38
 70
     1
102
RTVSPost2010Prop39
140
1.0
102
RTVSPost2010PropOp39
 70
     1
102
RTVSPost2010Prop40
 90
        0
102
RTVSPost2010PropOp40
 70
     1
102
RTVSPost2010Prop41ColorIndex
 90
       18
102
RTVSPost2010Prop41ColorRGB
 90
        0
102
RTVSPost2010PropOp41
 70
     1
102
RTVSPost2010Prop42
 90
       50
102
RTVSPost2010PropOp42
 70
     1
102
RTVSPost2010Prop43
 90
        3
102
RTVSPost2010PropOp43
 70
     1
102
RTVSPost2010Prop44ColorIndex
 90
        5
102
RTVSPost2010Prop44ColorRGB
 90
      255
102
RTVSPost2010PropOp44
 70
     1
102
RTVSPost2010Prop45
280
     0
102
RTVSPost2010PropOp45
 70
     1
102
RTVSPost2010Prop46
 90
       50
102
RTVSPost2010PropOp46
 70
     1
102
RTVSPost2010Prop47
 90
       50
102
RTVSPost2010PropOp47
 70
     1
102
RTVSPost2010Prop48
 90
       50
102
RTVSPost2010PropOp48
 70
     1
102
RTVSPost2010Prop49
280
     0
102
RTVSPost2010PropOp49
 70
     1
102
RTVSPost2010Prop50
 90
       50
102
RTVSPost2010PropOp50
 70
     1
102
RTVSPost2010Prop51ColorIndex
 90
      256
102
RTVSPost2010Prop51ColorRGB
 90
-16777216
102
RTVSPost2010PropOp51
 70
     0
102
RTVSPost2010Prop52
140
1.0
102
RTVSPost2010PropOp52
 70
     0
102
RTVSPost2010Prop53
 90
        2
102
RTVSPost2010PropOp53
 70
     1
102
RTVSPost2010Prop54
  1
strokes_ogs.tif
102
RTVSPost2010PropOp54
 70
     1
102
RTVSPost2010Prop55
280
     0
102
RTVSPost2010PropOp55
 70
     1
102
RTVSPost2010Prop56
140
1.0
102
RTVSPost2010PropOp56
 70
     1
102
RTVSPost2010Prop57
140
1.0
102
RTVSPost2010PropOp57
 70
     1
  0
XRECORD
  5
274
102
{ACAD_REACTORS
330
273
102
}
330
273
100
AcDbXrecord
280
     1
102
RTVSPropertyOp0
 70
     1
102
RTVSPropertyOp1
 70
     1
102
RTVSPropertyOp2
 70
     1
102
RTVSPropertyOp3
 70
     1
102
RTVSPropertyOp4
 70
     1
102
RTVSPropertyOp5
 70
     1
102
RTVSPropertyOp6
 70
     1
102
RTVSPropertyOp7
 70
     1
102
RTVSPropertyOp8
 70
     1
102
RTVSPropertyOp9
 70
     1
102
RTVSPropertyOp10
 70
     1
102
RTVSPropertyOp11
 70
     1
102
RTVSPropertyOp12
 70
     1
102
RTVSPropertyOp13
 70
     1
102
RTVSPropertyOp14
 70
     1
102
RTVSPropertyOp15
 70
     1
102
RTVSPropertyOp16
 70
     1
102
RTVSPropertyOp17
 70
     1
102
RTVSPropertyOp18
 70
     1
102
RTVSPropertyOp19
 70
     1
102
RTVSPropertyOp20
 70
     1
102
RTVSPropertyOp21
 70
     1
102
RTVSPropertyOp22
 70
     1
102
RTVSPropertyOp23
 70
     1
102
RTVSPropertyOp24
 70
     1
102
RTVSPropertyOp25
 70
     1
102
RTVSPropertyOp26
 70
     1
102
RTVSPropertyOp27
 70
     1
102
RTVSPropertyOp28
 70
     1
102
RTVSPropertyOp29
 70
     1
102
RTVSPropertyOp30
 70
     1
102
RTVSPropertyOp31
 70
     1
102
RTVSPropertyOp32
 70
     1
102
RTVSPropertyOp33
 70
     1
102
RTVSPropertyOp34
 70
     1
102
RTVSPropertyOp35
 70
     1
102
RTVSPropertyOp36
 70
     1
102
RTVSPropertyOp37
 70
     1
102
RTVSPropertyOp38
 70
     1
102
RTVSPropertyOp39
 70
     1
102
RTVSPropertyOp40
 70
     1
102
RTVSPropertyOp41
 70
     1
102
RTVSPropertyOp42
 70
     1
102
RTVSPropertyOp43
 70
     1
102
RTVSPropertyOp44
 70
     1
102
RTVSPropertyOp45
 70
     1
102
RTVSPropertyOp46
 70
     1
102
RTVSPropertyOp47
 70
     1
102
RTVSPropertyOp48
 70
     1
102
RTVSPropertyOp49
 70
     1
102
RTVSPropertyOp50
 70
     1
102
RTVSPropertyOp51
 70
     0
102
RTVSPropertyOp52
 70
     0
102
RTVSPropertyOp53
 70
     1
102
RTVSPropertyOp54
 70
     1
102
RTVSPropertyOp55
 70
     1
102
RTVSPropertyOp56
 70
     1
102
RTVSPropertyOp57
 70
     1
102
RTVSPost2010Prop28
280
     0
102
RTVSPost2010PropOp28
 70
     1
102
RTVSPost2010Prop29
280
     1
102
RTVSPost2010PropOp29
 70
     1
102
RTVSPost2010Prop30
280
     1
102
RTVSPost2010PropOp30
 70
     1
102
RTVSPost2010Prop31
280
     0
102
RTVSPost2010PropOp31
 70
     1
102
RTVSPost2010Prop32
280
     0
102
RTVSPost2010PropOp32
 70
     1
102
RTVSPost2010Prop33
280
     0
102
RTVSPost2010PropOp33
 70
     1
102
RTVSPost2010Prop34
280
     0
102
RTVSPost2010PropOp34
 70
     1
102
RTVSPost2010Prop35
280
     0
102
RTVSPost2010PropOp35
 70
     1
102
RTVSPost2010Prop36
280
     0
102
RTVSPost2010PropOp36
 70
     1
102
RTVSPost2010Prop37
 90
       50
102
RTVSPost2010PropOp37
 70
     1
102
RTVSPost2010Prop38
140
0.0
102
RTVSPost2010PropOp38
 70
     1
102
RTVSPost2010Prop39
140
1.0
102
RTVSPost2010PropOp39
 70
     1
102
RTVSPost2010Prop40
 90
        0
102
RTVSPost2010PropOp40
 70
     1
102
RTVSPost2010Prop41ColorIndex
 90
       18
102
RTVSPost2010Prop41ColorRGB
 90
        0
102
RTVSPost2010PropOp41
 70
     1
102
RTVSPost2010Prop42
 90
       50
102
RTVSPost2010PropOp42
 70
     1
102
RTVSPost2010Prop43
 90
        3
102
RTVSPost2010PropOp43
 70
     1
102
RTVSPost2010Prop44ColorIndex
 90
        5
102
RTVSPost2010Prop44ColorRGB
 90
      255
102
RTVSPost2010PropOp44
 70
     1
102
RTVSPost2010Prop45
280
     0
102
RTVSPost2010PropOp45
 70
     1
102
RTVSPost2010Prop46
 90
       50
102
RTVSPost2010PropOp46
 70
     1
102
RTVSPost2010Prop47
 90
       50
102
RTVSPost2010PropOp47
 70
     1
102
RTVSPost2010Prop48
 90
       50
102
RTVSPost2010PropOp48
 70
     1
102
RTVSPost2010Prop49
280
     0
102
RTVSPost2010PropOp49
 70
     1
102
RTVSPost2010Prop50
 90
       50
102
RTVSPost2010PropOp50
 70
     1
102
RTVSPost2010Prop51ColorIndex
 90
      256
102
RTVSPost2010Prop51ColorRGB
 90
-16777216
102
RTVSPost2010PropOp51
 70
     0
102
RTVSPost2010Prop52
140
1.0
102
RTVSPost2010PropOp52
 70
     0
102
RTVSPost2010Prop53
 90
        2
102
RTVSPost2010PropOp53
 70
     1
102
RTVSPost2010Prop54
  1
strokes_ogs.tif
102
RTVSPost2010PropOp54
 70
     1
102
RTVSPost2010Prop55
280
     0
102
RTVSPost2010PropOp55
 70
     1
102
RTVSPost2010Prop56
140
1.0
102
RTVSPost2010PropOp56
 70
     1
102
RTVSPost2010Prop57
140
1.0
102
RTVSPost2010PropOp57
 70
     1
  0
XRECORD
  5
276
102
{ACAD_REACTORS
330
275
102
}
330
275
100
AcDbXrecord
280
     1
102
RTVSPropertyOp0
 70
     1
102
RTVSPropertyOp1
 70
     1
102
RTVSPropertyOp2
 70
     1
102
RTVSPropertyOp3
 70
     1
102
RTVSPropertyOp4
 70
     1
102
RTVSPropertyOp5
 70
     1
102
RTVSPropertyOp6
 70
     1
102
RTVSPropertyOp7
 70
     1
102
RTVSPropertyOp8
 70
     1
102
RTVSPropertyOp9
 70
     1
102
RTVSPropertyOp10
 70
     1
102
RTVSPropertyOp11
 70
     1
102
RTVSPropertyOp12
 70
     1
102
RTVSPropertyOp13
 70
     1
102
RTVSPropertyOp14
 70
     1
102
RTVSPropertyOp15
 70
     1
102
RTVSPropertyOp16
 70
     1
102
RTVSPropertyOp17
 70
     1
102
RTVSPropertyOp18
 70
     1
102
RTVSPropertyOp19
 70
     1
102
RTVSPropertyOp20
 70
     1
102
RTVSPropertyOp21
 70
     1
102
RTVSPropertyOp22
 70
     1
102
RTVSPropertyOp23
 70
     1
102
RTVSPropertyOp24
 70
     1
102
RTVSPropertyOp25
 70
     1
102
RTVSPropertyOp26
 70
     1
102
RTVSPropertyOp27
 70
     1
102
RTVSPropertyOp28
 70
     1
102
RTVSPropertyOp29
 70
     1
102
RTVSPropertyOp30
 70
     1
102
RTVSPropertyOp31
 70
     1
102
RTVSPropertyOp32
 70
     1
102
RTVSPropertyOp33
 70
     1
102
RTVSPropertyOp34
 70
     1
102
RTVSPropertyOp35
 70
     1
102
RTVSPropertyOp36
 70
     1
102
RTVSPropertyOp37
 70
     1
102
RTVSPropertyOp38
 70
     1
102
RTVSPropertyOp39
 70
     1
102
RTVSPropertyOp40
 70
     1
102
RTVSPropertyOp41
 70
     1
102
RTVSPropertyOp42
 70
     1
102
RTVSPropertyOp43
 70
     1
102
RTVSPropertyOp44
 70
     1
102
RTVSPropertyOp45
 70
     1
102
RTVSPropertyOp46
 70
     1
102
RTVSPropertyOp47
 70
     1
102
RTVSPropertyOp48
 70
     1
102
RTVSPropertyOp49
 70
     1
102
RTVSPropertyOp50
 70
     1
102
RTVSPropertyOp51
 70
     0
102
RTVSPropertyOp52
 70
     0
102
RTVSPropertyOp53
 70
     1
102
RTVSPropertyOp54
 70
     1
102
RTVSPropertyOp55
 70
     1
102
RTVSPropertyOp56
 70
     1
102
RTVSPropertyOp57
 70
     1
102
RTVSPost2010Prop28
280
     0
102
RTVSPost2010PropOp28
 70
     1
102
RTVSPost2010Prop29
280
     1
102
RTVSPost2010PropOp29
 70
     1
102
RTVSPost2010Prop30
280
     1
102
RTVSPost2010PropOp30
 70
     1
102
RTVSPost2010Prop31
280
     0
102
RTVSPost2010PropOp31
 70
     1
102
RTVSPost2010Prop32
280
     0
102
RTVSPost2010PropOp32
 70
     1
102
RTVSPost2010Prop33
280
     0
102
RTVSPost2010PropOp33
 70
     1
102
RTVSPost2010Prop34
280
     0
102
RTVSPost2010PropOp34
 70
     1
102
RTVSPost2010Prop35
280
     0
102
RTVSPost2010PropOp35
 70
     1
102
RTVSPost2010Prop36
280
     0
102
RTVSPost2010PropOp36
 70
     1
102
RTVSPost2010Prop37
 90
       50
102
RTVSPost2010PropOp37
 70
     1
102
RTVSPost2010Prop38
140
0.0
102
RTVSPost2010PropOp38
 70
     1
102
RTVSPost2010Prop39
140
1.0
102
RTVSPost2010PropOp39
 70
     1
102
RTVSPost2010Prop40
 90
        0
102
RTVSPost2010PropOp40
 70
     1
102
RTVSPost2010Prop41ColorIndex
 90
       18
102
RTVSPost2010Prop41ColorRGB
 90
        0
102
RTVSPost2010PropOp41
 70
     1
102
RTVSPost2010Prop42
 90
       50
102
RTVSPost2010PropOp42
 70
     1
102
RTVSPost2010Prop43
 90
        3
102
RTVSPost2010PropOp43
 70
     1
102
RTVSPost2010Prop44ColorIndex
 90
        5
102
RTVSPost2010Prop44ColorRGB
 90
      255
102
RTVSPost2010PropOp44
 70
     1
102
RTVSPost2010Prop45
280
     0
102
RTVSPost2010PropOp45
 70
     1
102
RTVSPost2010Prop46
 90
       50
102
RTVSPost2010PropOp46
 70
     1
102
RTVSPost2010Prop47
 90
       50
102
RTVSPost2010PropOp47
 70
     1
102
RTVSPost2010Prop48
 90
       50
102
RTVSPost2010PropOp48
 70
     1
102
RTVSPost2010Prop49
280
     0
102
RTVSPost2010PropOp49
 70
     1
102
RTVSPost2010Prop50
 90
       50
102
RTVSPost2010PropOp50
 70
     1
102
RTVSPost2010Prop51ColorIndex
 90
      256
102
RTVSPost2010Prop51ColorRGB
 90
-16777216
102
RTVSPost2010PropOp51
 70
     0
102
RTVSPost2010Prop52
140
1.0
102
RTVSPost2010PropOp52
 70
     0
102
RTVSPost2010Prop53
 90
        2
102
RTVSPost2010PropOp53
 70
     1
102
RTVSPost2010Prop54
  1
strokes_ogs.tif
102
RTVSPost2010PropOp54
 70
     1
102
RTVSPost2010Prop55
280
     0
102
RTVSPost2010PropOp55
 70
     1
102
RTVSPost2010Prop56
140
1.0
102
RTVSPost2010PropOp56
 70
     1
102
RTVSPost2010Prop57
140
1.0
102
RTVSPost2010PropOp57
 70
     1
  0
XRECORD
  5
27C
102
{ACAD_REACTORS
330
27B
102
}
330
27B
100
AcDbXrecord
280
     1
102
RTVSPropertyOp0
 70
     1
102
RTVSPropertyOp1
 70
     1
102
RTVSPropertyOp2
 70
     1
102
RTVSPropertyOp3
 70
     1
102
RTVSPropertyOp4
 70
     1
102
RTVSPropertyOp5
 70
     1
102
RTVSPropertyOp6
 70
     1
102
RTVSPropertyOp7
 70
     1
102
RTVSPropertyOp8
 70
     1
102
RTVSPropertyOp9
 70
     1
102
RTVSPropertyOp10
 70
     1
102
RTVSPropertyOp11
 70
     1
102
RTVSPropertyOp12
 70
     1
102
RTVSPropertyOp13
 70
     1
102
RTVSPropertyOp14
 70
     1
102
RTVSPropertyOp15
 70
     1
102
RTVSPropertyOp16
 70
     1
102
RTVSPropertyOp17
 70
     1
102
RTVSPropertyOp18
 70
     1
102
RTVSPropertyOp19
 70
     1
102
RTVSPropertyOp20
 70
     1
102
RTVSPropertyOp21
 70
     1
102
RTVSPropertyOp22
 70
     1
102
RTVSPropertyOp23
 70
     1
102
RTVSPropertyOp24
 70
     1
102
RTVSPropertyOp25
 70
     1
102
RTVSPropertyOp26
 70
     1
102
RTVSPropertyOp27
 70
     1
102
RTVSPropertyOp28
 70
     1
102
RTVSPropertyOp29
 70
     1
102
RTVSPropertyOp30
 70
     1
102
RTVSPropertyOp31
 70
     1
102
RTVSPropertyOp32
 70
     1
102
RTVSPropertyOp33
 70
     1
102
RTVSPropertyOp34
 70
     1
102
RTVSPropertyOp35
 70
     1
102
RTVSPropertyOp36
 70
     1
102
RTVSPropertyOp37
 70
     1
102
RTVSPropertyOp38
 70
     1
102
RTVSPropertyOp39
 70
     1
102
RTVSPropertyOp40
 70
     1
102
RTVSPropertyOp41
 70
     1
102
RTVSPropertyOp42
 70
     1
102
RTVSPropertyOp43
 70
     1
102
RTVSPropertyOp44
 70
     1
102
RTVSPropertyOp45
 70
     1
102
RTVSPropertyOp46
 70
     1
102
RTVSPropertyOp47
 70
     1
102
RTVSPropertyOp48
 70
     1
102
RTVSPropertyOp49
 70
     1
102
RTVSPropertyOp50
 70
     1
102
RTVSPropertyOp51
 70
     0
102
RTVSPropertyOp52
 70
     0
102
RTVSPropertyOp53
 70
     1
102
RTVSPropertyOp54
 70
     1
102
RTVSPropertyOp55
 70
     1
102
RTVSPropertyOp56
 70
     1
102
RTVSPropertyOp57
 70
     1
102
RTVSPost2010Prop28
280
     0
102
RTVSPost2010PropOp28
 70
     1
102
RTVSPost2010Prop29
280
     1
102
RTVSPost2010PropOp29
 70
     1
102
RTVSPost2010Prop30
280
     1
102
RTVSPost2010PropOp30
 70
     1
102
RTVSPost2010Prop31
280
     0
102
RTVSPost2010PropOp31
 70
     1
102
RTVSPost2010Prop32
280
     0
102
RTVSPost2010PropOp32
 70
     1
102
RTVSPost2010Prop33
280
     0
102
RTVSPost2010PropOp33
 70
     1
102
RTVSPost2010Prop34
280
     0
102
RTVSPost2010PropOp34
 70
     1
102
RTVSPost2010Prop35
280
     0
102
RTVSPost2010PropOp35
 70
     1
102
RTVSPost2010Prop36
280
     0
102
RTVSPost2010PropOp36
 70
     1
102
RTVSPost2010Prop37
 90
       50
102
RTVSPost2010PropOp37
 70
     1
102
RTVSPost2010Prop38
140
0.0
102
RTVSPost2010PropOp38
 70
     1
102
RTVSPost2010Prop39
140
1.0
102
RTVSPost2010PropOp39
 70
     1
102
RTVSPost2010Prop40
 90
        0
102
RTVSPost2010PropOp40
 70
     1
102
RTVSPost2010Prop41ColorIndex
 90
       18
102
RTVSPost2010Prop41ColorRGB
 90
        0
102
RTVSPost2010PropOp41
 70
     1
102
RTVSPost2010Prop42
 90
       50
102
RTVSPost2010PropOp42
 70
     1
102
RTVSPost2010Prop43
 90
        3
102
RTVSPost2010PropOp43
 70
     1
102
RTVSPost2010Prop44ColorIndex
 90
        5
102
RTVSPost2010Prop44ColorRGB
 90
      255
102
RTVSPost2010PropOp44
 70
     1
102
RTVSPost2010Prop45
280
     0
102
RTVSPost2010PropOp45
 70
     1
102
RTVSPost2010Prop46
 90
       50
102
RTVSPost2010PropOp46
 70
     1
102
RTVSPost2010Prop47
 90
       50
102
RTVSPost2010PropOp47
 70
     1
102
RTVSPost2010Prop48
 90
       50
102
RTVSPost2010PropOp48
 70
     1
102
RTVSPost2010Prop49
280
     0
102
RTVSPost2010PropOp49
 70
     1
102
RTVSPost2010Prop50
 90
       50
102
RTVSPost2010PropOp50
 70
     1
102
RTVSPost2010Prop51ColorIndex
 90
      256
102
RTVSPost2010Prop51ColorRGB
 90
-16777216
102
RTVSPost2010PropOp51
 70
     0
102
RTVSPost2010Prop52
140
1.0
102
RTVSPost2010PropOp52
 70
     0
102
RTVSPost2010Prop53
 90
        2
102
RTVSPost2010PropOp53
 70
     1
102
RTVSPost2010Prop54
  1
strokes_ogs.tif
102
RTVSPost2010PropOp54
 70
     1
102
RTVSPost2010Prop55
280
     0
102
RTVSPost2010PropOp55
 70
     1
102
RTVSPost2010Prop56
140
1.0
102
RTVSPost2010PropOp56
 70
     1
102
RTVSPost2010Prop57
140
1.0
102
RTVSPost2010PropOp57
 70
     1
  0
XRECORD
  5
290
102
{ACAD_REACTORS
330
28F
102
}
330
28F
100
AcDbXrecord
280
     1
102
RTVSPropertyOp0
 70
     0
102
RTVSPropertyOp1
 70
     0
102
RTVSPropertyOp2
 70
     0
102
RTVSPropertyOp3
 70
     0
102
RTVSPropertyOp4
 70
     0
102
RTVSPropertyOp5
 70
     0
102
RTVSPropertyOp6
 70
     0
102
RTVSPropertyOp7
 70
     0
102
RTVSPropertyOp8
 70
     0
102
RTVSPropertyOp9
 70
     0
102
RTVSPropertyOp10
 70
     0
102
RTVSPropertyOp11
 70
     0
102
RTVSPropertyOp12
 70
     0
102
RTVSPropertyOp13
 70
     0
102
RTVSPropertyOp14
 70
     2
102
RTVSPropertyOp15
 70
     0
102
RTVSPropertyOp16
 70
     0
102
RTVSPropertyOp17
 70
     0
102
RTVSPropertyOp18
 70
     0
102
RTVSPropertyOp19
 70
     0
102
RTVSPropertyOp20
 70
     0
102
RTVSPropertyOp21
 70
     0
102
RTVSPropertyOp22
 70
     0
102
RTVSPropertyOp23
 70
     0
102
RTVSPropertyOp24
 70
     0
102
RTVSPropertyOp25
 70
     0
102
RTVSPropertyOp26
 70
     0
102
RTVSPropertyOp27
 70
     0
102
RTVSPropertyOp28
 70
     0
102
RTVSPropertyOp29
 70
     0
102
RTVSPropertyOp30
 70
     0
102
RTVSPropertyOp31
 70
     0
102
RTVSPropertyOp32
 70
     0
102
RTVSPropertyOp33
 70
     0
102
RTVSPropertyOp34
 70
     0
102
RTVSPropertyOp35
 70
     0
102
RTVSPropertyOp36
 70
     0
102
RTVSPropertyOp37
 70
     0
102
RTVSPropertyOp38
 70
     0
102
RTVSPropertyOp39
 70
     0
102
RTVSPropertyOp40
 70
     0
102
RTVSPropertyOp41
 70
     0
102
RTVSPropertyOp42
 70
     0
102
RTVSPropertyOp43
 70
     0
102
RTVSPropertyOp44
 70
     0
102
RTVSPropertyOp45
 70
     0
102
RTVSPropertyOp46
 70
     0
102
RTVSPropertyOp47
 70
     0
102
RTVSPropertyOp48
 70
     0
102
RTVSPropertyOp49
 70
     0
102
RTVSPropertyOp50
 70
     0
102
RTVSPropertyOp51
 70
     0
102
RTVSPropertyOp52
 70
     0
102
RTVSPropertyOp53
 70
     0
102
RTVSPropertyOp54
 70
     0
102
RTVSPropertyOp55
 70
     0
102
RTVSPropertyOp56
 70
     0
102
RTVSPropertyOp57
 70
     0
102
RTVSPost2010Prop28
280
     0
102
RTVSPost2010PropOp28
 70
     0
102
RTVSPost2010Prop29
280
     1
102
RTVSPost2010PropOp29
 70
     0
102
RTVSPost2010Prop30
280
     1
102
RTVSPost2010PropOp30
 70
     0
102
RTVSPost2010Prop31
280
     0
102
RTVSPost2010PropOp31
 70
     0
102
RTVSPost2010Prop32
280
     0
102
RTVSPost2010PropOp32
 70
     0
102
RTVSPost2010Prop33
280
     0
102
RTVSPost2010PropOp33
 70
     0
102
RTVSPost2010Prop34
280
     0
102
RTVSPost2010PropOp34
 70
     0
102
RTVSPost2010Prop35
280
     0
102
RTVSPost2010PropOp35
 70
     0
102
RTVSPost2010Prop36
280
     0
102
RTVSPost2010PropOp36
 70
     0
102
RTVSPost2010Prop37
 90
       50
102
RTVSPost2010PropOp37
 70
     0
102
RTVSPost2010Prop38
140
0.0
102
RTVSPost2010PropOp38
 70
     0
102
RTVSPost2010Prop39
140
1.0
102
RTVSPost2010PropOp39
 70
     0
102
RTVSPost2010Prop40
 90
        0
102
RTVSPost2010PropOp40
 70
     0
102
RTVSPost2010Prop41ColorIndex
 90
       18
102
RTVSPost2010Prop41ColorRGB
 90
        0
102
RTVSPost2010PropOp41
 70
     0
102
RTVSPost2010Prop42
 90
       50
102
RTVSPost2010PropOp42
 70
     0
102
RTVSPost2010Prop43
 90
        3
102
RTVSPost2010PropOp43
 70
     0
102
RTVSPost2010Prop44ColorIndex
 90
        5
102
RTVSPost2010Prop44ColorRGB
 90
      255
102
RTVSPost2010PropOp44
 70
     0
102
RTVSPost2010Prop45
280
     0
102
RTVSPost2010PropOp45
 70
     0
102
RTVSPost2010Prop46
 90
       50
102
RTVSPost2010PropOp46
 70
     0
102
RTVSPost2010Prop47
 90
       50
102
RTVSPost2010PropOp47
 70
     0
102
RTVSPost2010Prop48
 90
       50
102
RTVSPost2010PropOp48
 70
     0
102
RTVSPost2010Prop49
280
     0
102
RTVSPost2010PropOp49
 70
     0
102
RTVSPost2010Prop50
 90
       50
102
RTVSPost2010PropOp50
 70
     0
102
RTVSPost2010Prop51ColorIndex
 90
      256
102
RTVSPost2010Prop51ColorRGB
 90
-16777216
102
RTVSPost2010PropOp51
 70
     0
102
RTVSPost2010Prop52
140
1.0
102
RTVSPost2010PropOp52
 70
     0
102
RTVSPost2010Prop53
 90
        2
102
RTVSPost2010PropOp53
 70
     0
102
RTVSPost2010Prop54
  1
strokes_ogs.tif
102
RTVSPost2010PropOp54
 70
     0
102
RTVSPost2010Prop55
280
     0
102
RTVSPost2010PropOp55
 70
     0
102
RTVSPost2010Prop56
140
1.0
102
RTVSPost2010PropOp56
 70
     0
102
RTVSPost2010Prop57
140
1.0
102
RTVSPost2010PropOp57
 70
     0
  0
XRECORD
  5
28A
102
{ACAD_REACTORS
330
289
102
}
330
289
100
AcDbXrecord
280
     1
102
RTVSPropertyOp0
 70
     1
102
RTVSPropertyOp1
 70
     1
102
RTVSPropertyOp2
 70
     1
102
RTVSPropertyOp3
 70
     1
102
RTVSPropertyOp4
 70
     1
102
RTVSPropertyOp5
 70
     1
102
RTVSPropertyOp6
 70
     1
102
RTVSPropertyOp7
 70
     1
102
RTVSPropertyOp8
 70
     1
102
RTVSPropertyOp9
 70
     1
102
RTVSPropertyOp10
 70
     1
102
RTVSPropertyOp11
 70
     1
102
RTVSPropertyOp12
 70
     1
102
RTVSPropertyOp13
 70
     1
102
RTVSPropertyOp14
 70
     1
102
RTVSPropertyOp15
 70
     1
102
RTVSPropertyOp16
 70
     1
102
RTVSPropertyOp17
 70
     1
102
RTVSPropertyOp18
 70
     1
102
RTVSPropertyOp19
 70
     1
102
RTVSPropertyOp20
 70
     1
102
RTVSPropertyOp21
 70
     1
102
RTVSPropertyOp22
 70
     1
102
RTVSPropertyOp23
 70
     1
102
RTVSPropertyOp24
 70
     1
102
RTVSPropertyOp25
 70
     1
102
RTVSPropertyOp26
 70
     1
102
RTVSPropertyOp27
 70
     1
102
RTVSPropertyOp28
 70
     1
102
RTVSPropertyOp29
 70
     1
102
RTVSPropertyOp30
 70
     1
102
RTVSPropertyOp31
 70
     1
102
RTVSPropertyOp32
 70
     1
102
RTVSPropertyOp33
 70
     1
102
RTVSPropertyOp34
 70
     1
102
RTVSPropertyOp35
 70
     1
102
RTVSPropertyOp36
 70
     1
102
RTVSPropertyOp37
 70
     1
102
RTVSPropertyOp38
 70
     1
102
RTVSPropertyOp39
 70
     1
102
RTVSPropertyOp40
 70
     1
102
RTVSPropertyOp41
 70
     1
102
RTVSPropertyOp42
 70
     1
102
RTVSPropertyOp43
 70
     1
102
RTVSPropertyOp44
 70
     1
102
RTVSPropertyOp45
 70
     1
102
RTVSPropertyOp46
 70
     1
102
RTVSPropertyOp47
 70
     1
102
RTVSPropertyOp48
 70
     1
102
RTVSPropertyOp49
 70
     1
102
RTVSPropertyOp50
 70
     1
102
RTVSPropertyOp51
 70
     0
102
RTVSPropertyOp52
 70
     0
102
RTVSPropertyOp53
 70
     1
102
RTVSPropertyOp54
 70
     1
102
RTVSPropertyOp55
 70
     1
102
RTVSPropertyOp56
 70
     1
102
RTVSPropertyOp57
 70
     1
102
RTVSPost2010Prop28
280
     0
102
RTVSPost2010PropOp28
 70
     1
102
RTVSPost2010Prop29
280
     1
102
RTVSPost2010PropOp29
 70
     1
102
RTVSPost2010Prop30
280
     1
102
RTVSPost2010PropOp30
 70
     1
102
RTVSPost2010Prop31
280
     0
102
RTVSPost2010PropOp31
 70
     1
102
RTVSPost2010Prop32
280
     0
102
RTVSPost2010PropOp32
 70
     1
102
RTVSPost2010Prop33
280
     0
102
RTVSPost2010PropOp33
 70
     1
102
RTVSPost2010Prop34
280
     0
102
RTVSPost2010PropOp34
 70
     1
102
RTVSPost2010Prop35
280
     0
102
RTVSPost2010PropOp35
 70
     1
102
RTVSPost2010Prop36
280
     0
102
RTVSPost2010PropOp36
 70
     1
102
RTVSPost2010Prop37
 90
       50
102
RTVSPost2010PropOp37
 70
     1
102
RTVSPost2010Prop38
140
0.0
102
RTVSPost2010PropOp38
 70
     1
102
RTVSPost2010Prop39
140
1.0
102
RTVSPost2010PropOp39
 70
     1
102
RTVSPost2010Prop40
 90
        0
102
RTVSPost2010PropOp40
 70
     1
102
RTVSPost2010Prop41ColorIndex
 90
       18
102
RTVSPost2010Prop41ColorRGB
 90
        0
102
RTVSPost2010PropOp41
 70
     1
102
RTVSPost2010Prop42
 90
       50
102
RTVSPost2010PropOp42
 70
     1
102
RTVSPost2010Prop43
 90
        3
102
RTVSPost2010PropOp43
 70
     1
102
RTVSPost2010Prop44ColorIndex
 90
        5
102
RTVSPost2010Prop44ColorRGB
 90
      255
102
RTVSPost2010PropOp44
 70
     1
102
RTVSPost2010Prop45
280
     0
102
RTVSPost2010PropOp45
 70
     1
102
RTVSPost2010Prop46
 90
       50
102
RTVSPost2010PropOp46
 70
     1
102
RTVSPost2010Prop47
 90
       50
102
RTVSPost2010PropOp47
 70
     1
102
RTVSPost2010Prop48
 90
       50
102
RTVSPost2010PropOp48
 70
     1
102
RTVSPost2010Prop49
280
     0
102
RTVSPost2010PropOp49
 70
     1
102
RTVSPost2010Prop50
 90
       50
102
RTVSPost2010PropOp50
 70
     1
102
RTVSPost2010Prop51ColorIndex
 90
      256
102
RTVSPost2010Prop51ColorRGB
 90
-16777216
102
RTVSPost2010PropOp51
 70
     0
102
RTVSPost2010Prop52
140
1.0
102
RTVSPost2010PropOp52
 70
     0
102
RTVSPost2010Prop53
 90
        2
102
RTVSPost2010PropOp53
 70
     1
102
RTVSPost2010Prop54
  1
strokes_ogs.tif
102
RTVSPost2010PropOp54
 70
     1
102
RTVSPost2010Prop55
280
     0
102
RTVSPost2010PropOp55
 70
     1
102
RTVSPost2010Prop56
140
1.0
102
RTVSPost2010PropOp56
 70
     1
102
RTVSPost2010Prop57
140
1.0
102
RTVSPost2010PropOp57
 70
     1
  0
XRECORD
  5
292
102
{ACAD_REACTORS
330
291
102
}
330
291
100
AcDbXrecord
280
     1
102
RTVSPropertyOp0
 70
     0
102
RTVSPropertyOp1
 70
     0
102
RTVSPropertyOp2
 70
     0
102
RTVSPropertyOp3
 70
     0
102
RTVSPropertyOp4
 70
     0
102
RTVSPropertyOp5
 70
     0
102
RTVSPropertyOp6
 70
     0
102
RTVSPropertyOp7
 70
     0
102
RTVSPropertyOp8
 70
     0
102
RTVSPropertyOp9
 70
     0
102
RTVSPropertyOp10
 70
     0
102
RTVSPropertyOp11
 70
     0
102
RTVSPropertyOp12
 70
     0
102
RTVSPropertyOp13
 70
     0
102
RTVSPropertyOp14
 70
     2
102
RTVSPropertyOp15
 70
     0
102
RTVSPropertyOp16
 70
     0
102
RTVSPropertyOp17
 70
     0
102
RTVSPropertyOp18
 70
     0
102
RTVSPropertyOp19
 70
     0
102
RTVSPropertyOp20
 70
     0
102
RTVSPropertyOp21
 70
     0
102
RTVSPropertyOp22
 70
     0
102
RTVSPropertyOp23
 70
     0
102
RTVSPropertyOp24
 70
     0
102
RTVSPropertyOp25
 70
     0
102
RTVSPropertyOp26
 70
     0
102
RTVSPropertyOp27
 70
     0
102
RTVSPropertyOp28
 70
     0
102
RTVSPropertyOp29
 70
     0
102
RTVSPropertyOp30
 70
     0
102
RTVSPropertyOp31
 70
     0
102
RTVSPropertyOp32
 70
     0
102
RTVSPropertyOp33
 70
     0
102
RTVSPropertyOp34
 70
     0
102
RTVSPropertyOp35
 70
     0
102
RTVSPropertyOp36
 70
     0
102
RTVSPropertyOp37
 70
     0
102
RTVSPropertyOp38
 70
     0
102
RTVSPropertyOp39
 70
     0
102
RTVSPropertyOp40
 70
     0
102
RTVSPropertyOp41
 70
     0
102
RTVSPropertyOp42
 70
     0
102
RTVSPropertyOp43
 70
     0
102
RTVSPropertyOp44
 70
     0
102
RTVSPropertyOp45
 70
     0
102
RTVSPropertyOp46
 70
     0
102
RTVSPropertyOp47
 70
     0
102
RTVSPropertyOp48
 70
     0
102
RTVSPropertyOp49
 70
     0
102
RTVSPropertyOp50
 70
     0
102
RTVSPropertyOp51
 70
     0
102
RTVSPropertyOp52
 70
     0
102
RTVSPropertyOp53
 70
     0
102
RTVSPropertyOp54
 70
     0
102
RTVSPropertyOp55
 70
     0
102
RTVSPropertyOp56
 70
     0
102
RTVSPropertyOp57
 70
     0
102
RTVSPost2010Prop28
280
     0
102
RTVSPost2010PropOp28
 70
     0
102
RTVSPost2010Prop29
280
     1
102
RTVSPost2010PropOp29
 70
     0
102
RTVSPost2010Prop30
280
     1
102
RTVSPost2010PropOp30
 70
     0
102
RTVSPost2010Prop31
280
     0
102
RTVSPost2010PropOp31
 70
     0
102
RTVSPost2010Prop32
280
     0
102
RTVSPost2010PropOp32
 70
     0
102
RTVSPost2010Prop33
280
     0
102
RTVSPost2010PropOp33
 70
     0
102
RTVSPost2010Prop34
280
     0
102
RTVSPost2010PropOp34
 70
     0
102
RTVSPost2010Prop35
280
     0
102
RTVSPost2010PropOp35
 70
     0
102
RTVSPost2010Prop36
280
     0
102
RTVSPost2010PropOp36
 70
     0
102
RTVSPost2010Prop37
 90
       50
102
RTVSPost2010PropOp37
 70
     0
102
RTVSPost2010Prop38
140
0.0
102
RTVSPost2010PropOp38
 70
     0
102
RTVSPost2010Prop39
140
1.0
102
RTVSPost2010PropOp39
 70
     0
102
RTVSPost2010Prop40
 90
        0
102
RTVSPost2010PropOp40
 70
     0
102
RTVSPost2010Prop41ColorIndex
 90
       18
102
RTVSPost2010Prop41ColorRGB
 90
        0
102
RTVSPost2010PropOp41
 70
     0
102
RTVSPost2010Prop42
 90
       50
102
RTVSPost2010PropOp42
 70
     0
102
RTVSPost2010Prop43
 90
        3
102
RTVSPost2010PropOp43
 70
     0
102
RTVSPost2010Prop44ColorIndex
 90
        5
102
RTVSPost2010Prop44ColorRGB
 90
      255
102
RTVSPost2010PropOp44
 70
     0
102
RTVSPost2010Prop45
280
     0
102
RTVSPost2010PropOp45
 70
     0
102
RTVSPost2010Prop46
 90
       50
102
RTVSPost2010PropOp46
 70
     0
102
RTVSPost2010Prop47
 90
       50
102
RTVSPost2010PropOp47
 70
     0
102
RTVSPost2010Prop48
 90
       50
102
RTVSPost2010PropOp48
 70
     0
102
RTVSPost2010Prop49
280
     0
102
RTVSPost2010PropOp49
 70
     0
102
RTVSPost2010Prop50
 90
       50
102
RTVSPost2010PropOp50
 70
     0
102
RTVSPost2010Prop51ColorIndex
 90
      256
102
RTVSPost2010Prop51ColorRGB
 90
-16777216
102
RTVSPost2010PropOp51
 70
     0
102
RTVSPost2010Prop52
140
1.0
102
RTVSPost2010PropOp52
 70
     0
102
RTVSPost2010Prop53
 90
        2
102
RTVSPost2010PropOp53
 70
     0
102
RTVSPost2010Prop54
  1
strokes_ogs.tif
102
RTVSPost2010PropOp54
 70
     0
102
RTVSPost2010Prop55
280
     0
102
RTVSPost2010PropOp55
 70
     0
102
RTVSPost2010Prop56
140
1.0
102
RTVSPost2010PropOp56
 70
     0
102
RTVSPost2010Prop57
140
1.0
102
RTVSPost2010PropOp57
 70
     0
  0
XRECORD
  5
280
102
{ACAD_REACTORS
330
27F
102
}
330
27F
100
AcDbXrecord
280
     1
102
RTVSPropertyOp0
 70
     1
102
RTVSPropertyOp1
 70
     1
102
RTVSPropertyOp2
 70
     1
102
RTVSPropertyOp3
 70
     1
102
RTVSPropertyOp4
 70
     1
102
RTVSPropertyOp5
 70
     1
102
RTVSPropertyOp6
 70
     1
102
RTVSPropertyOp7
 70
     1
102
RTVSPropertyOp8
 70
     1
102
RTVSPropertyOp9
 70
     1
102
RTVSPropertyOp10
 70
     1
102
RTVSPropertyOp11
 70
     1
102
RTVSPropertyOp12
 70
     1
102
RTVSPropertyOp13
 70
     1
102
RTVSPropertyOp14
 70
     1
102
RTVSPropertyOp15
 70
     1
102
RTVSPropertyOp16
 70
     1
102
RTVSPropertyOp17
 70
     1
102
RTVSPropertyOp18
 70
     1
102
RTVSPropertyOp19
 70
     1
102
RTVSPropertyOp20
 70
     1
102
RTVSPropertyOp21
 70
     1
102
RTVSPropertyOp22
 70
     1
102
RTVSPropertyOp23
 70
     1
102
RTVSPropertyOp24
 70
     1
102
RTVSPropertyOp25
 70
     1
102
RTVSPropertyOp26
 70
     1
102
RTVSPropertyOp27
 70
     1
102
RTVSPropertyOp28
 70
     1
102
RTVSPropertyOp29
 70
     1
102
RTVSPropertyOp30
 70
     1
102
RTVSPropertyOp31
 70
     1
102
RTVSPropertyOp32
 70
     1
102
RTVSPropertyOp33
 70
     1
102
RTVSPropertyOp34
 70
     1
102
RTVSPropertyOp35
 70
     1
102
RTVSPropertyOp36
 70
     1
102
RTVSPropertyOp37
 70
     1
102
RTVSPropertyOp38
 70
     1
102
RTVSPropertyOp39
 70
     1
102
RTVSPropertyOp40
 70
     1
102
RTVSPropertyOp41
 70
     1
102
RTVSPropertyOp42
 70
     1
102
RTVSPropertyOp43
 70
     1
102
RTVSPropertyOp44
 70
     1
102
RTVSPropertyOp45
 70
     1
102
RTVSPropertyOp46
 70
     1
102
RTVSPropertyOp47
 70
     1
102
RTVSPropertyOp48
 70
     1
102
RTVSPropertyOp49
 70
     1
102
RTVSPropertyOp50
 70
     1
102
RTVSPropertyOp51
 70
     0
102
RTVSPropertyOp52
 70
     0
102
RTVSPropertyOp53
 70
     1
102
RTVSPropertyOp54
 70
     1
102
RTVSPropertyOp55
 70
     1
102
RTVSPropertyOp56
 70
     1
102
RTVSPropertyOp57
 70
     1
102
RTVSPost2010Prop28
280
     0
102
RTVSPost2010PropOp28
 70
     1
102
RTVSPost2010Prop29
280
     1
102
RTVSPost2010PropOp29
 70
     1
102
RTVSPost2010Prop30
280
     1
102
RTVSPost2010PropOp30
 70
     1
102
RTVSPost2010Prop31
280
     0
102
RTVSPost2010PropOp31
 70
     1
102
RTVSPost2010Prop32
280
     0
102
RTVSPost2010PropOp32
 70
     1
102
RTVSPost2010Prop33
280
     0
102
RTVSPost2010PropOp33
 70
     1
102
RTVSPost2010Prop34
280
     0
102
RTVSPost2010PropOp34
 70
     1
102
RTVSPost2010Prop35
280
     0
102
RTVSPost2010PropOp35
 70
     1
102
RTVSPost2010Prop36
280
     0
102
RTVSPost2010PropOp36
 70
     1
102
RTVSPost2010Prop37
 90
       50
102
RTVSPost2010PropOp37
 70
     1
102
RTVSPost2010Prop38
140
0.0
102
RTVSPost2010PropOp38
 70
     1
102
RTVSPost2010Prop39
140
1.0
102
RTVSPost2010PropOp39
 70
     1
102
RTVSPost2010Prop40
 90
        0
102
RTVSPost2010PropOp40
 70
     1
102
RTVSPost2010Prop41ColorIndex
 90
       18
102
RTVSPost2010Prop41ColorRGB
 90
        0
102
RTVSPost2010PropOp41
 70
     1
102
RTVSPost2010Prop42
 90
       50
102
RTVSPost2010PropOp42
 70
     1
102
RTVSPost2010Prop43
 90
        3
102
RTVSPost2010PropOp43
 70
     1
102
RTVSPost2010Prop44ColorIndex
 90
        5
102
RTVSPost2010Prop44ColorRGB
 90
      255
102
RTVSPost2010PropOp44
 70
     1
102
RTVSPost2010Prop45
280
     0
102
RTVSPost2010PropOp45
 70
     1
102
RTVSPost2010Prop46
 90
       50
102
RTVSPost2010PropOp46
 70
     1
102
RTVSPost2010Prop47
 90
       50
102
RTVSPost2010PropOp47
 70
     1
102
RTVSPost2010Prop48
 90
       50
102
RTVSPost2010PropOp48
 70
     1
102
RTVSPost2010Prop49
280
     0
102
RTVSPost2010PropOp49
 70
     1
102
RTVSPost2010Prop50
 90
       50
102
RTVSPost2010PropOp50
 70
     1
102
RTVSPost2010Prop51ColorIndex
 90
      256
102
RTVSPost2010Prop51ColorRGB
 90
-16777216
102
RTVSPost2010PropOp51
 70
     0
102
RTVSPost2010Prop52
140
1.0
102
RTVSPost2010PropOp52
 70
     0
102
RTVSPost2010Prop53
 90
        2
102
RTVSPost2010PropOp53
 70
     1
102
RTVSPost2010Prop54
  1
strokes_ogs.tif
102
RTVSPost2010PropOp54
 70
     1
102
RTVSPost2010Prop55
280
     0
102
RTVSPost2010PropOp55
 70
     1
102
RTVSPost2010Prop56
140
1.0
102
RTVSPost2010PropOp56
 70
     1
102
RTVSPost2010Prop57
140
1.0
102
RTVSPost2010PropOp57
 70
     1
  0
XRECORD
  5
29E
102
{ACAD_REACTORS
330
29D
102
}
330
29D
100
AcDbXrecord
280
     1
102
RTVSPropertyOp0
 70
     1
102
RTVSPropertyOp1
 70
     1
102
RTVSPropertyOp2
 70
     1
102
RTVSPropertyOp3
 70
     1
102
RTVSPropertyOp4
 70
     1
102
RTVSPropertyOp5
 70
     1
102
RTVSPropertyOp6
 70
     1
102
RTVSPropertyOp7
 70
     1
102
RTVSPropertyOp8
 70
     1
102
RTVSPropertyOp9
 70
     1
102
RTVSPropertyOp10
 70
     1
102
RTVSPropertyOp11
 70
     1
102
RTVSPropertyOp12
 70
     1
102
RTVSPropertyOp13
 70
     1
102
RTVSPropertyOp14
 70
     1
102
RTVSPropertyOp15
 70
     1
102
RTVSPropertyOp16
 70
     1
102
RTVSPropertyOp17
 70
     1
102
RTVSPropertyOp18
 70
     1
102
RTVSPropertyOp19
 70
     1
102
RTVSPropertyOp20
 70
     1
102
RTVSPropertyOp21
 70
     1
102
RTVSPropertyOp22
 70
     1
102
RTVSPropertyOp23
 70
     1
102
RTVSPropertyOp24
 70
     1
102
RTVSPropertyOp25
 70
     1
102
RTVSPropertyOp26
 70
     1
102
RTVSPropertyOp27
 70
     1
102
RTVSPropertyOp28
 70
     1
102
RTVSPropertyOp29
 70
     1
102
RTVSPropertyOp30
 70
     1
102
RTVSPropertyOp31
 70
     1
102
RTVSPropertyOp32
 70
     1
102
RTVSPropertyOp33
 70
     1
102
RTVSPropertyOp34
 70
     1
102
RTVSPropertyOp35
 70
     1
102
RTVSPropertyOp36
 70
     1
102
RTVSPropertyOp37
 70
     1
102
RTVSPropertyOp38
 70
     1
102
RTVSPropertyOp39
 70
     1
102
RTVSPropertyOp40
 70
     1
102
RTVSPropertyOp41
 70
     1
102
RTVSPropertyOp42
 70
     1
102
RTVSPropertyOp43
 70
     1
102
RTVSPropertyOp44
 70
     1
102
RTVSPropertyOp45
 70
     1
102
RTVSPropertyOp46
 70
     1
102
RTVSPropertyOp47
 70
     1
102
RTVSPropertyOp48
 70
     1
102
RTVSPropertyOp49
 70
     1
102
RTVSPropertyOp50
 70
     1
102
RTVSPropertyOp51
 70
     0
102
RTVSPropertyOp52
 70
     0
102
RTVSPropertyOp53
 70
     1
102
RTVSPropertyOp54
 70
     1
102
RTVSPropertyOp55
 70
     1
102
RTVSPropertyOp56
 70
     1
102
RTVSPropertyOp57
 70
     1
102
RTVSPost2010Prop28
280
     0
102
RTVSPost2010PropOp28
 70
     1
102
RTVSPost2010Prop29
280
     1
102
RTVSPost2010PropOp29
 70
     1
102
RTVSPost2010Prop30
280
     1
102
RTVSPost2010PropOp30
 70
     1
102
RTVSPost2010Prop31
280
     0
102
RTVSPost2010PropOp31
 70
     1
102
RTVSPost2010Prop32
280
     0
102
RTVSPost2010PropOp32
 70
     1
102
RTVSPost2010Prop33
280
     0
102
RTVSPost2010PropOp33
 70
     1
102
RTVSPost2010Prop34
280
     0
102
RTVSPost2010PropOp34
 70
     1
102
RTVSPost2010Prop35
280
     0
102
RTVSPost2010PropOp35
 70
     1
102
RTVSPost2010Prop36
280
     0
102
RTVSPost2010PropOp36
 70
     1
102
RTVSPost2010Prop37
 90
       50
102
RTVSPost2010PropOp37
 70
     1
102
RTVSPost2010Prop38
140
0.0
102
RTVSPost2010PropOp38
 70
     1
102
RTVSPost2010Prop39
140
1.0
102
RTVSPost2010PropOp39
 70
     1
102
RTVSPost2010Prop40
 90
        0
102
RTVSPost2010PropOp40
 70
     1
102
RTVSPost2010Prop41ColorIndex
 90
       18
102
RTVSPost2010Prop41ColorRGB
 90
        0
102
RTVSPost2010PropOp41
 70
     1
102
RTVSPost2010Prop42
 90
       50
102
RTVSPost2010PropOp42
 70
     1
102
RTVSPost2010Prop43
 90
        3
102
RTVSPost2010PropOp43
 70
     1
102
RTVSPost2010Prop44ColorIndex
 90
        5
102
RTVSPost2010Prop44ColorRGB
 90
      255
102
RTVSPost2010PropOp44
 70
     1
102
RTVSPost2010Prop45
280
     0
102
RTVSPost2010PropOp45
 70
     1
102
RTVSPost2010Prop46
 90
       50
102
RTVSPost2010PropOp46
 70
     1
102
RTVSPost2010Prop47
 90
       50
102
RTVSPost2010PropOp47
 70
     1
102
RTVSPost2010Prop48
 90
       50
102
RTVSPost2010PropOp48
 70
     1
102
RTVSPost2010Prop49
280
     0
102
RTVSPost2010PropOp49
 70
     1
102
RTVSPost2010Prop50
 90
       50
102
RTVSPost2010PropOp50
 70
     1
102
RTVSPost2010Prop51ColorIndex
 90
      256
102
RTVSPost2010Prop51ColorRGB
 90
-16777216
102
RTVSPost2010PropOp51
 70
     0
102
RTVSPost2010Prop52
140
1.0
102
RTVSPost2010PropOp52
 70
     0
102
RTVSPost2010Prop53
 90
        2
102
RTVSPost2010PropOp53
 70
     1
102
RTVSPost2010Prop54
  1
strokes_ogs.tif
102
RTVSPost2010PropOp54
 70
     1
102
RTVSPost2010Prop55
280
     0
102
RTVSPost2010PropOp55
 70
     1
102
RTVSPost2010Prop56
140
1.0
102
RTVSPost2010PropOp56
 70
     1
102
RTVSPost2010Prop57
140
1.0
102
RTVSPost2010PropOp57
 70
     1
  0
XRECORD
  5
29C
102
{ACAD_REACTORS
330
29B
102
}
330
29B
100
AcDbXrecord
280
     1
102
RTVSPropertyOp0
 70
     1
102
RTVSPropertyOp1
 70
     1
102
RTVSPropertyOp2
 70
     1
102
RTVSPropertyOp3
 70
     1
102
RTVSPropertyOp4
 70
     1
102
RTVSPropertyOp5
 70
     1
102
RTVSPropertyOp6
 70
     1
102
RTVSPropertyOp7
 70
     1
102
RTVSPropertyOp8
 70
     1
102
RTVSPropertyOp9
 70
     1
102
RTVSPropertyOp10
 70
     1
102
RTVSPropertyOp11
 70
     1
102
RTVSPropertyOp12
 70
     1
102
RTVSPropertyOp13
 70
     1
102
RTVSPropertyOp14
 70
     1
102
RTVSPropertyOp15
 70
     1
102
RTVSPropertyOp16
 70
     1
102
RTVSPropertyOp17
 70
     1
102
RTVSPropertyOp18
 70
     1
102
RTVSPropertyOp19
 70
     1
102
RTVSPropertyOp20
 70
     1
102
RTVSPropertyOp21
 70
     1
102
RTVSPropertyOp22
 70
     1
102
RTVSPropertyOp23
 70
     1
102
RTVSPropertyOp24
 70
     1
102
RTVSPropertyOp25
 70
     1
102
RTVSPropertyOp26
 70
     1
102
RTVSPropertyOp27
 70
     1
102
RTVSPropertyOp28
 70
     1
102
RTVSPropertyOp29
 70
     1
102
RTVSPropertyOp30
 70
     1
102
RTVSPropertyOp31
 70
     1
102
RTVSPropertyOp32
 70
     1
102
RTVSPropertyOp33
 70
     1
102
RTVSPropertyOp34
 70
     1
102
RTVSPropertyOp35
 70
     1
102
RTVSPropertyOp36
 70
     1
102
RTVSPropertyOp37
 70
     1
102
RTVSPropertyOp38
 70
     1
102
RTVSPropertyOp39
 70
     1
102
RTVSPropertyOp40
 70
     1
102
RTVSPropertyOp41
 70
     1
102
RTVSPropertyOp42
 70
     1
102
RTVSPropertyOp43
 70
     1
102
RTVSPropertyOp44
 70
     1
102
RTVSPropertyOp45
 70
     1
102
RTVSPropertyOp46
 70
     1
102
RTVSPropertyOp47
 70
     1
102
RTVSPropertyOp48
 70
     1
102
RTVSPropertyOp49
 70
     1
102
RTVSPropertyOp50
 70
     1
102
RTVSPropertyOp51
 70
     0
102
RTVSPropertyOp52
 70
     0
102
RTVSPropertyOp53
 70
     1
102
RTVSPropertyOp54
 70
     1
102
RTVSPropertyOp55
 70
     1
102
RTVSPropertyOp56
 70
     1
102
RTVSPropertyOp57
 70
     1
102
RTVSPost2010Prop28
280
     0
102
RTVSPost2010PropOp28
 70
     1
102
RTVSPost2010Prop29
280
     1
102
RTVSPost2010PropOp29
 70
     1
102
RTVSPost2010Prop30
280
     1
102
RTVSPost2010PropOp30
 70
     1
102
RTVSPost2010Prop31
280
     0
102
RTVSPost2010PropOp31
 70
     1
102
RTVSPost2010Prop32
280
     0
102
RTVSPost2010PropOp32
 70
     1
102
RTVSPost2010Prop33
280
     0
102
RTVSPost2010PropOp33
 70
     1
102
RTVSPost2010Prop34
280
     0
102
RTVSPost2010PropOp34
 70
     1
102
RTVSPost2010Prop35
280
     0
102
RTVSPost2010PropOp35
 70
     1
102
RTVSPost2010Prop36
280
     0
102
RTVSPost2010PropOp36
 70
     1
102
RTVSPost2010Prop37
 90
       50
102
RTVSPost2010PropOp37
 70
     1
102
RTVSPost2010Prop38
140
0.0
102
RTVSPost2010PropOp38
 70
     1
102
RTVSPost2010Prop39
140
1.0
102
RTVSPost2010PropOp39
 70
     1
102
RTVSPost2010Prop40
 90
        0
102
RTVSPost2010PropOp40
 70
     1
102
RTVSPost2010Prop41ColorIndex
 90
       18
102
RTVSPost2010Prop41ColorRGB
 90
        0
102
RTVSPost2010PropOp41
 70
     1
102
RTVSPost2010Prop42
 90
       50
102
RTVSPost2010PropOp42
 70
     1
102
RTVSPost2010Prop43
 90
        3
102
RTVSPost2010PropOp43
 70
     1
102
RTVSPost2010Prop44ColorIndex
 90
        5
102
RTVSPost2010Prop44ColorRGB
 90
      255
102
RTVSPost2010PropOp44
 70
     1
102
RTVSPost2010Prop45
280
     0
102
RTVSPost2010PropOp45
 70
     1
102
RTVSPost2010Prop46
 90
       50
102
RTVSPost2010PropOp46
 70
     1
102
RTVSPost2010Prop47
 90
       50
102
RTVSPost2010PropOp47
 70
     1
102
RTVSPost2010Prop48
 90
       50
102
RTVSPost2010PropOp48
 70
     1
102
RTVSPost2010Prop49
280
     0
102
RTVSPost2010PropOp49
 70
     1
102
RTVSPost2010Prop50
 90
       50
102
RTVSPost2010PropOp50
 70
     1
102
RTVSPost2010Prop51ColorIndex
 90
      256
102
RTVSPost2010Prop51ColorRGB
 90
-16777216
102
RTVSPost2010PropOp51
 70
     0
102
RTVSPost2010Prop52
140
1.0
102
RTVSPost2010PropOp52
 70
     0
102
RTVSPost2010Prop53
 90
        2
102
RTVSPost2010PropOp53
 70
     1
102
RTVSPost2010Prop54
  1
strokes_ogs.tif
102
RTVSPost2010PropOp54
 70
     1
102
RTVSPost2010Prop55
280
     0
102
RTVSPost2010PropOp55
 70
     1
102
RTVSPost2010Prop56
140
1.0
102
RTVSPost2010PropOp56
 70
     1
102
RTVSPost2010Prop57
140
1.0
102
RTVSPost2010PropOp57
 70
     1
  0
XRECORD
  5
296
102
{ACAD_REACTORS
330
295
102
}
330
295
100
AcDbXrecord
280
     1
102
RTVSPropertyOp0
 70
     1
102
RTVSPropertyOp1
 70
     1
102
RTVSPropertyOp2
 70
     1
102
RTVSPropertyOp3
 70
     1
102
RTVSPropertyOp4
 70
     1
102
RTVSPropertyOp5
 70
     1
102
RTVSPropertyOp6
 70
     1
102
RTVSPropertyOp7
 70
     1
102
RTVSPropertyOp8
 70
     1
102
RTVSPropertyOp9
 70
     1
102
RTVSPropertyOp10
 70
     1
102
RTVSPropertyOp11
 70
     1
102
RTVSPropertyOp12
 70
     1
102
RTVSPropertyOp13
 70
     1
102
RTVSPropertyOp14
 70
     1
102
RTVSPropertyOp15
 70
     1
102
RTVSPropertyOp16
 70
     1
102
RTVSPropertyOp17
 70
     1
102
RTVSPropertyOp18
 70
     1
102
RTVSPropertyOp19
 70
     1
102
RTVSPropertyOp20
 70
     1
102
RTVSPropertyOp21
 70
     1
102
RTVSPropertyOp22
 70
     1
102
RTVSPropertyOp23
 70
     1
102
RTVSPropertyOp24
 70
     1
102
RTVSPropertyOp25
 70
     1
102
RTVSPropertyOp26
 70
     1
102
RTVSPropertyOp27
 70
     1
102
RTVSPropertyOp28
 70
     1
102
RTVSPropertyOp29
 70
     1
102
RTVSPropertyOp30
 70
     1
102
RTVSPropertyOp31
 70
     1
102
RTVSPropertyOp32
 70
     1
102
RTVSPropertyOp33
 70
     1
102
RTVSPropertyOp34
 70
     1
102
RTVSPropertyOp35
 70
     1
102
RTVSPropertyOp36
 70
     1
102
RTVSPropertyOp37
 70
     1
102
RTVSPropertyOp38
 70
     1
102
RTVSPropertyOp39
 70
     1
102
RTVSPropertyOp40
 70
     1
102
RTVSPropertyOp41
 70
     1
102
RTVSPropertyOp42
 70
     1
102
RTVSPropertyOp43
 70
     1
102
RTVSPropertyOp44
 70
     1
102
RTVSPropertyOp45
 70
     1
102
RTVSPropertyOp46
 70
     1
102
RTVSPropertyOp47
 70
     1
102
RTVSPropertyOp48
 70
     1
102
RTVSPropertyOp49
 70
     1
102
RTVSPropertyOp50
 70
     1
102
RTVSPropertyOp51
 70
     0
102
RTVSPropertyOp52
 70
     0
102
RTVSPropertyOp53
 70
     1
102
RTVSPropertyOp54
 70
     1
102
RTVSPropertyOp55
 70
     1
102
RTVSPropertyOp56
 70
     1
102
RTVSPropertyOp57
 70
     1
102
RTVSPost2010Prop28
280
     0
102
RTVSPost2010PropOp28
 70
     1
102
RTVSPost2010Prop29
280
     1
102
RTVSPost2010PropOp29
 70
     1
102
RTVSPost2010Prop30
280
     1
102
RTVSPost2010PropOp30
 70
     1
102
RTVSPost2010Prop31
280
     0
102
RTVSPost2010PropOp31
 70
     1
102
RTVSPost2010Prop32
280
     0
102
RTVSPost2010PropOp32
 70
     1
102
RTVSPost2010Prop33
280
     0
102
RTVSPost2010PropOp33
 70
     1
102
RTVSPost2010Prop34
280
     0
102
RTVSPost2010PropOp34
 70
     1
102
RTVSPost2010Prop35
280
     0
102
RTVSPost2010PropOp35
 70
     1
102
RTVSPost2010Prop36
280
     0
102
RTVSPost2010PropOp36
 70
     1
102
RTVSPost2010Prop37
 90
       50
102
RTVSPost2010PropOp37
 70
     1
102
RTVSPost2010Prop38
140
0.0
102
RTVSPost2010PropOp38
 70
     1
102
RTVSPost2010Prop39
140
1.0
102
RTVSPost2010PropOp39
 70
     1
102
RTVSPost2010Prop40
 90
        0
102
RTVSPost2010PropOp40
 70
     1
102
RTVSPost2010Prop41ColorIndex
 90
       18
102
RTVSPost2010Prop41ColorRGB
 90
        0
102
RTVSPost2010PropOp41
 70
     1
102
RTVSPost2010Prop42
 90
       50
102
RTVSPost2010PropOp42
 70
     1
102
RTVSPost2010Prop43
 90
        3
102
RTVSPost2010PropOp43
 70
     1
102
RTVSPost2010Prop44ColorIndex
 90
        5
102
RTVSPost2010Prop44ColorRGB
 90
      255
102
RTVSPost2010PropOp44
 70
     1
102
RTVSPost2010Prop45
280
     0
102
RTVSPost2010PropOp45
 70
     1
102
RTVSPost2010Prop46
 90
       50
102
RTVSPost2010PropOp46
 70
     1
102
RTVSPost2010Prop47
 90
       50
102
RTVSPost2010PropOp47
 70
     1
102
RTVSPost2010Prop48
 90
       50
102
RTVSPost2010PropOp48
 70
     1
102
RTVSPost2010Prop49
280
     0
102
RTVSPost2010PropOp49
 70
     1
102
RTVSPost2010Prop50
 90
       50
102
RTVSPost2010PropOp50
 70
     1
102
RTVSPost2010Prop51ColorIndex
 90
      256
102
RTVSPost2010Prop51ColorRGB
 90
-16777216
102
RTVSPost2010PropOp51
 70
     0
102
RTVSPost2010Prop52
140
1.0
102
RTVSPost2010PropOp52
 70
     0
102
RTVSPost2010Prop53
 90
        2
102
RTVSPost2010PropOp53
 70
     1
102
RTVSPost2010Prop54
  1
strokes_ogs.tif
102
RTVSPost2010PropOp54
 70
     1
102
RTVSPost2010Prop55
280
     0
102
RTVSPost2010PropOp55
 70
     1
102
RTVSPost2010Prop56
140
1.0
102
RTVSPost2010PropOp56
 70
     1
102
RTVSPost2010Prop57
140
1.0
102
RTVSPost2010PropOp57
 70
     1
  0
XRECORD
  5
298
102
{ACAD_REACTORS
330
297
102
}
330
297
100
AcDbXrecord
280
     1
102
RTVSPropertyOp0
 70
     1
102
RTVSPropertyOp1
 70
     1
102
RTVSPropertyOp2
 70
     1
102
RTVSPropertyOp3
 70
     1
102
RTVSPropertyOp4
 70
     1
102
RTVSPropertyOp5
 70
     1
102
RTVSPropertyOp6
 70
     1
102
RTVSPropertyOp7
 70
     1
102
RTVSPropertyOp8
 70
     1
102
RTVSPropertyOp9
 70
     1
102
RTVSPropertyOp10
 70
     1
102
RTVSPropertyOp11
 70
     1
102
RTVSPropertyOp12
 70
     1
102
RTVSPropertyOp13
 70
     1
102
RTVSPropertyOp14
 70
     1
102
RTVSPropertyOp15
 70
     1
102
RTVSPropertyOp16
 70
     1
102
RTVSPropertyOp17
 70
     1
102
RTVSPropertyOp18
 70
     1
102
RTVSPropertyOp19
 70
     1
102
RTVSPropertyOp20
 70
     1
102
RTVSPropertyOp21
 70
     1
102
RTVSPropertyOp22
 70
     1
102
RTVSPropertyOp23
 70
     1
102
RTVSPropertyOp24
 70
     1
102
RTVSPropertyOp25
 70
     1
102
RTVSPropertyOp26
 70
     1
102
RTVSPropertyOp27
 70
     1
102
RTVSPropertyOp28
 70
     1
102
RTVSPropertyOp29
 70
     1
102
RTVSPropertyOp30
 70
     1
102
RTVSPropertyOp31
 70
     1
102
RTVSPropertyOp32
 70
     1
102
RTVSPropertyOp33
 70
     1
102
RTVSPropertyOp34
 70
     1
102
RTVSPropertyOp35
 70
     1
102
RTVSPropertyOp36
 70
     1
102
RTVSPropertyOp37
 70
     1
102
RTVSPropertyOp38
 70
     1
102
RTVSPropertyOp39
 70
     1
102
RTVSPropertyOp40
 70
     1
102
RTVSPropertyOp41
 70
     1
102
RTVSPropertyOp42
 70
     1
102
RTVSPropertyOp43
 70
     1
102
RTVSPropertyOp44
 70
     1
102
RTVSPropertyOp45
 70
     1
102
RTVSPropertyOp46
 70
     1
102
RTVSPropertyOp47
 70
     1
102
RTVSPropertyOp48
 70
     1
102
RTVSPropertyOp49
 70
     1
102
RTVSPropertyOp50
 70
     1
102
RTVSPropertyOp51
 70
     0
102
RTVSPropertyOp52
 70
     0
102
RTVSPropertyOp53
 70
     1
102
RTVSPropertyOp54
 70
     1
102
RTVSPropertyOp55
 70
     1
102
RTVSPropertyOp56
 70
     1
102
RTVSPropertyOp57
 70
     1
102
RTVSPost2010Prop28
280
     0
102
RTVSPost2010PropOp28
 70
     1
102
RTVSPost2010Prop29
280
     1
102
RTVSPost2010PropOp29
 70
     1
102
RTVSPost2010Prop30
280
     1
102
RTVSPost2010PropOp30
 70
     1
102
RTVSPost2010Prop31
280
     0
102
RTVSPost2010PropOp31
 70
     1
102
RTVSPost2010Prop32
280
     0
102
RTVSPost2010PropOp32
 70
     1
102
RTVSPost2010Prop33
280
     0
102
RTVSPost2010PropOp33
 70
     1
102
RTVSPost2010Prop34
280
     0
102
RTVSPost2010PropOp34
 70
     1
102
RTVSPost2010Prop35
280
     0
102
RTVSPost2010PropOp35
 70
     1
102
RTVSPost2010Prop36
280
     0
102
RTVSPost2010PropOp36
 70
     1
102
RTVSPost2010Prop37
 90
       50
102
RTVSPost2010PropOp37
 70
     1
102
RTVSPost2010Prop38
140
0.0
102
RTVSPost2010PropOp38
 70
     1
102
RTVSPost2010Prop39
140
1.0
102
RTVSPost2010PropOp39
 70
     1
102
RTVSPost2010Prop40
 90
        0
102
RTVSPost2010PropOp40
 70
     1
102
RTVSPost2010Prop41ColorIndex
 90
       18
102
RTVSPost2010Prop41ColorRGB
 90
        0
102
RTVSPost2010PropOp41
 70
     1
102
RTVSPost2010Prop42
 90
       50
102
RTVSPost2010PropOp42
 70
     1
102
RTVSPost2010Prop43
 90
        3
102
RTVSPost2010PropOp43
 70
     1
102
RTVSPost2010Prop44ColorIndex
 90
        5
102
RTVSPost2010Prop44ColorRGB
 90
      255
102
RTVSPost2010PropOp44
 70
     1
102
RTVSPost2010Prop45
280
     0
102
RTVSPost2010PropOp45
 70
     1
102
RTVSPost2010Prop46
 90
       50
102
RTVSPost2010PropOp46
 70
     1
102
RTVSPost2010Prop47
 90
       50
102
RTVSPost2010PropOp47
 70
     1
102
RTVSPost2010Prop48
 90
       50
102
RTVSPost2010PropOp48
 70
     1
102
RTVSPost2010Prop49
280
     0
102
RTVSPost2010PropOp49
 70
     1
102
RTVSPost2010Prop50
 90
       50
102
RTVSPost2010PropOp50
 70
     1
102
RTVSPost2010Prop51ColorIndex
 90
      256
102
RTVSPost2010Prop51ColorRGB
 90
-16777216
102
RTVSPost2010PropOp51
 70
     0
102
RTVSPost2010Prop52
140
1.0
102
RTVSPost2010PropOp52
 70
     0
102
RTVSPost2010Prop53
 90
        2
102
RTVSPost2010PropOp53
 70
     1
102
RTVSPost2010Prop54
  1
strokes_ogs.tif
102
RTVSPost2010PropOp54
 70
     1
102
RTVSPost2010Prop55
280
     0
102
RTVSPost2010PropOp55
 70
     1
102
RTVSPost2010Prop56
140
1.0
102
RTVSPost2010PropOp56
 70
     1
102
RTVSPost2010Prop57
140
1.0
102
RTVSPost2010PropOp57
 70
     1
  0
XRECORD
  5
288
102
{ACAD_REACTORS
330
287
102
}
330
287
100
AcDbXrecord
280
     1
102
RTVSPropertyOp0
 70
     1
102
RTVSPropertyOp1
 70
     1
102
RTVSPropertyOp2
 70
     1
102
RTVSPropertyOp3
 70
     1
102
RTVSPropertyOp4
 70
     1
102
RTVSPropertyOp5
 70
     1
102
RTVSPropertyOp6
 70
     1
102
RTVSPropertyOp7
 70
     1
102
RTVSPropertyOp8
 70
     1
102
RTVSPropertyOp9
 70
     1
102
RTVSPropertyOp10
 70
     1
102
RTVSPropertyOp11
 70
     1
102
RTVSPropertyOp12
 70
     1
102
RTVSPropertyOp13
 70
     1
102
RTVSPropertyOp14
 70
     1
102
RTVSPropertyOp15
 70
     1
102
RTVSPropertyOp16
 70
     1
102
RTVSPropertyOp17
 70
     1
102
RTVSPropertyOp18
 70
     1
102
RTVSPropertyOp19
 70
     1
102
RTVSPropertyOp20
 70
     1
102
RTVSPropertyOp21
 70
     1
102
RTVSPropertyOp22
 70
     1
102
RTVSPropertyOp23
 70
     1
102
RTVSPropertyOp24
 70
     1
102
RTVSPropertyOp25
 70
     1
102
RTVSPropertyOp26
 70
     1
102
RTVSPropertyOp27
 70
     1
102
RTVSPropertyOp28
 70
     1
102
RTVSPropertyOp29
 70
     1
102
RTVSPropertyOp30
 70
     1
102
RTVSPropertyOp31
 70
     1
102
RTVSPropertyOp32
 70
     1
102
RTVSPropertyOp33
 70
     1
102
RTVSPropertyOp34
 70
     1
102
RTVSPropertyOp35
 70
     1
102
RTVSPropertyOp36
 70
     1
102
RTVSPropertyOp37
 70
     1
102
RTVSPropertyOp38
 70
     1
102
RTVSPropertyOp39
 70
     1
102
RTVSPropertyOp40
 70
     1
102
RTVSPropertyOp41
 70
     1
102
RTVSPropertyOp42
 70
     1
102
RTVSPropertyOp43
 70
     1
102
RTVSPropertyOp44
 70
     1
102
RTVSPropertyOp45
 70
     1
102
RTVSPropertyOp46
 70
     1
102
RTVSPropertyOp47
 70
     1
102
RTVSPropertyOp48
 70
     1
102
RTVSPropertyOp49
 70
     1
102
RTVSPropertyOp50
 70
     1
102
RTVSPropertyOp51
 70
     0
102
RTVSPropertyOp52
 70
     0
102
RTVSPropertyOp53
 70
     1
102
RTVSPropertyOp54
 70
     1
102
RTVSPropertyOp55
 70
     1
102
RTVSPropertyOp56
 70
     1
102
RTVSPropertyOp57
 70
     1
102
RTVSPost2010Prop28
280
     0
102
RTVSPost2010PropOp28
 70
     1
102
RTVSPost2010Prop29
280
     1
102
RTVSPost2010PropOp29
 70
     1
102
RTVSPost2010Prop30
280
     1
102
RTVSPost2010PropOp30
 70
     1
102
RTVSPost2010Prop31
280
     0
102
RTVSPost2010PropOp31
 70
     1
102
RTVSPost2010Prop32
280
     0
102
RTVSPost2010PropOp32
 70
     1
102
RTVSPost2010Prop33
280
     0
102
RTVSPost2010PropOp33
 70
     1
102
RTVSPost2010Prop34
280
     0
102
RTVSPost2010PropOp34
 70
     1
102
RTVSPost2010Prop35
280
     0
102
RTVSPost2010PropOp35
 70
     1
102
RTVSPost2010Prop36
280
     0
102
RTVSPost2010PropOp36
 70
     1
102
RTVSPost2010Prop37
 90
       50
102
RTVSPost2010PropOp37
 70
     1
102
RTVSPost2010Prop38
140
0.0
102
RTVSPost2010PropOp38
 70
     1
102
RTVSPost2010Prop39
140
1.0
102
RTVSPost2010PropOp39
 70
     1
102
RTVSPost2010Prop40
 90
        0
102
RTVSPost2010PropOp40
 70
     1
102
RTVSPost2010Prop41ColorIndex
 90
       18
102
RTVSPost2010Prop41ColorRGB
 90
        0
102
RTVSPost2010PropOp41
 70
     1
102
RTVSPost2010Prop42
 90
       50
102
RTVSPost2010PropOp42
 70
     1
102
RTVSPost2010Prop43
 90
        3
102
RTVSPost2010PropOp43
 70
     1
102
RTVSPost2010Prop44ColorIndex
 90
        5
102
RTVSPost2010Prop44ColorRGB
 90
      255
102
RTVSPost2010PropOp44
 70
     1
102
RTVSPost2010Prop45
280
     0
102
RTVSPost2010PropOp45
 70
     1
102
RTVSPost2010Prop46
 90
       50
102
RTVSPost2010PropOp46
 70
     1
102
RTVSPost2010Prop47
 90
       50
102
RTVSPost2010PropOp47
 70
     1
102
RTVSPost2010Prop48
 90
       50
102
RTVSPost2010PropOp48
 70
     1
102
RTVSPost2010Prop49
280
     0
102
RTVSPost2010PropOp49
 70
     1
102
RTVSPost2010Prop50
 90
       50
102
RTVSPost2010PropOp50
 70
     1
102
RTVSPost2010Prop51ColorIndex
 90
      256
102
RTVSPost2010Prop51ColorRGB
 90
-16777216
102
RTVSPost2010PropOp51
 70
     0
102
RTVSPost2010Prop52
140
1.0
102
RTVSPost2010PropOp52
 70
     0
102
RTVSPost2010Prop53
 90
        2
102
RTVSPost2010PropOp53
 70
     1
102
RTVSPost2010Prop54
  1
strokes_ogs.tif
102
RTVSPost2010PropOp54
 70
     1
102
RTVSPost2010Prop55
280
     0
102
RTVSPost2010PropOp55
 70
     1
102
RTVSPost2010Prop56
140
1.0
102
RTVSPost2010PropOp56
 70
     1
102
RTVSPost2010Prop57
140
1.0
102
RTVSPost2010PropOp57
 70
     1
  0
XRECORD
  5
27A
102
{ACAD_REACTORS
330
279
102
}
330
279
100
AcDbXrecord
280
     1
102
RTVSPropertyOp0
 70
     1
102
RTVSPropertyOp1
 70
     1
102
RTVSPropertyOp2
 70
     1
102
RTVSPropertyOp3
 70
     1
102
RTVSPropertyOp4
 70
     1
102
RTVSPropertyOp5
 70
     1
102
RTVSPropertyOp6
 70
     1
102
RTVSPropertyOp7
 70
     1
102
RTVSPropertyOp8
 70
     1
102
RTVSPropertyOp9
 70
     1
102
RTVSPropertyOp10
 70
     1
102
RTVSPropertyOp11
 70
     1
102
RTVSPropertyOp12
 70
     1
102
RTVSPropertyOp13
 70
     1
102
RTVSPropertyOp14
 70
     1
102
RTVSPropertyOp15
 70
     1
102
RTVSPropertyOp16
 70
     1
102
RTVSPropertyOp17
 70
     1
102
RTVSPropertyOp18
 70
     1
102
RTVSPropertyOp19
 70
     1
102
RTVSPropertyOp20
 70
     1
102
RTVSPropertyOp21
 70
     1
102
RTVSPropertyOp22
 70
     1
102
RTVSPropertyOp23
 70
     1
102
RTVSPropertyOp24
 70
     1
102
RTVSPropertyOp25
 70
     1
102
RTVSPropertyOp26
 70
     1
102
RTVSPropertyOp27
 70
     1
102
RTVSPropertyOp28
 70
     1
102
RTVSPropertyOp29
 70
     1
102
RTVSPropertyOp30
 70
     1
102
RTVSPropertyOp31
 70
     1
102
RTVSPropertyOp32
 70
     1
102
RTVSPropertyOp33
 70
     1
102
RTVSPropertyOp34
 70
     1
102
RTVSPropertyOp35
 70
     1
102
RTVSPropertyOp36
 70
     1
102
RTVSPropertyOp37
 70
     1
102
RTVSPropertyOp38
 70
     1
102
RTVSPropertyOp39
 70
     1
102
RTVSPropertyOp40
 70
     1
102
RTVSPropertyOp41
 70
     1
102
RTVSPropertyOp42
 70
     1
102
RTVSPropertyOp43
 70
     1
102
RTVSPropertyOp44
 70
     1
102
RTVSPropertyOp45
 70
     1
102
RTVSPropertyOp46
 70
     1
102
RTVSPropertyOp47
 70
     1
102
RTVSPropertyOp48
 70
     1
102
RTVSPropertyOp49
 70
     1
102
RTVSPropertyOp50
 70
     1
102
RTVSPropertyOp51
 70
     0
102
RTVSPropertyOp52
 70
     0
102
RTVSPropertyOp53
 70
     1
102
RTVSPropertyOp54
 70
     1
102
RTVSPropertyOp55
 70
     1
102
RTVSPropertyOp56
 70
     1
102
RTVSPropertyOp57
 70
     1
102
RTVSPost2010Prop28
280
     0
102
RTVSPost2010PropOp28
 70
     1
102
RTVSPost2010Prop29
280
     1
102
RTVSPost2010PropOp29
 70
     1
102
RTVSPost2010Prop30
280
     1
102
RTVSPost2010PropOp30
 70
     1
102
RTVSPost2010Prop31
280
     0
102
RTVSPost2010PropOp31
 70
     1
102
RTVSPost2010Prop32
280
     0
102
RTVSPost2010PropOp32
 70
     1
102
RTVSPost2010Prop33
280
     0
102
RTVSPost2010PropOp33
 70
     1
102
RTVSPost2010Prop34
280
     0
102
RTVSPost2010PropOp34
 70
     1
102
RTVSPost2010Prop35
280
     0
102
RTVSPost2010PropOp35
 70
     1
102
RTVSPost2010Prop36
280
     0
102
RTVSPost2010PropOp36
 70
     1
102
RTVSPost2010Prop37
 90
       50
102
RTVSPost2010PropOp37
 70
     1
102
RTVSPost2010Prop38
140
0.0
102
RTVSPost2010PropOp38
 70
     1
102
RTVSPost2010Prop39
140
1.0
102
RTVSPost2010PropOp39
 70
     1
102
RTVSPost2010Prop40
 90
        0
102
RTVSPost2010PropOp40
 70
     1
102
RTVSPost2010Prop41ColorIndex
 90
       18
102
RTVSPost2010Prop41ColorRGB
 90
        0
102
RTVSPost2010PropOp41
 70
     1
102
RTVSPost2010Prop42
 90
       50
102
RTVSPost2010PropOp42
 70
     1
102
RTVSPost2010Prop43
 90
        3
102
RTVSPost2010PropOp43
 70
     1
102
RTVSPost2010Prop44ColorIndex
 90
        5
102
RTVSPost2010Prop44ColorRGB
 90
      255
102
RTVSPost2010PropOp44
 70
     1
102
RTVSPost2010Prop45
280
     0
102
RTVSPost2010PropOp45
 70
     1
102
RTVSPost2010Prop46
 90
       50
102
RTVSPost2010PropOp46
 70
     1
102
RTVSPost2010Prop47
 90
       50
102
RTVSPost2010PropOp47
 70
     1
102
RTVSPost2010Prop48
 90
       50
102
RTVSPost2010PropOp48
 70
     1
102
RTVSPost2010Prop49
280
     0
102
RTVSPost2010PropOp49
 70
     1
102
RTVSPost2010Prop50
 90
       50
102
RTVSPost2010PropOp50
 70
     1
102
RTVSPost2010Prop51ColorIndex
 90
      256
102
RTVSPost2010Prop51ColorRGB
 90
-16777216
102
RTVSPost2010PropOp51
 70
     0
102
RTVSPost2010Prop52
140
1.0
102
RTVSPost2010PropOp52
 70
     0
102
RTVSPost2010Prop53
 90
        2
102
RTVSPost2010PropOp53
 70
     1
102
RTVSPost2010Prop54
  1
strokes_ogs.tif
102
RTVSPost2010PropOp54
 70
     1
102
RTVSPost2010Prop55
280
     0
102
RTVSPost2010PropOp55
 70
     1
102
RTVSPost2010Prop56
140
1.0
102
RTVSPost2010PropOp56
 70
     1
102
RTVSPost2010Prop57
140
1.0
102
RTVSPost2010PropOp57
 70
     1
  0
XRECORD
  5
29A
102
{ACAD_REACTORS
330
299
102
}
330
299
100
AcDbXrecord
280
     1
102
RTVSPropertyOp0
 70
     1
102
RTVSPropertyOp1
 70
     1
102
RTVSPropertyOp2
 70
     1
102
RTVSPropertyOp3
 70
     1
102
RTVSPropertyOp4
 70
     1
102
RTVSPropertyOp5
 70
     1
102
RTVSPropertyOp6
 70
     1
102
RTVSPropertyOp7
 70
     1
102
RTVSPropertyOp8
 70
     1
102
RTVSPropertyOp9
 70
     1
102
RTVSPropertyOp10
 70
     1
102
RTVSPropertyOp11
 70
     1
102
RTVSPropertyOp12
 70
     1
102
RTVSPropertyOp13
 70
     1
102
RTVSPropertyOp14
 70
     1
102
RTVSPropertyOp15
 70
     1
102
RTVSPropertyOp16
 70
     1
102
RTVSPropertyOp17
 70
     1
102
RTVSPropertyOp18
 70
     1
102
RTVSPropertyOp19
 70
     1
102
RTVSPropertyOp20
 70
     1
102
RTVSPropertyOp21
 70
     1
102
RTVSPropertyOp22
 70
     1
102
RTVSPropertyOp23
 70
     1
102
RTVSPropertyOp24
 70
     1
102
RTVSPropertyOp25
 70
     1
102
RTVSPropertyOp26
 70
     1
102
RTVSPropertyOp27
 70
     1
102
RTVSPropertyOp28
 70
     1
102
RTVSPropertyOp29
 70
     1
102
RTVSPropertyOp30
 70
     1
102
RTVSPropertyOp31
 70
     1
102
RTVSPropertyOp32
 70
     1
102
RTVSPropertyOp33
 70
     1
102
RTVSPropertyOp34
 70
     1
102
RTVSPropertyOp35
 70
     1
102
RTVSPropertyOp36
 70
     1
102
RTVSPropertyOp37
 70
     1
102
RTVSPropertyOp38
 70
     1
102
RTVSPropertyOp39
 70
     1
102
RTVSPropertyOp40
 70
     1
102
RTVSPropertyOp41
 70
     1
102
RTVSPropertyOp42
 70
     1
102
RTVSPropertyOp43
 70
     1
102
RTVSPropertyOp44
 70
     1
102
RTVSPropertyOp45
 70
     1
102
RTVSPropertyOp46
 70
     1
102
RTVSPropertyOp47
 70
     1
102
RTVSPropertyOp48
 70
     1
102
RTVSPropertyOp49
 70
     1
102
RTVSPropertyOp50
 70
     1
102
RTVSPropertyOp51
 70
     0
102
RTVSPropertyOp52
 70
     0
102
RTVSPropertyOp53
 70
     1
102
RTVSPropertyOp54
 70
     1
102
RTVSPropertyOp55
 70
     1
102
RTVSPropertyOp56
 70
     1
102
RTVSPropertyOp57
 70
     1
102
RTVSPost2010Prop28
280
     0
102
RTVSPost2010PropOp28
 70
     1
102
RTVSPost2010Prop29
280
     1
102
RTVSPost2010PropOp29
 70
     1
102
RTVSPost2010Prop30
280
     1
102
RTVSPost2010PropOp30
 70
     1
102
RTVSPost2010Prop31
280
     0
102
RTVSPost2010PropOp31
 70
     1
102
RTVSPost2010Prop32
280
     0
102
RTVSPost2010PropOp32
 70
     1
102
RTVSPost2010Prop33
280
     0
102
RTVSPost2010PropOp33
 70
     1
102
RTVSPost2010Prop34
280
     0
102
RTVSPost2010PropOp34
 70
     1
102
RTVSPost2010Prop35
280
     0
102
RTVSPost2010PropOp35
 70
     1
102
RTVSPost2010Prop36
280
     0
102
RTVSPost2010PropOp36
 70
     1
102
RTVSPost2010Prop37
 90
       50
102
RTVSPost2010PropOp37
 70
     1
102
RTVSPost2010Prop38
140
0.0
102
RTVSPost2010PropOp38
 70
     1
102
RTVSPost2010Prop39
140
1.0
102
RTVSPost2010PropOp39
 70
     1
102
RTVSPost2010Prop40
 90
        0
102
RTVSPost2010PropOp40
 70
     1
102
RTVSPost2010Prop41ColorIndex
 90
       18
102
RTVSPost2010Prop41ColorRGB
 90
        0
102
RTVSPost2010PropOp41
 70
     1
102
RTVSPost2010Prop42
 90
       50
102
RTVSPost2010PropOp42
 70
     1
102
RTVSPost2010Prop43
 90
        3
102
RTVSPost2010PropOp43
 70
     1
102
RTVSPost2010Prop44ColorIndex
 90
        5
102
RTVSPost2010Prop44ColorRGB
 90
      255
102
RTVSPost2010PropOp44
 70
     1
102
RTVSPost2010Prop45
280
     0
102
RTVSPost2010PropOp45
 70
     1
102
RTVSPost2010Prop46
 90
       50
102
RTVSPost2010PropOp46
 70
     1
102
RTVSPost2010Prop47
 90
       50
102
RTVSPost2010PropOp47
 70
     1
102
RTVSPost2010Prop48
 90
       50
102
RTVSPost2010PropOp48
 70
     1
102
RTVSPost2010Prop49
280
     0
102
RTVSPost2010PropOp49
 70
     1
102
RTVSPost2010Prop50
 90
       50
102
RTVSPost2010PropOp50
 70
     1
102
RTVSPost2010Prop51ColorIndex
 90
      256
102
RTVSPost2010Prop51ColorRGB
 90
-16777216
102
RTVSPost2010PropOp51
 70
     0
102
RTVSPost2010Prop52
140
1.0
102
RTVSPost2010PropOp52
 70
     0
102
RTVSPost2010Prop53
 90
        2
102
RTVSPost2010PropOp53
 70
     1
102
RTVSPost2010Prop54
  1
strokes_ogs.tif
102
RTVSPost2010PropOp54
 70
     1
102
RTVSPost2010Prop55
280
     0
102
RTVSPost2010PropOp55
 70
     1
102
RTVSPost2010Prop56
140
1.0
102
RTVSPost2010PropOp56
 70
     1
102
RTVSPost2010Prop57
140
1.0
102
RTVSPost2010PropOp57
 70
     1
  0
ENDSEC
  0
EOF
