ISO-10303-21;
HEADER;
/* Generated by software containing ST-Developer
 * from STEP Tools, Inc. (www.steptools.com) 
 */

FILE_DESCRIPTION(
/* description */ (''),
/* implementation_level */ '2;1');

FILE_NAME(
/* name */ 'C:/Users/steph/Downloads/Bagues v1.step',
/* time_stamp */ '2020-12-04T15:42:10+01:00',
/* author */ (''),
/* organization */ (''),
/* preprocessor_version */ 'ST-DEVELOPER v18.1',
/* originating_system */ 'Autodesk Translation Framework v9.3.0.1241',
/* authorisation */ '');

FILE_SCHEMA (('AUTOMOTIVE_DESIGN { 1 0 10303 214 3 1 1 }'));
ENDSEC;

DATA;
#10=MECHANICAL_DESIGN_GEOMETRIC_PRESENTATION_REPRESENTATION('',(#13),#151);
#11=SHAPE_REPRESENTATION_RELATIONSHIP('SRR','None',#158,#12);
#12=ADVANCED_BREP_SHAPE_REPRESENTATION('',(#14),#150);
#13=STYLED_ITEM('',(#167),#14);
#14=MANIFOLD_SOLID_BREP('Body1',#77);
#15=FACE_BOUND('',#31,.T.);
#16=PLANE('',#101);
#17=LINE('',#141,#19);
#18=LINE('',#145,#20);
#19=VECTOR('',#118,5.25);
#20=VECTOR('',#123,4.65);
#21=CYLINDRICAL_SURFACE('',#97,5.25);
#22=CYLINDRICAL_SURFACE('',#99,4.65);
#23=FACE_OUTER_BOUND('',#27,.T.);
#24=FACE_OUTER_BOUND('',#28,.T.);
#25=FACE_OUTER_BOUND('',#29,.T.);
#26=FACE_OUTER_BOUND('',#30,.T.);
#27=EDGE_LOOP('',(#54,#55,#56,#57,#58,#59));
#28=EDGE_LOOP('',(#60,#61,#62,#63,#64));
#29=EDGE_LOOP('',(#65,#66,#67,#68,#69));
#30=EDGE_LOOP('',(#70));
#31=EDGE_LOOP('',(#71));
#32=CIRCLE('',#92,5.25);
#33=CIRCLE('',#93,5.25);
#34=CIRCLE('',#94,1.);
#35=CIRCLE('',#95,4.65);
#36=CIRCLE('',#96,4.65);
#37=CIRCLE('',#98,5.25);
#38=CIRCLE('',#100,4.65);
#39=VERTEX_POINT('',#130);
#40=VERTEX_POINT('',#131);
#41=VERTEX_POINT('',#134);
#42=VERTEX_POINT('',#136);
#43=VERTEX_POINT('',#140);
#44=VERTEX_POINT('',#144);
#45=EDGE_CURVE('',#39,#40,#32,.T.);
#46=EDGE_CURVE('',#40,#39,#33,.T.);
#47=EDGE_CURVE('',#39,#41,#34,.T.);
#48=EDGE_CURVE('',#41,#42,#35,.T.);
#49=EDGE_CURVE('',#42,#41,#36,.T.);
#50=EDGE_CURVE('',#40,#43,#17,.T.);
#51=EDGE_CURVE('',#43,#43,#37,.T.);
#52=EDGE_CURVE('',#42,#44,#18,.T.);
#53=EDGE_CURVE('',#44,#44,#38,.T.);
#54=ORIENTED_EDGE('',*,*,#45,.T.);
#55=ORIENTED_EDGE('',*,*,#46,.T.);
#56=ORIENTED_EDGE('',*,*,#47,.T.);
#57=ORIENTED_EDGE('',*,*,#48,.T.);
#58=ORIENTED_EDGE('',*,*,#49,.T.);
#59=ORIENTED_EDGE('',*,*,#47,.F.);
#60=ORIENTED_EDGE('',*,*,#45,.F.);
#61=ORIENTED_EDGE('',*,*,#46,.F.);
#62=ORIENTED_EDGE('',*,*,#50,.T.);
#63=ORIENTED_EDGE('',*,*,#51,.T.);
#64=ORIENTED_EDGE('',*,*,#50,.F.);
#65=ORIENTED_EDGE('',*,*,#48,.F.);
#66=ORIENTED_EDGE('',*,*,#49,.F.);
#67=ORIENTED_EDGE('',*,*,#52,.T.);
#68=ORIENTED_EDGE('',*,*,#53,.T.);
#69=ORIENTED_EDGE('',*,*,#52,.F.);
#70=ORIENTED_EDGE('',*,*,#51,.F.);
#71=ORIENTED_EDGE('',*,*,#53,.F.);
#72=TOROIDAL_SURFACE('',#91,4.25,1.);
#73=ADVANCED_FACE('',(#23),#72,.T.);
#74=ADVANCED_FACE('',(#24),#21,.T.);
#75=ADVANCED_FACE('',(#25),#22,.F.);
#76=ADVANCED_FACE('',(#26,#15),#16,.F.);
#77=CLOSED_SHELL('',(#73,#74,#75,#76));
#78=DERIVED_UNIT_ELEMENT(#80,1.);
#79=DERIVED_UNIT_ELEMENT(#153,3.);
#80=(
MASS_UNIT()
NAMED_UNIT(*)
SI_UNIT(.KILO.,.GRAM.)
);
#81=DERIVED_UNIT((#78,#79));
#82=MEASURE_REPRESENTATION_ITEM('density measure',
POSITIVE_RATIO_MEASURE(7850.),#81);
#83=PROPERTY_DEFINITION_REPRESENTATION(#88,#85);
#84=PROPERTY_DEFINITION_REPRESENTATION(#89,#86);
#85=REPRESENTATION('material name',(#87),#150);
#86=REPRESENTATION('density',(#82),#150);
#87=DESCRIPTIVE_REPRESENTATION_ITEM('Steel','Steel');
#88=PROPERTY_DEFINITION('material property','material name',#160);
#89=PROPERTY_DEFINITION('material property','density of part',#160);
#90=AXIS2_PLACEMENT_3D('placement',#128,#102,#103);
#91=AXIS2_PLACEMENT_3D('',#129,#104,#105);
#92=AXIS2_PLACEMENT_3D('',#132,#106,#107);
#93=AXIS2_PLACEMENT_3D('',#133,#108,#109);
#94=AXIS2_PLACEMENT_3D('',#135,#110,#111);
#95=AXIS2_PLACEMENT_3D('',#137,#112,#113);
#96=AXIS2_PLACEMENT_3D('',#138,#114,#115);
#97=AXIS2_PLACEMENT_3D('',#139,#116,#117);
#98=AXIS2_PLACEMENT_3D('',#142,#119,#120);
#99=AXIS2_PLACEMENT_3D('',#143,#121,#122);
#100=AXIS2_PLACEMENT_3D('',#146,#124,#125);
#101=AXIS2_PLACEMENT_3D('',#147,#126,#127);
#102=DIRECTION('axis',(0.,0.,1.));
#103=DIRECTION('refdir',(1.,0.,0.));
#104=DIRECTION('center_axis',(0.,0.,-1.));
#105=DIRECTION('ref_axis',(-1.,0.,0.));
#106=DIRECTION('center_axis',(0.,0.,1.));
#107=DIRECTION('ref_axis',(-1.,0.,0.));
#108=DIRECTION('center_axis',(0.,0.,1.));
#109=DIRECTION('ref_axis',(-1.,0.,0.));
#110=DIRECTION('center_axis',(1.22464679914735E-16,-1.,0.));
#111=DIRECTION('ref_axis',(1.,1.22464679914735E-16,0.));
#112=DIRECTION('center_axis',(0.,0.,-1.));
#113=DIRECTION('ref_axis',(1.,0.,0.));
#114=DIRECTION('center_axis',(0.,0.,-1.));
#115=DIRECTION('ref_axis',(1.,0.,0.));
#116=DIRECTION('center_axis',(0.,0.,1.));
#117=DIRECTION('ref_axis',(1.,0.,0.));
#118=DIRECTION('',(0.,0.,-1.));
#119=DIRECTION('center_axis',(0.,0.,1.));
#120=DIRECTION('ref_axis',(1.,0.,0.));
#121=DIRECTION('center_axis',(0.,0.,1.));
#122=DIRECTION('ref_axis',(1.,0.,0.));
#123=DIRECTION('',(0.,0.,-1.));
#124=DIRECTION('center_axis',(0.,0.,-1.));
#125=DIRECTION('ref_axis',(1.,0.,0.));
#126=DIRECTION('center_axis',(0.,0.,1.));
#127=DIRECTION('ref_axis',(1.,0.,0.));
#128=CARTESIAN_POINT('',(0.,0.,0.));
#129=CARTESIAN_POINT('Origin',(0.,0.,3.58348486100883));
#130=CARTESIAN_POINT('',(5.25,6.42939569552361E-16,3.58348486100883));
#131=CARTESIAN_POINT('',(-5.25,-6.42939569552361E-16,3.58348486100883));
#132=CARTESIAN_POINT('Origin',(0.,0.,3.58348486100883));
#133=CARTESIAN_POINT('Origin',(0.,0.,3.58348486100883));
#134=CARTESIAN_POINT('',(4.65,5.69460761603519E-16,4.5));
#135=CARTESIAN_POINT('Origin',(4.25,5.20474889637625E-16,3.58348486100883));
#136=CARTESIAN_POINT('',(-4.65,-5.69460761603519E-16,4.5));
#137=CARTESIAN_POINT('Origin',(0.,0.,4.5));
#138=CARTESIAN_POINT('Origin',(0.,0.,4.5));
#139=CARTESIAN_POINT('Origin',(0.,0.,0.));
#140=CARTESIAN_POINT('',(-5.25,-6.42939569552361E-16,0.));
#141=CARTESIAN_POINT('',(-5.25,-6.42939569552361E-16,0.));
#142=CARTESIAN_POINT('Origin',(0.,0.,0.));
#143=CARTESIAN_POINT('Origin',(0.,0.,0.));
#144=CARTESIAN_POINT('',(-4.65,-5.69460761603519E-16,0.));
#145=CARTESIAN_POINT('',(-4.65,-5.69460761603519E-16,0.));
#146=CARTESIAN_POINT('Origin',(0.,0.,0.));
#147=CARTESIAN_POINT('Origin',(0.,0.,0.));
#148=UNCERTAINTY_MEASURE_WITH_UNIT(LENGTH_MEASURE(0.01),#152,
'DISTANCE_ACCURACY_VALUE',
'Maximum model space distance between geometric entities at asserted c
onnectivities');
#149=UNCERTAINTY_MEASURE_WITH_UNIT(LENGTH_MEASURE(0.01),#152,
'DISTANCE_ACCURACY_VALUE',
'Maximum model space distance between geometric entities at asserted c
onnectivities');
#150=(
GEOMETRIC_REPRESENTATION_CONTEXT(3)
GLOBAL_UNCERTAINTY_ASSIGNED_CONTEXT((#148))
GLOBAL_UNIT_ASSIGNED_CONTEXT((#152,#154,#155))
REPRESENTATION_CONTEXT('','3D')
);
#151=(
GEOMETRIC_REPRESENTATION_CONTEXT(3)
GLOBAL_UNCERTAINTY_ASSIGNED_CONTEXT((#149))
GLOBAL_UNIT_ASSIGNED_CONTEXT((#152,#154,#155))
REPRESENTATION_CONTEXT('','3D')
);
#152=(
LENGTH_UNIT()
NAMED_UNIT(*)
SI_UNIT(.MILLI.,.METRE.)
);
#153=(
LENGTH_UNIT()
NAMED_UNIT(*)
SI_UNIT($,.METRE.)
);
#154=(
NAMED_UNIT(*)
PLANE_ANGLE_UNIT()
SI_UNIT($,.RADIAN.)
);
#155=(
NAMED_UNIT(*)
SI_UNIT($,.STERADIAN.)
SOLID_ANGLE_UNIT()
);
#156=SHAPE_DEFINITION_REPRESENTATION(#157,#158);
#157=PRODUCT_DEFINITION_SHAPE('',$,#160);
#158=SHAPE_REPRESENTATION('',(#90),#150);
#159=PRODUCT_DEFINITION_CONTEXT('part definition',#164,'design');
#160=PRODUCT_DEFINITION('Bagues','Bagues v1',#161,#159);
#161=PRODUCT_DEFINITION_FORMATION('',$,#166);
#162=PRODUCT_RELATED_PRODUCT_CATEGORY('Bagues v1','Bagues v1',(#166));
#163=APPLICATION_PROTOCOL_DEFINITION('international standard',
'automotive_design',2009,#164);
#164=APPLICATION_CONTEXT(
'Core Data for Automotive Mechanical Design Process');
#165=PRODUCT_CONTEXT('part definition',#164,'mechanical');
#166=PRODUCT('Bagues','Bagues v1',$,(#165));
#167=PRESENTATION_STYLE_ASSIGNMENT((#168));
#168=SURFACE_STYLE_USAGE(.BOTH.,#169);
#169=SURFACE_SIDE_STYLE('',(#170));
#170=SURFACE_STYLE_FILL_AREA(#171);
#171=FILL_AREA_STYLE('Steel - Satin',(#172));
#172=FILL_AREA_STYLE_COLOUR('Steel - Satin',#173);
#173=COLOUR_RGB('Steel - Satin',0.627450980392157,0.627450980392157,0.627450980392157);
ENDSEC;
END-ISO-10303-21;
