ISO-10303-21;
HEADER;
FILE_DESCRIPTION(('CATIA V5 STEP Exchange','CAx-IF Rec.Pracs.--- Model Styling and Organization---1.4--- 2014-01-23','CAx-IF Rec.Pracs.---3D Tessellated Data Validation Properties---0.5---2014-09-14'),'2;1');

FILE_NAME('F:\\afpa\\canon t29.stp','2020-12-01T07:52:08+00:00',('none'),('none'),'CATIA Version 5-6 Release 2018 SP3','CATIA V5 STEP AP242','none');

FILE_SCHEMA(('AP242_MANAGED_MODEL_BASED_3D_ENGINEERING_MIM_LF  {1 0 10303 442 1 1 4}'));

ENDSEC;
DATA;
#5=PRODUCT('canon t29','','',(#2)) ;
#2=PRODUCT_CONTEXT(' ',#1,'mechanical') ;
#1=APPLICATION_CONTEXT('managed model based 3d engineering') ;
#10=PRODUCT_DEFINITION('',' ',#6,#3) ;
#3=PRODUCT_DEFINITION_CONTEXT('part definition',#1,' ') ;
#11=PRODUCT_DEFINITION_SHAPE(' ',' ',#10) ;
#485=MECHANICAL_DESIGN_GEOMETRIC_PRESENTATION_REPRESENTATION(' ',(#29),#16) ;
#19=SHAPE_REPRESENTATION(' ',(#18),#16) ;
#7=PRODUCT_CATEGORY('part','specification') ;
#17=CARTESIAN_POINT(' ',(0.,0.,0.)) ;
#31=CARTESIAN_POINT('Axis2P3D Location',(135.48,0.,0.)) ;
#36=CARTESIAN_POINT('Axis2P3D Location',(140.14,0.,0.)) ;
#40=CARTESIAN_POINT('Vertex',(140.14,4.44934358878,2.43068748072)) ;
#42=CARTESIAN_POINT('Vertex',(140.14,-4.44934358878,-2.43068748072)) ;
#45=CARTESIAN_POINT('Line Origine',(137.81,3.86136327232,2.10947236986)) ;
#49=CARTESIAN_POINT('Vertex',(135.48,3.27338295585,1.78825725899)) ;
#52=CARTESIAN_POINT('Axis2P3D Location',(135.48,0.,0.)) ;
#56=CARTESIAN_POINT('Vertex',(135.48,-3.27338295585,-1.78825725899)) ;
#59=CARTESIAN_POINT('Line Origine',(137.81,-3.86136327232,-2.10947236986)) ;
#71=CARTESIAN_POINT('Axis2P3D Location',(140.14,0.,0.)) ;
#76=CARTESIAN_POINT('Axis2P3D Location',(135.48,0.,0.)) ;
#88=CARTESIAN_POINT('Axis2P3D Location',(6.94795166435,0.,0.)) ;
#93=CARTESIAN_POINT('Line Origine',(71.2139758322,2.62397186005,1.43348236043)) ;
#97=CARTESIAN_POINT('Vertex',(6.94795166435,1.97456076425,1.07870746186)) ;
#100=CARTESIAN_POINT('Axis2P3D Location',(6.94795166435,0.,0.)) ;
#104=CARTESIAN_POINT('Vertex',(6.94795166435,-1.97456076425,-1.07870746186)) ;
#107=CARTESIAN_POINT('Line Origine',(71.2139758322,-2.62397186005,-1.43348236043)) ;
#119=CARTESIAN_POINT('Axis2P3D Location',(6.94795166435,0.,0.)) ;
#131=CARTESIAN_POINT('Axis2P3D Location',(6.93496435568,0.,0.)) ;
#136=CARTESIAN_POINT('Axis2P3D Location',(6.93496435568,2.67653429391,1.46219734892)) ;
#140=CARTESIAN_POINT('Vertex',(6.24795166435,2.31681796339,1.26568342192)) ;
#143=CARTESIAN_POINT('Axis2P3D Location',(6.24795166435,0.,0.)) ;
#147=CARTESIAN_POINT('Vertex',(6.24795166435,-2.31681796339,-1.26568342192)) ;
#150=CARTESIAN_POINT('Axis2P3D Location',(6.93496435568,-2.67653429391,-1.46219734892)) ;
#162=CARTESIAN_POINT('Axis2P3D Location',(6.24795166435,0.,0.)) ;
#174=CARTESIAN_POINT('Axis2P3D Location',(72.22,0.,0.)) ;
#179=CARTESIAN_POINT('Line Origine',(3.47397583217,2.31681796339,1.26568342192)) ;
#183=CARTESIAN_POINT('Vertex',(0.7,2.31681796339,1.26568342192)) ;
#186=CARTESIAN_POINT('Axis2P3D Location',(0.7,0.,0.)) ;
#190=CARTESIAN_POINT('Vertex',(0.7,-2.31681796339,-1.26568342192)) ;
#193=CARTESIAN_POINT('Line Origine',(3.47397583217,-2.31681796339,-1.26568342192)) ;
#205=CARTESIAN_POINT('Axis2P3D Location',(0.7,0.,0.)) ;
#217=CARTESIAN_POINT('Axis2P3D Location',(72.22,0.,0.)) ;
#222=CARTESIAN_POINT('Axis2P3D Location',(0.7,0.,0.)) ;
#226=CARTESIAN_POINT('Vertex',(0.7,2.19395640473,1.19856384651)) ;
#228=CARTESIAN_POINT('Vertex',(0.7,-2.19395640473,-1.19856384651)) ;
#231=CARTESIAN_POINT('Line Origine',(0.35,2.19395640473,1.19856384651)) ;
#235=CARTESIAN_POINT('Vertex',(1.42108547152E-014,2.19395640473,1.19856384651)) ;
#238=CARTESIAN_POINT('Axis2P3D Location',(1.42108547152E-014,0.,0.)) ;
#242=CARTESIAN_POINT('Vertex',(1.42108547152E-014,-2.19395640473,-1.19856384651)) ;
#245=CARTESIAN_POINT('Line Origine',(0.35,-2.19395640473,-1.19856384651)) ;
#257=CARTESIAN_POINT('Axis2P3D Location',(0.7,0.,0.)) ;
#262=CARTESIAN_POINT('Axis2P3D Location',(1.42108547152E-014,0.,0.)) ;
#274=CARTESIAN_POINT('Axis2P3D Location',(0.7,2.64,0.)) ;
#288=CARTESIAN_POINT('Axis2P3D Location',(144.44,0.,0.)) ;
#293=CARTESIAN_POINT('Axis2P3D Location',(144.44,0.,0.)) ;
#297=CARTESIAN_POINT('Vertex',(144.44,-3.08666486681,1.65)) ;
#299=CARTESIAN_POINT('Vertex',(144.44,-3.07153896662,-1.67798938511)) ;
#302=CARTESIAN_POINT('Axis2P3D Location',(144.44,0.,0.)) ;
#306=CARTESIAN_POINT('Vertex',(144.44,3.08666486681,1.65)) ;
#309=CARTESIAN_POINT('Line Origine',(144.44,0.,1.65)) ;
#320=CARTESIAN_POINT('Axis2P3D Location',(72.22,0.,0.)) ;
#325=CARTESIAN_POINT('Line Origine',(142.29,-3.07153896662,-1.67798938511)) ;
#329=CARTESIAN_POINT('Vertex',(140.14,-3.07153896662,-1.67798938511)) ;
#332=CARTESIAN_POINT('Axis2P3D Location',(140.14,0.,0.)) ;
#336=CARTESIAN_POINT('Vertex',(140.14,3.08666486681,1.65)) ;
#339=CARTESIAN_POINT('Line Origine',(142.29,3.08666486681,1.65)) ;
#351=CARTESIAN_POINT('Axis2P3D Location',(140.14,0.,0.)) ;
#355=CARTESIAN_POINT('Vertex',(140.14,-3.08666486681,1.65)) ;
#358=CARTESIAN_POINT('Line Origine',(142.29,-3.08666486681,1.65)) ;
#370=CARTESIAN_POINT('Axis2P3D Location',(0.,0.,1.65)) ;
#375=CARTESIAN_POINT('Line Origine',(140.14,4.4408920985E-016,1.65)) ;
#387=CARTESIAN_POINT('Axis2P3D Location',(140.14,3.5,0.)) ;
#402=CARTESIAN_POINT('Axis2P3D Location',(0.,0.,0.)) ;
#411=CARTESIAN_POINT('Axis2P3D Location',(0.,0.,0.)) ;
#415=CARTESIAN_POINT('Vertex',(0.,1.7,2.47304492609E-015)) ;
#417=CARTESIAN_POINT('Vertex',(0.,-1.7,0.)) ;
#420=CARTESIAN_POINT('Axis2P3D Location',(0.,0.,0.)) ;
#430=CARTESIAN_POINT('Axis2P3D Location',(20.,0.,0.)) ;
#435=CARTESIAN_POINT('Line Origine',(20.,-1.7,0.)) ;
#439=CARTESIAN_POINT('Vertex',(40.,-1.7,0.)) ;
#442=CARTESIAN_POINT('Line Origine',(20.,1.7,9.631416126E-016)) ;
#446=CARTESIAN_POINT('Vertex',(40.,1.7,2.08189955855E-016)) ;
#449=CARTESIAN_POINT('Axis2P3D Location',(40.,0.,0.)) ;
#461=CARTESIAN_POINT('Axis2P3D Location',(40.,0.,0.)) ;
#473=CARTESIAN_POINT('Axis2P3D Location',(40.,0.,0.)) ;
#8=PRODUCT_RELATED_PRODUCT_CATEGORY('part',$,(#5)) ;
#29=STYLED_ITEM(' ',(#28),#21) ;
#28=PRESENTATION_STYLE_ASSIGNMENT((#27)) ;
#27=SURFACE_STYLE_USAGE(.BOTH.,#26) ;
#26=SURFACE_SIDE_STYLE(' ',(#25)) ;
#25=SURFACE_STYLE_FILL_AREA(#24) ;
#24=FILL_AREA_STYLE(' ',(#23)) ;
#23=FILL_AREA_STYLE_COLOUR(' ',#22) ;
#47=VECTOR('Line Direction',#46,1.) ;
#61=VECTOR('Line Direction',#60,1.) ;
#95=VECTOR('Line Direction',#94,1.) ;
#109=VECTOR('Line Direction',#108,1.) ;
#181=VECTOR('Line Direction',#180,1.) ;
#195=VECTOR('Line Direction',#194,1.) ;
#233=VECTOR('Line Direction',#232,1.) ;
#247=VECTOR('Line Direction',#246,1.) ;
#311=VECTOR('Line Direction',#310,1.) ;
#327=VECTOR('Line Direction',#326,1.) ;
#341=VECTOR('Line Direction',#340,1.) ;
#360=VECTOR('Line Direction',#359,1.) ;
#377=VECTOR('Line Direction',#376,1.) ;
#437=VECTOR('Line Direction',#436,1.) ;
#444=VECTOR('Line Direction',#443,1.) ;
#32=DIRECTION('Axis2P3D Direction',(1.,0.,0.)) ;
#33=DIRECTION('Axis2P3D XDirection',(0.,0.87758256189,0.479425538604)) ;
#37=DIRECTION('Axis2P3D Direction',(1.,0.,0.)) ;
#46=DIRECTION('Vector Direction',(0.961055611287,0.242524370157,0.132491667265)) ;
#53=DIRECTION('Axis2P3D Direction',(1.,0.,0.)) ;
#60=DIRECTION('Vector Direction',(0.961055611287,-0.242524370157,-0.132491667265)) ;
#72=DIRECTION('Axis2P3D Direction',(1.,0.,0.)) ;
#77=DIRECTION('Axis2P3D Direction',(1.,0.,0.)) ;
#89=DIRECTION('Axis2P3D Direction',(1.,0.,0.)) ;
#90=DIRECTION('Axis2P3D XDirection',(0.,0.87758256189,0.479425538604)) ;
#94=DIRECTION('Vector Direction',(0.999933713148,0.0101043756291,0.0055200455645)) ;
#101=DIRECTION('Axis2P3D Direction',(1.,0.,0.)) ;
#108=DIRECTION('Vector Direction',(0.999933713148,-0.0101043756291,-0.0055200455645)) ;
#120=DIRECTION('Axis2P3D Direction',(1.,0.,0.)) ;
#132=DIRECTION('Axis2P3D Direction',(1.,0.,0.)) ;
#133=DIRECTION('Axis2P3D XDirection',(0.,0.87758256189,0.479425538604)) ;
#137=DIRECTION('Axis2P3D Direction',(0.,0.479425538604,-0.87758256189)) ;
#144=DIRECTION('Axis2P3D Direction',(1.,0.,0.)) ;
#151=DIRECTION('Axis2P3D Direction',(0.,-0.479425538604,0.87758256189)) ;
#163=DIRECTION('Axis2P3D Direction',(1.,0.,0.)) ;
#175=DIRECTION('Axis2P3D Direction',(1.,0.,0.)) ;
#176=DIRECTION('Axis2P3D XDirection',(0.,0.87758256189,0.479425538604)) ;
#180=DIRECTION('Vector Direction',(1.,0.,0.)) ;
#187=DIRECTION('Axis2P3D Direction',(1.,0.,0.)) ;
#194=DIRECTION('Vector Direction',(1.,0.,0.)) ;
#206=DIRECTION('Axis2P3D Direction',(1.,0.,0.)) ;
#218=DIRECTION('Axis2P3D Direction',(1.,0.,0.)) ;
#219=DIRECTION('Axis2P3D XDirection',(0.,0.87758256189,0.479425538604)) ;
#223=DIRECTION('Axis2P3D Direction',(1.,0.,0.)) ;
#232=DIRECTION('Vector Direction',(1.,0.,0.)) ;
#239=DIRECTION('Axis2P3D Direction',(1.,0.,0.)) ;
#246=DIRECTION('Vector Direction',(1.,0.,0.)) ;
#258=DIRECTION('Axis2P3D Direction',(1.,0.,0.)) ;
#263=DIRECTION('Axis2P3D Direction',(1.,0.,0.)) ;
#275=DIRECTION('Axis2P3D Direction',(1.,0.,0.)) ;
#276=DIRECTION('Axis2P3D XDirection',(0.,1.,0.)) ;
#289=DIRECTION('Axis2P3D Direction',(1.,0.,0.)) ;
#290=DIRECTION('Axis2P3D XDirection',(0.,1.,0.)) ;
#294=DIRECTION('Axis2P3D Direction',(1.,0.,0.)) ;
#303=DIRECTION('Axis2P3D Direction',(1.,0.,0.)) ;
#310=DIRECTION('Vector Direction',(0.,1.,0.)) ;
#321=DIRECTION('Axis2P3D Direction',(1.,0.,0.)) ;
#322=DIRECTION('Axis2P3D XDirection',(0.,0.87758256189,0.479425538604)) ;
#326=DIRECTION('Vector Direction',(1.,0.,0.)) ;
#333=DIRECTION('Axis2P3D Direction',(1.,0.,0.)) ;
#340=DIRECTION('Vector Direction',(1.,0.,0.)) ;
#352=DIRECTION('Axis2P3D Direction',(1.,0.,0.)) ;
#359=DIRECTION('Vector Direction',(1.,0.,0.)) ;
#371=DIRECTION('Axis2P3D Direction',(0.,0.,1.)) ;
#372=DIRECTION('Axis2P3D XDirection',(1.,0.,0.)) ;
#376=DIRECTION('Vector Direction',(0.,1.,0.)) ;
#388=DIRECTION('Axis2P3D Direction',(1.,0.,0.)) ;
#389=DIRECTION('Axis2P3D XDirection',(0.,1.,0.)) ;
#403=DIRECTION('Axis2P3D Direction',(1.,0.,0.)) ;
#404=DIRECTION('Axis2P3D XDirection',(0.,1.,0.)) ;
#412=DIRECTION('Axis2P3D Direction',(1.,0.,0.)) ;
#421=DIRECTION('Axis2P3D Direction',(1.,0.,0.)) ;
#431=DIRECTION('Axis2P3D Direction',(-1.,-0.,0.)) ;
#432=DIRECTION('Axis2P3D XDirection',(0.,-1.,0.)) ;
#436=DIRECTION('Vector Direction',(-1.,0.,0.)) ;
#443=DIRECTION('Vector Direction',(-1.,0.,0.)) ;
#450=DIRECTION('Axis2P3D Direction',(-1.,-0.,0.)) ;
#462=DIRECTION('Axis2P3D Direction',(-1.,-0.,0.)) ;
#474=DIRECTION('Axis2P3D Direction',(-1.,-0.,0.)) ;
#475=DIRECTION('Axis2P3D XDirection',(0.,-1.,-0.)) ;
#15=UNCERTAINTY_MEASURE_WITH_UNIT(LENGTH_MEASURE(0.005),#12,'distance_accuracy_value','CONFUSED CURVE UNCERTAINTY') ;
#18=AXIS2_PLACEMENT_3D(' ',#17,$,$) ;
#34=AXIS2_PLACEMENT_3D('Cone Axis2P3D',#31,#32,#33) ;
#38=AXIS2_PLACEMENT_3D('Circle Axis2P3D',#36,#37,$) ;
#54=AXIS2_PLACEMENT_3D('Circle Axis2P3D',#52,#53,$) ;
#73=AXIS2_PLACEMENT_3D('Circle Axis2P3D',#71,#72,$) ;
#78=AXIS2_PLACEMENT_3D('Circle Axis2P3D',#76,#77,$) ;
#91=AXIS2_PLACEMENT_3D('Cone Axis2P3D',#88,#89,#90) ;
#102=AXIS2_PLACEMENT_3D('Circle Axis2P3D',#100,#101,$) ;
#121=AXIS2_PLACEMENT_3D('Circle Axis2P3D',#119,#120,$) ;
#134=AXIS2_PLACEMENT_3D('Torus Axis2P3D',#131,#132,#133) ;
#138=AXIS2_PLACEMENT_3D('Circle Axis2P3D',#136,#137,$) ;
#145=AXIS2_PLACEMENT_3D('Circle Axis2P3D',#143,#144,$) ;
#152=AXIS2_PLACEMENT_3D('Circle Axis2P3D',#150,#151,$) ;
#164=AXIS2_PLACEMENT_3D('Circle Axis2P3D',#162,#163,$) ;
#177=AXIS2_PLACEMENT_3D('Cylinder Axis2P3D',#174,#175,#176) ;
#188=AXIS2_PLACEMENT_3D('Circle Axis2P3D',#186,#187,$) ;
#207=AXIS2_PLACEMENT_3D('Circle Axis2P3D',#205,#206,$) ;
#220=AXIS2_PLACEMENT_3D('Cylinder Axis2P3D',#217,#218,#219) ;
#224=AXIS2_PLACEMENT_3D('Circle Axis2P3D',#222,#223,$) ;
#240=AXIS2_PLACEMENT_3D('Circle Axis2P3D',#238,#239,$) ;
#259=AXIS2_PLACEMENT_3D('Circle Axis2P3D',#257,#258,$) ;
#264=AXIS2_PLACEMENT_3D('Circle Axis2P3D',#262,#263,$) ;
#277=AXIS2_PLACEMENT_3D('Plane Axis2P3D',#274,#275,#276) ;
#291=AXIS2_PLACEMENT_3D('Plane Axis2P3D',#288,#289,#290) ;
#295=AXIS2_PLACEMENT_3D('Circle Axis2P3D',#293,#294,$) ;
#304=AXIS2_PLACEMENT_3D('Circle Axis2P3D',#302,#303,$) ;
#323=AXIS2_PLACEMENT_3D('Cylinder Axis2P3D',#320,#321,#322) ;
#334=AXIS2_PLACEMENT_3D('Circle Axis2P3D',#332,#333,$) ;
#353=AXIS2_PLACEMENT_3D('Circle Axis2P3D',#351,#352,$) ;
#373=AXIS2_PLACEMENT_3D('Plane Axis2P3D',#370,#371,#372) ;
#390=AXIS2_PLACEMENT_3D('Plane Axis2P3D',#387,#388,#389) ;
#405=AXIS2_PLACEMENT_3D('Plane Axis2P3D',#402,#403,#404) ;
#413=AXIS2_PLACEMENT_3D('Circle Axis2P3D',#411,#412,$) ;
#422=AXIS2_PLACEMENT_3D('Circle Axis2P3D',#420,#421,$) ;
#433=AXIS2_PLACEMENT_3D('Cylinder Axis2P3D',#430,#431,#432) ;
#451=AXIS2_PLACEMENT_3D('Circle Axis2P3D',#449,#450,$) ;
#463=AXIS2_PLACEMENT_3D('Circle Axis2P3D',#461,#462,$) ;
#476=AXIS2_PLACEMENT_3D('Plane Axis2P3D',#473,#474,#475) ;
#48=LINE('Line',#45,#47) ;
#62=LINE('Line',#59,#61) ;
#96=LINE('Line',#93,#95) ;
#110=LINE('Line',#107,#109) ;
#182=LINE('Line',#179,#181) ;
#196=LINE('Line',#193,#195) ;
#234=LINE('Line',#231,#233) ;
#248=LINE('Line',#245,#247) ;
#312=LINE('Line',#309,#311) ;
#328=LINE('Line',#325,#327) ;
#342=LINE('Line',#339,#341) ;
#361=LINE('Line',#358,#360) ;
#378=LINE('Line',#375,#377) ;
#438=LINE('Line',#435,#437) ;
#445=LINE('Line',#442,#444) ;
#39=CIRCLE('generated circle',#38,5.07) ;
#55=CIRCLE('generated circle',#54,3.73) ;
#74=CIRCLE('generated circle',#73,5.07) ;
#79=CIRCLE('generated circle',#78,3.73) ;
#103=CIRCLE('generated circle',#102,2.25) ;
#122=CIRCLE('generated circle',#121,2.25) ;
#139=CIRCLE('generated circle',#138,0.8) ;
#146=CIRCLE('generated circle',#145,2.64) ;
#153=CIRCLE('generated circle',#152,0.8) ;
#165=CIRCLE('generated circle',#164,2.64) ;
#189=CIRCLE('generated circle',#188,2.64) ;
#208=CIRCLE('generated circle',#207,2.64) ;
#225=CIRCLE('generated circle',#224,2.5) ;
#241=CIRCLE('generated circle',#240,2.5) ;
#260=CIRCLE('generated circle',#259,2.5) ;
#265=CIRCLE('generated circle',#264,2.5) ;
#296=CIRCLE('generated circle',#295,3.5) ;
#305=CIRCLE('generated circle',#304,3.5) ;
#335=CIRCLE('generated circle',#334,3.5) ;
#354=CIRCLE('generated circle',#353,3.5) ;
#414=CIRCLE('generated circle',#413,1.7) ;
#423=CIRCLE('generated circle',#422,1.7) ;
#452=CIRCLE('generated circle',#451,1.7) ;
#464=CIRCLE('generated circle',#463,1.7) ;
#278=PLANE('',#277) ;
#292=PLANE('',#291) ;
#374=PLANE('',#373) ;
#391=PLANE('',#390) ;
#406=PLANE('',#405) ;
#477=PLANE('',#476) ;
#178=CYLINDRICAL_SURFACE('generated cylinder',#177,2.64) ;
#221=CYLINDRICAL_SURFACE('generated cylinder',#220,2.5) ;
#324=CYLINDRICAL_SURFACE('generated cylinder',#323,3.5) ;
#434=CYLINDRICAL_SURFACE('generated cylinder',#433,1.7) ;
#35=CONICAL_SURFACE('Cone',#34,3.73,0.279999374082) ;
#92=CONICAL_SURFACE('Cone',#91,2.25,0.0115141290817) ;
#135=TOROIDAL_SURFACE('homeo Torus',#134,3.04989457419,0.8) ;
#286=FACE_BOUND('',#283,.T.) ;
#400=FACE_BOUND('',#396,.T.) ;
#428=FACE_BOUND('',#425,.T.) ;
#44=EDGE_CURVE('',#41,#43,#39,.T.) ;
#51=EDGE_CURVE('',#41,#50,#48,.F.) ;
#58=EDGE_CURVE('',#50,#57,#55,.T.) ;
#63=EDGE_CURVE('',#43,#57,#62,.F.) ;
#75=EDGE_CURVE('',#43,#41,#74,.T.) ;
#80=EDGE_CURVE('',#57,#50,#79,.T.) ;
#99=EDGE_CURVE('',#50,#98,#96,.F.) ;
#106=EDGE_CURVE('',#98,#105,#103,.T.) ;
#111=EDGE_CURVE('',#57,#105,#110,.F.) ;
#123=EDGE_CURVE('',#105,#98,#122,.T.) ;
#142=EDGE_CURVE('',#98,#141,#139,.T.) ;
#149=EDGE_CURVE('',#141,#148,#146,.T.) ;
#154=EDGE_CURVE('',#105,#148,#153,.T.) ;
#166=EDGE_CURVE('',#148,#141,#165,.T.) ;
#185=EDGE_CURVE('',#141,#184,#182,.F.) ;
#192=EDGE_CURVE('',#184,#191,#189,.T.) ;
#197=EDGE_CURVE('',#148,#191,#196,.F.) ;
#209=EDGE_CURVE('',#191,#184,#208,.T.) ;
#230=EDGE_CURVE('',#227,#229,#225,.T.) ;
#237=EDGE_CURVE('',#227,#236,#234,.F.) ;
#244=EDGE_CURVE('',#236,#243,#241,.T.) ;
#249=EDGE_CURVE('',#229,#243,#248,.F.) ;
#261=EDGE_CURVE('',#229,#227,#260,.T.) ;
#266=EDGE_CURVE('',#243,#236,#265,.T.) ;
#301=EDGE_CURVE('',#298,#300,#296,.T.) ;
#308=EDGE_CURVE('',#300,#307,#305,.T.) ;
#313=EDGE_CURVE('',#298,#307,#312,.T.) ;
#331=EDGE_CURVE('',#300,#330,#328,.F.) ;
#338=EDGE_CURVE('',#330,#337,#335,.T.) ;
#343=EDGE_CURVE('',#337,#307,#342,.T.) ;
#357=EDGE_CURVE('',#356,#330,#354,.T.) ;
#362=EDGE_CURVE('',#356,#298,#361,.T.) ;
#379=EDGE_CURVE('',#337,#356,#378,.F.) ;
#419=EDGE_CURVE('',#416,#418,#414,.F.) ;
#424=EDGE_CURVE('',#418,#416,#423,.F.) ;
#441=EDGE_CURVE('',#418,#440,#438,.F.) ;
#448=EDGE_CURVE('',#416,#447,#445,.F.) ;
#453=EDGE_CURVE('',#440,#447,#452,.T.) ;
#465=EDGE_CURVE('',#447,#440,#464,.T.) ;
#30=CLOSED_SHELL('Closed Shell',(#70,#87,#118,#130,#161,#173,#204,#216,#256,#273,#287,#319,#350,#369,#386,#401,#429,#460,#472,#482)) ;
#484=SHAPE_REPRESENTATION_RELATIONSHIP(' ',' ',#19,#483) ;
#64=EDGE_LOOP('',(#65,#66,#67,#68)) ;
#81=EDGE_LOOP('',(#82,#83,#84,#85)) ;
#112=EDGE_LOOP('',(#113,#114,#115,#116)) ;
#124=EDGE_LOOP('',(#125,#126,#127,#128)) ;
#155=EDGE_LOOP('',(#156,#157,#158,#159)) ;
#167=EDGE_LOOP('',(#168,#169,#170,#171)) ;
#198=EDGE_LOOP('',(#199,#200,#201,#202)) ;
#210=EDGE_LOOP('',(#211,#212,#213,#214)) ;
#250=EDGE_LOOP('',(#251,#252,#253,#254)) ;
#267=EDGE_LOOP('',(#268,#269,#270,#271)) ;
#279=EDGE_LOOP('',(#280,#281)) ;
#283=EDGE_LOOP('',(#284,#285)) ;
#314=EDGE_LOOP('',(#315,#316,#317)) ;
#344=EDGE_LOOP('',(#345,#346,#347,#348)) ;
#363=EDGE_LOOP('',(#364,#365,#366,#367)) ;
#380=EDGE_LOOP('',(#381,#382,#383,#384)) ;
#392=EDGE_LOOP('',(#393,#394)) ;
#396=EDGE_LOOP('',(#397,#398,#399)) ;
#407=EDGE_LOOP('',(#408,#409)) ;
#425=EDGE_LOOP('',(#426,#427)) ;
#454=EDGE_LOOP('',(#455,#456,#457,#458)) ;
#466=EDGE_LOOP('',(#467,#468,#469,#470)) ;
#478=EDGE_LOOP('',(#479,#480)) ;
#65=ORIENTED_EDGE('',*,*,#44,.F.) ;
#66=ORIENTED_EDGE('',*,*,#51,.T.) ;
#67=ORIENTED_EDGE('',*,*,#58,.T.) ;
#68=ORIENTED_EDGE('',*,*,#63,.F.) ;
#82=ORIENTED_EDGE('',*,*,#75,.F.) ;
#83=ORIENTED_EDGE('',*,*,#63,.T.) ;
#84=ORIENTED_EDGE('',*,*,#80,.T.) ;
#85=ORIENTED_EDGE('',*,*,#51,.F.) ;
#113=ORIENTED_EDGE('',*,*,#58,.F.) ;
#114=ORIENTED_EDGE('',*,*,#99,.T.) ;
#115=ORIENTED_EDGE('',*,*,#106,.T.) ;
#116=ORIENTED_EDGE('',*,*,#111,.F.) ;
#125=ORIENTED_EDGE('',*,*,#80,.F.) ;
#126=ORIENTED_EDGE('',*,*,#111,.T.) ;
#127=ORIENTED_EDGE('',*,*,#123,.T.) ;
#128=ORIENTED_EDGE('',*,*,#99,.F.) ;
#156=ORIENTED_EDGE('',*,*,#106,.F.) ;
#157=ORIENTED_EDGE('',*,*,#142,.T.) ;
#158=ORIENTED_EDGE('',*,*,#149,.T.) ;
#159=ORIENTED_EDGE('',*,*,#154,.F.) ;
#168=ORIENTED_EDGE('',*,*,#123,.F.) ;
#169=ORIENTED_EDGE('',*,*,#154,.T.) ;
#170=ORIENTED_EDGE('',*,*,#166,.T.) ;
#171=ORIENTED_EDGE('',*,*,#142,.F.) ;
#199=ORIENTED_EDGE('',*,*,#149,.F.) ;
#200=ORIENTED_EDGE('',*,*,#185,.T.) ;
#201=ORIENTED_EDGE('',*,*,#192,.T.) ;
#202=ORIENTED_EDGE('',*,*,#197,.F.) ;
#211=ORIENTED_EDGE('',*,*,#166,.F.) ;
#212=ORIENTED_EDGE('',*,*,#197,.T.) ;
#213=ORIENTED_EDGE('',*,*,#209,.T.) ;
#214=ORIENTED_EDGE('',*,*,#185,.F.) ;
#251=ORIENTED_EDGE('',*,*,#230,.F.) ;
#252=ORIENTED_EDGE('',*,*,#237,.T.) ;
#253=ORIENTED_EDGE('',*,*,#244,.T.) ;
#254=ORIENTED_EDGE('',*,*,#249,.F.) ;
#268=ORIENTED_EDGE('',*,*,#261,.F.) ;
#269=ORIENTED_EDGE('',*,*,#249,.T.) ;
#270=ORIENTED_EDGE('',*,*,#266,.T.) ;
#271=ORIENTED_EDGE('',*,*,#237,.F.) ;
#280=ORIENTED_EDGE('',*,*,#192,.F.) ;
#281=ORIENTED_EDGE('',*,*,#209,.F.) ;
#284=ORIENTED_EDGE('',*,*,#261,.T.) ;
#285=ORIENTED_EDGE('',*,*,#230,.T.) ;
#315=ORIENTED_EDGE('',*,*,#301,.T.) ;
#316=ORIENTED_EDGE('',*,*,#308,.T.) ;
#317=ORIENTED_EDGE('',*,*,#313,.F.) ;
#345=ORIENTED_EDGE('',*,*,#308,.F.) ;
#346=ORIENTED_EDGE('',*,*,#331,.T.) ;
#347=ORIENTED_EDGE('',*,*,#338,.T.) ;
#348=ORIENTED_EDGE('',*,*,#343,.T.) ;
#364=ORIENTED_EDGE('',*,*,#357,.T.) ;
#365=ORIENTED_EDGE('',*,*,#331,.F.) ;
#366=ORIENTED_EDGE('',*,*,#301,.F.) ;
#367=ORIENTED_EDGE('',*,*,#362,.F.) ;
#381=ORIENTED_EDGE('',*,*,#379,.T.) ;
#382=ORIENTED_EDGE('',*,*,#362,.T.) ;
#383=ORIENTED_EDGE('',*,*,#313,.T.) ;
#384=ORIENTED_EDGE('',*,*,#343,.F.) ;
#393=ORIENTED_EDGE('',*,*,#44,.T.) ;
#394=ORIENTED_EDGE('',*,*,#75,.T.) ;
#397=ORIENTED_EDGE('',*,*,#338,.F.) ;
#398=ORIENTED_EDGE('',*,*,#357,.F.) ;
#399=ORIENTED_EDGE('',*,*,#379,.F.) ;
#408=ORIENTED_EDGE('',*,*,#244,.F.) ;
#409=ORIENTED_EDGE('',*,*,#266,.F.) ;
#426=ORIENTED_EDGE('',*,*,#419,.F.) ;
#427=ORIENTED_EDGE('',*,*,#424,.F.) ;
#455=ORIENTED_EDGE('',*,*,#441,.F.) ;
#456=ORIENTED_EDGE('',*,*,#424,.T.) ;
#457=ORIENTED_EDGE('',*,*,#448,.T.) ;
#458=ORIENTED_EDGE('',*,*,#453,.F.) ;
#467=ORIENTED_EDGE('',*,*,#448,.F.) ;
#468=ORIENTED_EDGE('',*,*,#419,.T.) ;
#469=ORIENTED_EDGE('',*,*,#441,.T.) ;
#470=ORIENTED_EDGE('',*,*,#465,.F.) ;
#479=ORIENTED_EDGE('',*,*,#453,.T.) ;
#480=ORIENTED_EDGE('',*,*,#465,.T.) ;
#21=MANIFOLD_SOLID_BREP('Corps principal',#30) ;
#41=VERTEX_POINT('',#40) ;
#43=VERTEX_POINT('',#42) ;
#50=VERTEX_POINT('',#49) ;
#57=VERTEX_POINT('',#56) ;
#98=VERTEX_POINT('',#97) ;
#105=VERTEX_POINT('',#104) ;
#141=VERTEX_POINT('',#140) ;
#148=VERTEX_POINT('',#147) ;
#184=VERTEX_POINT('',#183) ;
#191=VERTEX_POINT('',#190) ;
#227=VERTEX_POINT('',#226) ;
#229=VERTEX_POINT('',#228) ;
#236=VERTEX_POINT('',#235) ;
#243=VERTEX_POINT('',#242) ;
#298=VERTEX_POINT('',#297) ;
#300=VERTEX_POINT('',#299) ;
#307=VERTEX_POINT('',#306) ;
#330=VERTEX_POINT('',#329) ;
#337=VERTEX_POINT('',#336) ;
#356=VERTEX_POINT('',#355) ;
#416=VERTEX_POINT('',#415) ;
#418=VERTEX_POINT('',#417) ;
#440=VERTEX_POINT('',#439) ;
#447=VERTEX_POINT('',#446) ;
#483=ADVANCED_BREP_SHAPE_REPRESENTATION('NONE',(#21),#16) ;
#70=ADVANCED_FACE('Corps principal',(#69),#35,.T.) ;
#87=ADVANCED_FACE('Corps principal',(#86),#35,.T.) ;
#118=ADVANCED_FACE('Corps principal',(#117),#92,.T.) ;
#130=ADVANCED_FACE('Corps principal',(#129),#92,.T.) ;
#161=ADVANCED_FACE('Corps principal',(#160),#135,.F.) ;
#173=ADVANCED_FACE('Corps principal',(#172),#135,.F.) ;
#204=ADVANCED_FACE('Corps principal',(#203),#178,.T.) ;
#216=ADVANCED_FACE('Corps principal',(#215),#178,.T.) ;
#256=ADVANCED_FACE('Corps principal',(#255),#221,.T.) ;
#273=ADVANCED_FACE('Corps principal',(#272),#221,.T.) ;
#287=ADVANCED_FACE('Corps principal',(#282,#286),#278,.F.) ;
#319=ADVANCED_FACE('Corps principal',(#318),#292,.T.) ;
#350=ADVANCED_FACE('Corps principal',(#349),#324,.T.) ;
#369=ADVANCED_FACE('Corps principal',(#368),#324,.T.) ;
#386=ADVANCED_FACE('Corps principal',(#385),#374,.T.) ;
#401=ADVANCED_FACE('Corps principal',(#395,#400),#391,.T.) ;
#429=ADVANCED_FACE('Corps principal',(#410,#428),#406,.F.) ;
#460=ADVANCED_FACE('Corps principal',(#459),#434,.F.) ;
#472=ADVANCED_FACE('Corps principal',(#471),#434,.F.) ;
#482=ADVANCED_FACE('Corps principal',(#481),#477,.T.) ;
#4=APPLICATION_PROTOCOL_DEFINITION('international standard','ap242_managed_model_based_3d_engineering',2014,#1) ;
#22=COLOUR_RGB('Colour',0.823529411765,0.823529411765,1.) ;
#69=FACE_OUTER_BOUND('',#64,.T.) ;
#86=FACE_OUTER_BOUND('',#81,.T.) ;
#117=FACE_OUTER_BOUND('',#112,.T.) ;
#129=FACE_OUTER_BOUND('',#124,.T.) ;
#160=FACE_OUTER_BOUND('',#155,.T.) ;
#172=FACE_OUTER_BOUND('',#167,.T.) ;
#203=FACE_OUTER_BOUND('',#198,.T.) ;
#215=FACE_OUTER_BOUND('',#210,.T.) ;
#255=FACE_OUTER_BOUND('',#250,.T.) ;
#272=FACE_OUTER_BOUND('',#267,.T.) ;
#282=FACE_OUTER_BOUND('',#279,.T.) ;
#318=FACE_OUTER_BOUND('',#314,.T.) ;
#349=FACE_OUTER_BOUND('',#344,.T.) ;
#368=FACE_OUTER_BOUND('',#363,.T.) ;
#385=FACE_OUTER_BOUND('',#380,.T.) ;
#395=FACE_OUTER_BOUND('',#392,.T.) ;
#410=FACE_OUTER_BOUND('',#407,.T.) ;
#459=FACE_OUTER_BOUND('',#454,.T.) ;
#471=FACE_OUTER_BOUND('',#466,.T.) ;
#481=FACE_OUTER_BOUND('',#478,.T.) ;
#9=PRODUCT_CATEGORY_RELATIONSHIP(' ',' ',#7,#8) ;
#6=PRODUCT_DEFINITION_FORMATION_WITH_SPECIFIED_SOURCE('',' ',#5,.NOT_KNOWN.) ;
#20=SHAPE_DEFINITION_REPRESENTATION(#11,#19) ;
#12=(LENGTH_UNIT()NAMED_UNIT(*)SI_UNIT(.MILLI.,.METRE.)) ;
#13=(NAMED_UNIT(*)PLANE_ANGLE_UNIT()SI_UNIT($,.RADIAN.)) ;
#14=(NAMED_UNIT(*)SI_UNIT($,.STERADIAN.)SOLID_ANGLE_UNIT()) ;
#16=(GEOMETRIC_REPRESENTATION_CONTEXT(3)GLOBAL_UNCERTAINTY_ASSIGNED_CONTEXT((#15))GLOBAL_UNIT_ASSIGNED_CONTEXT((#12,#13,#14))REPRESENTATION_CONTEXT(' ',' ')) ;
ENDSEC;
END-ISO-10303-21;
