ISO-10303-21;
HEADER;
FILE_DESCRIPTION(('CATIA V5 STEP Exchange'),'2;1');

FILE_NAME('C:\\Users\\Jordan\\Desktop\\Propulseur Juno classe J\\Usineur.fr\\Allumeur.stp','2020-11-22T12:48:07+00:00',('none'),('none'),'CATIA Version 5 Release 20 GA (IN-10)','CATIA V5 STEP AP203','none');

FILE_SCHEMA(('CONFIG_CONTROL_DESIGN'));

ENDSEC;
/* file written by CATIA V5R20 */
DATA;
#5=PRODUCT('Allumeur','','',(#2)) ;
#1=APPLICATION_CONTEXT('configuration controlled 3D design of mechanical parts and assemblies') ;
#14=PRODUCT_DEFINITION('',' ',#6,#3) ;
#16=SECURITY_CLASSIFICATION(' ',' ',#15) ;
#15=SECURITY_CLASSIFICATION_LEVEL('unclassified') ;
#47=CARTESIAN_POINT(' ',(0.,0.,0.)) ;
#52=CARTESIAN_POINT('Axis2P3D Location',(-6.,0.,0.)) ;
#57=CARTESIAN_POINT('Line Origine',(-6.,-6.,0.)) ;
#61=CARTESIAN_POINT('Vertex',(0.,-6.,0.)) ;
#63=CARTESIAN_POINT('Vertex',(-12.,-6.,0.)) ;
#66=CARTESIAN_POINT('Axis2P3D Location',(0.,0.,0.)) ;
#70=CARTESIAN_POINT('Vertex',(0.,6.,7.34763812293E-016)) ;
#73=CARTESIAN_POINT('Line Origine',(-6.,6.,7.34763812293E-016)) ;
#77=CARTESIAN_POINT('Vertex',(-12.,6.,7.34763812293E-016)) ;
#80=CARTESIAN_POINT('Axis2P3D Location',(-12.,0.,0.)) ;
#92=CARTESIAN_POINT('Axis2P3D Location',(0.,0.,0.)) ;
#97=CARTESIAN_POINT('Axis2P3D Location',(-12.,0.,0.)) ;
#109=CARTESIAN_POINT('Axis2P3D Location',(-12.,0.,0.)) ;
#118=CARTESIAN_POINT('Axis2P3D Location',(-12.,0.,0.)) ;
#122=CARTESIAN_POINT('Vertex',(-12.,5.25,6.42918335757E-016)) ;
#124=CARTESIAN_POINT('Vertex',(-12.,-5.25,0.)) ;
#127=CARTESIAN_POINT('Axis2P3D Location',(-12.,0.,0.)) ;
#137=CARTESIAN_POINT('Axis2P3D Location',(-6.,0.,0.)) ;
#142=CARTESIAN_POINT('Line Origine',(-6.,-5.25,-1.28583667151E-015)) ;
#146=CARTESIAN_POINT('Vertex',(0.,-5.25,-1.28583667151E-015)) ;
#149=CARTESIAN_POINT('Axis2P3D Location',(0.,0.,0.)) ;
#153=CARTESIAN_POINT('Vertex',(0.,5.25,6.42918335757E-016)) ;
#156=CARTESIAN_POINT('Line Origine',(-6.,5.25,6.42918335757E-016)) ;
#168=CARTESIAN_POINT('Axis2P3D Location',(0.,0.,0.)) ;
#180=CARTESIAN_POINT('Axis2P3D Location',(1.,0.,0.)) ;
#185=CARTESIAN_POINT('Line Origine',(1.,-18.,2.20429143688E-015)) ;
#189=CARTESIAN_POINT('Vertex',(0.,-18.,2.20429143688E-015)) ;
#191=CARTESIAN_POINT('Vertex',(2.,-18.,2.20429143688E-015)) ;
#194=CARTESIAN_POINT('Axis2P3D Location',(0.,0.,0.)) ;
#198=CARTESIAN_POINT('Vertex',(0.,18.,0.)) ;
#201=CARTESIAN_POINT('Line Origine',(1.,18.,-4.40858287376E-015)) ;
#205=CARTESIAN_POINT('Vertex',(2.,18.,0.)) ;
#208=CARTESIAN_POINT('Axis2P3D Location',(2.,0.,0.)) ;
#220=CARTESIAN_POINT('Axis2P3D Location',(0.,0.,0.)) ;
#225=CARTESIAN_POINT('Axis2P3D Location',(2.,0.,0.)) ;
#237=CARTESIAN_POINT('Axis2P3D Location',(0.,0.,0.)) ;
#246=CARTESIAN_POINT('Axis2P3D Location',(0.,-4.4408920985E-016,-6.66133814775E-016)) ;
#250=CARTESIAN_POINT('Vertex',(0.,-2.5,3.06151588456E-016)) ;
#252=CARTESIAN_POINT('Vertex',(0.,2.5,0.)) ;
#255=CARTESIAN_POINT('Axis2P3D Location',(0.,4.4408920985E-016,4.4408920985E-016)) ;
#265=CARTESIAN_POINT('Axis2P3D Location',(-4.,0.,0.)) ;
#270=CARTESIAN_POINT('Line Origine',(-4.,-2.5,3.06151588456E-016)) ;
#274=CARTESIAN_POINT('Vertex',(2.,-2.5,3.06151588456E-016)) ;
#277=CARTESIAN_POINT('Axis2P3D Location',(2.,0.,0.)) ;
#281=CARTESIAN_POINT('Vertex',(2.,2.5,0.)) ;
#284=CARTESIAN_POINT('Line Origine',(-4.,2.5,-6.12303176911E-016)) ;
#296=CARTESIAN_POINT('Axis2P3D Location',(2.,0.,0.)) ;
#308=CARTESIAN_POINT('Axis2P3D Location',(2.,0.,0.)) ;
#321=CARTESIAN_POINT('Axis2P3D Location',(2.,-13.,0.)) ;
#325=CARTESIAN_POINT('Vertex',(2.,-10.95,0.)) ;
#327=CARTESIAN_POINT('Vertex',(2.,-15.05,2.51044302534E-016)) ;
#330=CARTESIAN_POINT('Axis2P3D Location',(2.,-13.,0.)) ;
#339=CARTESIAN_POINT('Axis2P3D Location',(2.,13.,0.)) ;
#343=CARTESIAN_POINT('Vertex',(2.,15.05,0.)) ;
#345=CARTESIAN_POINT('Vertex',(2.,10.95,2.51044302534E-016)) ;
#348=CARTESIAN_POINT('Axis2P3D Location',(2.,13.,0.)) ;
#366=CARTESIAN_POINT('Axis2P3D Location',(0.,-13.,2.22044604925E-016)) ;
#370=CARTESIAN_POINT('Vertex',(0.,-15.05,2.51044302534E-016)) ;
#372=CARTESIAN_POINT('Vertex',(0.,-10.95,0.)) ;
#375=CARTESIAN_POINT('Axis2P3D Location',(0.,-13.,-8.881784197E-016)) ;
#384=CARTESIAN_POINT('Axis2P3D Location',(0.,13.,2.22044604925E-016)) ;
#388=CARTESIAN_POINT('Vertex',(0.,10.95,2.51044302534E-016)) ;
#390=CARTESIAN_POINT('Vertex',(0.,15.05,0.)) ;
#393=CARTESIAN_POINT('Axis2P3D Location',(0.,13.,-8.881784197E-016)) ;
#403=CARTESIAN_POINT('Axis2P3D Location',(-4.,13.,0.)) ;
#408=CARTESIAN_POINT('Line Origine',(-4.,10.95,2.51044302534E-016)) ;
#413=CARTESIAN_POINT('Line Origine',(-4.,15.05,-5.02088605067E-016)) ;
#432=CARTESIAN_POINT('Axis2P3D Location',(-4.,-13.,0.)) ;
#437=CARTESIAN_POINT('Line Origine',(-4.,-15.05,2.51044302534E-016)) ;
#442=CARTESIAN_POINT('Line Origine',(-4.,-10.95,-5.02088605067E-016)) ;
#53=DIRECTION('Axis2P3D Direction',(-1.,-0.,0.)) ;
#54=DIRECTION('Axis2P3D XDirection',(0.,-1.,0.)) ;
#58=DIRECTION('Vector Direction',(-1.,0.,0.)) ;
#67=DIRECTION('Axis2P3D Direction',(-1.,-0.,0.)) ;
#74=DIRECTION('Vector Direction',(-1.,0.,0.)) ;
#81=DIRECTION('Axis2P3D Direction',(-1.,-0.,0.)) ;
#93=DIRECTION('Axis2P3D Direction',(-1.,-0.,0.)) ;
#98=DIRECTION('Axis2P3D Direction',(-1.,-0.,0.)) ;
#110=DIRECTION('Axis2P3D Direction',(-1.,0.,0.)) ;
#111=DIRECTION('Axis2P3D XDirection',(0.,-1.,0.)) ;
#119=DIRECTION('Axis2P3D Direction',(-1.,0.,0.)) ;
#128=DIRECTION('Axis2P3D Direction',(-1.,0.,0.)) ;
#138=DIRECTION('Axis2P3D Direction',(-1.,-0.,0.)) ;
#139=DIRECTION('Axis2P3D XDirection',(0.,-1.,0.)) ;
#143=DIRECTION('Vector Direction',(-1.,0.,0.)) ;
#150=DIRECTION('Axis2P3D Direction',(-1.,-0.,0.)) ;
#157=DIRECTION('Vector Direction',(-1.,0.,0.)) ;
#169=DIRECTION('Axis2P3D Direction',(-1.,-0.,0.)) ;
#181=DIRECTION('Axis2P3D Direction',(1.,0.,0.)) ;
#182=DIRECTION('Axis2P3D XDirection',(0.,1.,0.)) ;
#186=DIRECTION('Vector Direction',(1.,0.,0.)) ;
#195=DIRECTION('Axis2P3D Direction',(1.,0.,0.)) ;
#202=DIRECTION('Vector Direction',(1.,0.,0.)) ;
#209=DIRECTION('Axis2P3D Direction',(1.,0.,0.)) ;
#221=DIRECTION('Axis2P3D Direction',(1.,0.,0.)) ;
#226=DIRECTION('Axis2P3D Direction',(1.,0.,0.)) ;
#238=DIRECTION('Axis2P3D Direction',(1.,0.,0.)) ;
#239=DIRECTION('Axis2P3D XDirection',(0.,1.,0.)) ;
#247=DIRECTION('Axis2P3D Direction',(1.,0.,0.)) ;
#256=DIRECTION('Axis2P3D Direction',(1.,0.,0.)) ;
#266=DIRECTION('Axis2P3D Direction',(1.,0.,0.)) ;
#267=DIRECTION('Axis2P3D XDirection',(0.,1.,0.)) ;
#271=DIRECTION('Vector Direction',(1.,0.,0.)) ;
#278=DIRECTION('Axis2P3D Direction',(1.,0.,0.)) ;
#285=DIRECTION('Vector Direction',(1.,0.,0.)) ;
#297=DIRECTION('Axis2P3D Direction',(1.,0.,0.)) ;
#309=DIRECTION('Axis2P3D Direction',(1.,0.,0.)) ;
#310=DIRECTION('Axis2P3D XDirection',(0.,1.,0.)) ;
#322=DIRECTION('Axis2P3D Direction',(1.,0.,0.)) ;
#331=DIRECTION('Axis2P3D Direction',(1.,0.,0.)) ;
#340=DIRECTION('Axis2P3D Direction',(1.,0.,0.)) ;
#349=DIRECTION('Axis2P3D Direction',(1.,0.,0.)) ;
#367=DIRECTION('Axis2P3D Direction',(1.,0.,0.)) ;
#376=DIRECTION('Axis2P3D Direction',(1.,0.,0.)) ;
#385=DIRECTION('Axis2P3D Direction',(1.,0.,0.)) ;
#394=DIRECTION('Axis2P3D Direction',(1.,0.,0.)) ;
#404=DIRECTION('Axis2P3D Direction',(1.,0.,0.)) ;
#405=DIRECTION('Axis2P3D XDirection',(0.,1.,0.)) ;
#409=DIRECTION('Vector Direction',(1.,0.,0.)) ;
#414=DIRECTION('Vector Direction',(1.,0.,0.)) ;
#433=DIRECTION('Axis2P3D Direction',(1.,0.,0.)) ;
#434=DIRECTION('Axis2P3D XDirection',(0.,1.,0.)) ;
#438=DIRECTION('Vector Direction',(1.,0.,0.)) ;
#443=DIRECTION('Vector Direction',(1.,0.,0.)) ;
#48=AXIS2_PLACEMENT_3D(' ',#47,$,$) ;
#55=AXIS2_PLACEMENT_3D('Cylinder Axis2P3D',#52,#53,#54) ;
#68=AXIS2_PLACEMENT_3D('Circle Axis2P3D',#66,#67,$) ;
#82=AXIS2_PLACEMENT_3D('Circle Axis2P3D',#80,#81,$) ;
#94=AXIS2_PLACEMENT_3D('Circle Axis2P3D',#92,#93,$) ;
#99=AXIS2_PLACEMENT_3D('Circle Axis2P3D',#97,#98,$) ;
#112=AXIS2_PLACEMENT_3D('Plane Axis2P3D',#109,#110,#111) ;
#120=AXIS2_PLACEMENT_3D('Circle Axis2P3D',#118,#119,$) ;
#129=AXIS2_PLACEMENT_3D('Circle Axis2P3D',#127,#128,$) ;
#140=AXIS2_PLACEMENT_3D('Cylinder Axis2P3D',#137,#138,#139) ;
#151=AXIS2_PLACEMENT_3D('Circle Axis2P3D',#149,#150,$) ;
#170=AXIS2_PLACEMENT_3D('Circle Axis2P3D',#168,#169,$) ;
#183=AXIS2_PLACEMENT_3D('Cylinder Axis2P3D',#180,#181,#182) ;
#196=AXIS2_PLACEMENT_3D('Circle Axis2P3D',#194,#195,$) ;
#210=AXIS2_PLACEMENT_3D('Circle Axis2P3D',#208,#209,$) ;
#222=AXIS2_PLACEMENT_3D('Circle Axis2P3D',#220,#221,$) ;
#227=AXIS2_PLACEMENT_3D('Circle Axis2P3D',#225,#226,$) ;
#240=AXIS2_PLACEMENT_3D('Plane Axis2P3D',#237,#238,#239) ;
#248=AXIS2_PLACEMENT_3D('Circle Axis2P3D',#246,#247,$) ;
#257=AXIS2_PLACEMENT_3D('Circle Axis2P3D',#255,#256,$) ;
#268=AXIS2_PLACEMENT_3D('Cylinder Axis2P3D',#265,#266,#267) ;
#279=AXIS2_PLACEMENT_3D('Circle Axis2P3D',#277,#278,$) ;
#298=AXIS2_PLACEMENT_3D('Circle Axis2P3D',#296,#297,$) ;
#311=AXIS2_PLACEMENT_3D('Plane Axis2P3D',#308,#309,#310) ;
#323=AXIS2_PLACEMENT_3D('Circle Axis2P3D',#321,#322,$) ;
#332=AXIS2_PLACEMENT_3D('Circle Axis2P3D',#330,#331,$) ;
#341=AXIS2_PLACEMENT_3D('Circle Axis2P3D',#339,#340,$) ;
#350=AXIS2_PLACEMENT_3D('Circle Axis2P3D',#348,#349,$) ;
#368=AXIS2_PLACEMENT_3D('Circle Axis2P3D',#366,#367,$) ;
#377=AXIS2_PLACEMENT_3D('Circle Axis2P3D',#375,#376,$) ;
#386=AXIS2_PLACEMENT_3D('Circle Axis2P3D',#384,#385,$) ;
#395=AXIS2_PLACEMENT_3D('Circle Axis2P3D',#393,#394,$) ;
#406=AXIS2_PLACEMENT_3D('Cylinder Axis2P3D',#403,#404,#405) ;
#435=AXIS2_PLACEMENT_3D('Cylinder Axis2P3D',#432,#433,#434) ;
#40=PRODUCT_DEFINITION_SHAPE(' ',' ',#14) ;
#31=APPROVAL_PERSON_ORGANIZATION(#25,#21,#19) ;
#25=PERSON_AND_ORGANIZATION(#22,#23) ;
#22=PERSON(' ',' ',' ',$,$,$) ;
#23=ORGANIZATION(' ',' ',' ') ;
#21=APPROVAL(#20,' ') ;
#20=APPROVAL_STATUS('not_yet_approved') ;
#19=APPROVAL_ROLE('APPROVER') ;
#13=DATE_AND_TIME(#11,#12) ;
#12=LOCAL_TIME(13,48,6.,#10) ;
#10=COORDINATED_UNIVERSAL_TIME_OFFSET(0,0,.AHEAD.) ;
#86=ORIENTED_EDGE('',*,*,#65,.F.) ;
#87=ORIENTED_EDGE('',*,*,#72,.T.) ;
#88=ORIENTED_EDGE('',*,*,#79,.T.) ;
#89=ORIENTED_EDGE('',*,*,#84,.F.) ;
#103=ORIENTED_EDGE('',*,*,#79,.F.) ;
#104=ORIENTED_EDGE('',*,*,#96,.T.) ;
#105=ORIENTED_EDGE('',*,*,#65,.T.) ;
#106=ORIENTED_EDGE('',*,*,#101,.F.) ;
#115=ORIENTED_EDGE('',*,*,#84,.T.) ;
#116=ORIENTED_EDGE('',*,*,#101,.T.) ;
#133=ORIENTED_EDGE('',*,*,#126,.F.) ;
#134=ORIENTED_EDGE('',*,*,#131,.F.) ;
#162=ORIENTED_EDGE('',*,*,#126,.T.) ;
#163=ORIENTED_EDGE('',*,*,#148,.F.) ;
#164=ORIENTED_EDGE('',*,*,#155,.F.) ;
#165=ORIENTED_EDGE('',*,*,#160,.T.) ;
#174=ORIENTED_EDGE('',*,*,#131,.T.) ;
#175=ORIENTED_EDGE('',*,*,#160,.F.) ;
#176=ORIENTED_EDGE('',*,*,#172,.F.) ;
#177=ORIENTED_EDGE('',*,*,#148,.T.) ;
#214=ORIENTED_EDGE('',*,*,#193,.F.) ;
#215=ORIENTED_EDGE('',*,*,#200,.T.) ;
#216=ORIENTED_EDGE('',*,*,#207,.T.) ;
#217=ORIENTED_EDGE('',*,*,#212,.F.) ;
#231=ORIENTED_EDGE('',*,*,#207,.F.) ;
#232=ORIENTED_EDGE('',*,*,#224,.T.) ;
#233=ORIENTED_EDGE('',*,*,#193,.T.) ;
#234=ORIENTED_EDGE('',*,*,#229,.F.) ;
#243=ORIENTED_EDGE('',*,*,#155,.T.) ;
#244=ORIENTED_EDGE('',*,*,#172,.T.) ;
#261=ORIENTED_EDGE('',*,*,#254,.T.) ;
#262=ORIENTED_EDGE('',*,*,#259,.T.) ;
#290=ORIENTED_EDGE('',*,*,#254,.F.) ;
#291=ORIENTED_EDGE('',*,*,#276,.F.) ;
#292=ORIENTED_EDGE('',*,*,#283,.T.) ;
#293=ORIENTED_EDGE('',*,*,#288,.T.) ;
#302=ORIENTED_EDGE('',*,*,#259,.F.) ;
#303=ORIENTED_EDGE('',*,*,#288,.F.) ;
#304=ORIENTED_EDGE('',*,*,#300,.T.) ;
#305=ORIENTED_EDGE('',*,*,#276,.T.) ;
#314=ORIENTED_EDGE('',*,*,#229,.T.) ;
#315=ORIENTED_EDGE('',*,*,#212,.T.) ;
#318=ORIENTED_EDGE('',*,*,#300,.F.) ;
#319=ORIENTED_EDGE('',*,*,#283,.F.) ;
#336=ORIENTED_EDGE('',*,*,#329,.F.) ;
#337=ORIENTED_EDGE('',*,*,#334,.F.) ;
#354=ORIENTED_EDGE('',*,*,#347,.F.) ;
#355=ORIENTED_EDGE('',*,*,#352,.F.) ;
#359=ORIENTED_EDGE('',*,*,#200,.F.) ;
#360=ORIENTED_EDGE('',*,*,#224,.F.) ;
#363=ORIENTED_EDGE('',*,*,#96,.F.) ;
#364=ORIENTED_EDGE('',*,*,#72,.F.) ;
#381=ORIENTED_EDGE('',*,*,#374,.T.) ;
#382=ORIENTED_EDGE('',*,*,#379,.T.) ;
#399=ORIENTED_EDGE('',*,*,#392,.T.) ;
#400=ORIENTED_EDGE('',*,*,#397,.T.) ;
#419=ORIENTED_EDGE('',*,*,#392,.F.) ;
#420=ORIENTED_EDGE('',*,*,#412,.F.) ;
#421=ORIENTED_EDGE('',*,*,#352,.T.) ;
#422=ORIENTED_EDGE('',*,*,#417,.T.) ;
#426=ORIENTED_EDGE('',*,*,#397,.F.) ;
#427=ORIENTED_EDGE('',*,*,#417,.F.) ;
#428=ORIENTED_EDGE('',*,*,#347,.T.) ;
#429=ORIENTED_EDGE('',*,*,#412,.T.) ;
#448=ORIENTED_EDGE('',*,*,#374,.F.) ;
#449=ORIENTED_EDGE('',*,*,#441,.F.) ;
#450=ORIENTED_EDGE('',*,*,#334,.T.) ;
#451=ORIENTED_EDGE('',*,*,#446,.T.) ;
#455=ORIENTED_EDGE('',*,*,#379,.F.) ;
#456=ORIENTED_EDGE('',*,*,#446,.F.) ;
#457=ORIENTED_EDGE('',*,*,#329,.T.) ;
#458=ORIENTED_EDGE('',*,*,#441,.T.) ;
#135=FACE_BOUND('',#132,.T.) ;
#263=FACE_BOUND('',#260,.T.) ;
#320=FACE_BOUND('',#317,.T.) ;
#338=FACE_BOUND('',#335,.T.) ;
#356=FACE_BOUND('',#353,.T.) ;
#365=FACE_BOUND('',#362,.T.) ;
#383=FACE_BOUND('',#380,.T.) ;
#401=FACE_BOUND('',#398,.T.) ;
#51=CLOSED_SHELL('Closed Shell',(#91,#108,#136,#167,#179,#219,#236,#264,#295,#307,#357,#402,#424,#431,#453,#460)) ;
#59=VECTOR('Line Direction',#58,1.) ;
#75=VECTOR('Line Direction',#74,1.) ;
#144=VECTOR('Line Direction',#143,1.) ;
#158=VECTOR('Line Direction',#157,1.) ;
#187=VECTOR('Line Direction',#186,1.) ;
#203=VECTOR('Line Direction',#202,1.) ;
#272=VECTOR('Line Direction',#271,1.) ;
#286=VECTOR('Line Direction',#285,1.) ;
#410=VECTOR('Line Direction',#409,1.) ;
#415=VECTOR('Line Direction',#414,1.) ;
#439=VECTOR('Line Direction',#438,1.) ;
#444=VECTOR('Line Direction',#443,1.) ;
#462=ADVANCED_BREP_SHAPE_REPRESENTATION('NONE',(#461),#46) ;
#49=SHAPE_REPRESENTATION(' ',(#48),#46) ;
#91=ADVANCED_FACE('Corps principal',(#90),#56,.T.) ;
#108=ADVANCED_FACE('Corps principal',(#107),#56,.T.) ;
#136=ADVANCED_FACE('Corps principal',(#117,#135),#113,.T.) ;
#167=ADVANCED_FACE('Corps principal',(#166),#141,.F.) ;
#179=ADVANCED_FACE('Corps principal',(#178),#141,.F.) ;
#219=ADVANCED_FACE('Corps principal',(#218),#184,.T.) ;
#236=ADVANCED_FACE('Corps principal',(#235),#184,.T.) ;
#264=ADVANCED_FACE('Corps principal',(#245,#263),#241,.F.) ;
#295=ADVANCED_FACE('Corps principal',(#294),#269,.F.) ;
#307=ADVANCED_FACE('Corps principal',(#306),#269,.F.) ;
#357=ADVANCED_FACE('Corps principal',(#316,#320,#338,#356),#312,.T.) ;
#402=ADVANCED_FACE('Corps principal',(#361,#365,#383,#401),#241,.F.) ;
#424=ADVANCED_FACE('Corps principal',(#423),#407,.F.) ;
#431=ADVANCED_FACE('Corps principal',(#430),#407,.F.) ;
#453=ADVANCED_FACE('Corps principal',(#452),#436,.F.) ;
#460=ADVANCED_FACE('Corps principal',(#459),#436,.F.) ;
#4=APPLICATION_PROTOCOL_DEFINITION('international standard','config_control_design',1994,#1) ;
#32=APPROVAL_DATE_TIME(#13,#21) ;
#461=MANIFOLD_SOLID_BREP('Corps principal',#51) ;
#11=CALENDAR_DATE(2020,22,11) ;
#30=CC_DESIGN_APPROVAL(#21,(#16,#6,#14)) ;
#18=CC_DESIGN_DATE_AND_TIME_ASSIGNMENT(#13,#17,(#16)) ;
#29=CC_DESIGN_DATE_AND_TIME_ASSIGNMENT(#13,#28,(#14)) ;
#17=DATE_TIME_ROLE('classification_date') ;
#28=DATE_TIME_ROLE('creation_date') ;
#27=CC_DESIGN_PERSON_AND_ORGANIZATION_ASSIGNMENT(#25,#26,(#16)) ;
#33=CC_DESIGN_PERSON_AND_ORGANIZATION_ASSIGNMENT(#25,#34,(#6)) ;
#35=CC_DESIGN_PERSON_AND_ORGANIZATION_ASSIGNMENT(#25,#36,(#6,#14)) ;
#37=CC_DESIGN_PERSON_AND_ORGANIZATION_ASSIGNMENT(#25,#38,(#5)) ;
#26=PERSON_AND_ORGANIZATION_ROLE('classification_officer') ;
#34=PERSON_AND_ORGANIZATION_ROLE('design_supplier') ;
#36=PERSON_AND_ORGANIZATION_ROLE('creator') ;
#38=PERSON_AND_ORGANIZATION_ROLE('design_owner') ;
#39=CC_DESIGN_SECURITY_CLASSIFICATION(#16,(#6)) ;
#69=CIRCLE('generated circle',#68,6.) ;
#83=CIRCLE('generated circle',#82,6.) ;
#95=CIRCLE('generated circle',#94,6.) ;
#100=CIRCLE('generated circle',#99,6.) ;
#121=CIRCLE('generated circle',#120,5.25) ;
#130=CIRCLE('generated circle',#129,5.25) ;
#152=CIRCLE('generated circle',#151,5.25) ;
#171=CIRCLE('generated circle',#170,5.25) ;
#197=CIRCLE('generated circle',#196,18.) ;
#211=CIRCLE('generated circle',#210,18.) ;
#223=CIRCLE('generated circle',#222,18.) ;
#228=CIRCLE('generated circle',#227,18.) ;
#249=CIRCLE('generated circle',#248,2.5) ;
#258=CIRCLE('generated circle',#257,2.5) ;
#280=CIRCLE('generated circle',#279,2.5) ;
#299=CIRCLE('generated circle',#298,2.5) ;
#324=CIRCLE('generated circle',#323,2.05) ;
#333=CIRCLE('generated circle',#332,2.05) ;
#342=CIRCLE('generated circle',#341,2.05) ;
#351=CIRCLE('generated circle',#350,2.05) ;
#369=CIRCLE('generated circle',#368,2.05) ;
#378=CIRCLE('generated circle',#377,2.05) ;
#387=CIRCLE('generated circle',#386,2.05) ;
#396=CIRCLE('generated circle',#395,2.05) ;
#463=SHAPE_REPRESENTATION_RELATIONSHIP(' ',' ',#49,#462) ;
#56=CYLINDRICAL_SURFACE('generated cylinder',#55,6.) ;
#141=CYLINDRICAL_SURFACE('generated cylinder',#140,5.25) ;
#184=CYLINDRICAL_SURFACE('generated cylinder',#183,18.) ;
#269=CYLINDRICAL_SURFACE('generated cylinder',#268,2.5) ;
#407=CYLINDRICAL_SURFACE('generated cylinder',#406,2.05) ;
#436=CYLINDRICAL_SURFACE('generated cylinder',#435,2.05) ;
#3=DESIGN_CONTEXT(' ',#1,'design') ;
#65=EDGE_CURVE('',#62,#64,#60,.T.) ;
#72=EDGE_CURVE('',#62,#71,#69,.T.) ;
#79=EDGE_CURVE('',#71,#78,#76,.T.) ;
#84=EDGE_CURVE('',#64,#78,#83,.T.) ;
#96=EDGE_CURVE('',#71,#62,#95,.T.) ;
#101=EDGE_CURVE('',#78,#64,#100,.T.) ;
#126=EDGE_CURVE('',#123,#125,#121,.T.) ;
#131=EDGE_CURVE('',#125,#123,#130,.T.) ;
#148=EDGE_CURVE('',#147,#125,#145,.T.) ;
#155=EDGE_CURVE('',#154,#147,#152,.T.) ;
#160=EDGE_CURVE('',#154,#123,#159,.T.) ;
#172=EDGE_CURVE('',#147,#154,#171,.T.) ;
#193=EDGE_CURVE('',#190,#192,#188,.T.) ;
#200=EDGE_CURVE('',#190,#199,#197,.T.) ;
#207=EDGE_CURVE('',#199,#206,#204,.T.) ;
#212=EDGE_CURVE('',#192,#206,#211,.T.) ;
#224=EDGE_CURVE('',#199,#190,#223,.T.) ;
#229=EDGE_CURVE('',#206,#192,#228,.T.) ;
#254=EDGE_CURVE('',#251,#253,#249,.T.) ;
#259=EDGE_CURVE('',#253,#251,#258,.T.) ;
#276=EDGE_CURVE('',#275,#251,#273,.F.) ;
#283=EDGE_CURVE('',#275,#282,#280,.T.) ;
#288=EDGE_CURVE('',#282,#253,#287,.F.) ;
#300=EDGE_CURVE('',#282,#275,#299,.T.) ;
#329=EDGE_CURVE('',#326,#328,#324,.T.) ;
#334=EDGE_CURVE('',#328,#326,#333,.T.) ;
#347=EDGE_CURVE('',#344,#346,#342,.T.) ;
#352=EDGE_CURVE('',#346,#344,#351,.T.) ;
#374=EDGE_CURVE('',#371,#373,#369,.T.) ;
#379=EDGE_CURVE('',#373,#371,#378,.T.) ;
#392=EDGE_CURVE('',#389,#391,#387,.T.) ;
#397=EDGE_CURVE('',#391,#389,#396,.T.) ;
#412=EDGE_CURVE('',#346,#389,#411,.F.) ;
#417=EDGE_CURVE('',#344,#391,#416,.F.) ;
#441=EDGE_CURVE('',#328,#371,#440,.F.) ;
#446=EDGE_CURVE('',#326,#373,#445,.F.) ;
#85=EDGE_LOOP('',(#86,#87,#88,#89)) ;
#102=EDGE_LOOP('',(#103,#104,#105,#106)) ;
#114=EDGE_LOOP('',(#115,#116)) ;
#132=EDGE_LOOP('',(#133,#134)) ;
#161=EDGE_LOOP('',(#162,#163,#164,#165)) ;
#173=EDGE_LOOP('',(#174,#175,#176,#177)) ;
#213=EDGE_LOOP('',(#214,#215,#216,#217)) ;
#230=EDGE_LOOP('',(#231,#232,#233,#234)) ;
#242=EDGE_LOOP('',(#243,#244)) ;
#260=EDGE_LOOP('',(#261,#262)) ;
#289=EDGE_LOOP('',(#290,#291,#292,#293)) ;
#301=EDGE_LOOP('',(#302,#303,#304,#305)) ;
#313=EDGE_LOOP('',(#314,#315)) ;
#317=EDGE_LOOP('',(#318,#319)) ;
#335=EDGE_LOOP('',(#336,#337)) ;
#353=EDGE_LOOP('',(#354,#355)) ;
#358=EDGE_LOOP('',(#359,#360)) ;
#362=EDGE_LOOP('',(#363,#364)) ;
#380=EDGE_LOOP('',(#381,#382)) ;
#398=EDGE_LOOP('',(#399,#400)) ;
#418=EDGE_LOOP('',(#419,#420,#421,#422)) ;
#425=EDGE_LOOP('',(#426,#427,#428,#429)) ;
#447=EDGE_LOOP('',(#448,#449,#450,#451)) ;
#454=EDGE_LOOP('',(#455,#456,#457,#458)) ;
#90=FACE_OUTER_BOUND('',#85,.T.) ;
#107=FACE_OUTER_BOUND('',#102,.T.) ;
#117=FACE_OUTER_BOUND('',#114,.T.) ;
#166=FACE_OUTER_BOUND('',#161,.T.) ;
#178=FACE_OUTER_BOUND('',#173,.T.) ;
#218=FACE_OUTER_BOUND('',#213,.T.) ;
#235=FACE_OUTER_BOUND('',#230,.T.) ;
#245=FACE_OUTER_BOUND('',#242,.T.) ;
#294=FACE_OUTER_BOUND('',#289,.T.) ;
#306=FACE_OUTER_BOUND('',#301,.T.) ;
#316=FACE_OUTER_BOUND('',#313,.T.) ;
#361=FACE_OUTER_BOUND('',#358,.T.) ;
#423=FACE_OUTER_BOUND('',#418,.T.) ;
#430=FACE_OUTER_BOUND('',#425,.T.) ;
#452=FACE_OUTER_BOUND('',#447,.T.) ;
#459=FACE_OUTER_BOUND('',#454,.T.) ;
#45=UNCERTAINTY_MEASURE_WITH_UNIT(LENGTH_MEASURE(0.005),#41,'distance_accuracy_value','CONFUSED CURVE UNCERTAINTY') ;
#60=LINE('Line',#57,#59) ;
#76=LINE('Line',#73,#75) ;
#145=LINE('Line',#142,#144) ;
#159=LINE('Line',#156,#158) ;
#188=LINE('Line',#185,#187) ;
#204=LINE('Line',#201,#203) ;
#273=LINE('Line',#270,#272) ;
#287=LINE('Line',#284,#286) ;
#411=LINE('Line',#408,#410) ;
#416=LINE('Line',#413,#415) ;
#440=LINE('Line',#437,#439) ;
#445=LINE('Line',#442,#444) ;
#2=MECHANICAL_CONTEXT(' ',#1,'mechanical') ;
#24=PERSONAL_ADDRESS(' ',' ',' ',' ',' ',' ',' ',' ',' ',' ',' ',' ',(#22),' ') ;
#113=PLANE('Plane',#112) ;
#241=PLANE('Plane',#240) ;
#312=PLANE('Plane',#311) ;
#43=PLANE_ANGLE_MEASURE_WITH_UNIT(PLANE_ANGLE_MEASURE(0.0174532925199),#42) ;
#7=PRODUCT_CATEGORY('part',$) ;
#9=PRODUCT_CATEGORY_RELATIONSHIP(' ',' ',#7,#8) ;
#6=PRODUCT_DEFINITION_FORMATION_WITH_SPECIFIED_SOURCE('',' ',#5,.NOT_KNOWN.) ;
#8=PRODUCT_RELATED_PRODUCT_CATEGORY('detail',$,(#5)) ;
#50=SHAPE_DEFINITION_REPRESENTATION(#40,#49) ;
#62=VERTEX_POINT('',#61) ;
#64=VERTEX_POINT('',#63) ;
#71=VERTEX_POINT('',#70) ;
#78=VERTEX_POINT('',#77) ;
#123=VERTEX_POINT('',#122) ;
#125=VERTEX_POINT('',#124) ;
#147=VERTEX_POINT('',#146) ;
#154=VERTEX_POINT('',#153) ;
#190=VERTEX_POINT('',#189) ;
#192=VERTEX_POINT('',#191) ;
#199=VERTEX_POINT('',#198) ;
#206=VERTEX_POINT('',#205) ;
#251=VERTEX_POINT('',#250) ;
#253=VERTEX_POINT('',#252) ;
#275=VERTEX_POINT('',#274) ;
#282=VERTEX_POINT('',#281) ;
#326=VERTEX_POINT('',#325) ;
#328=VERTEX_POINT('',#327) ;
#344=VERTEX_POINT('',#343) ;
#346=VERTEX_POINT('',#345) ;
#371=VERTEX_POINT('',#370) ;
#373=VERTEX_POINT('',#372) ;
#389=VERTEX_POINT('',#388) ;
#391=VERTEX_POINT('',#390) ;
#41=(LENGTH_UNIT()NAMED_UNIT(*)SI_UNIT(.MILLI.,.METRE.)) ;
#42=(NAMED_UNIT(*)PLANE_ANGLE_UNIT()SI_UNIT($,.RADIAN.)) ;
#44=(NAMED_UNIT(*)SI_UNIT($,.STERADIAN.)SOLID_ANGLE_UNIT()) ;
#46=(GEOMETRIC_REPRESENTATION_CONTEXT(3)GLOBAL_UNCERTAINTY_ASSIGNED_CONTEXT((#45))GLOBAL_UNIT_ASSIGNED_CONTEXT((#41,#42,#44))REPRESENTATION_CONTEXT(' ',' ')) ;
ENDSEC;
END-ISO-10303-21;
