ISO-10303-21;
HEADER;
FILE_DESCRIPTION (( 'STEP AP214' ),
    '1' );
FILE_NAME ('PM.291.STEP',
    '2020-11-16T14:31:28',
    ( '' ),
    ( '' ),
    'SwSTEP 2.0',
    'SolidWorks 2020',
    '' );
FILE_SCHEMA (( 'AUTOMOTIVE_DESIGN' ));
ENDSEC;

DATA;
#1 = DIRECTION ( 'NONE',  ( -0.0000000000000000000, -0.0000000000000000000, 1.000000000000000000 ) ) ;
#2 = DIRECTION ( 'NONE',  ( 1.000000000000000000, 0.0000000000000000000, 0.0000000000000000000 ) ) ;
#3 = AXIS2_PLACEMENT_3D ( 'NONE', #27, #170, #64 ) ;
#4 = ORIENTED_EDGE ( 'NONE', *, *, #163, .F. ) ;
#5 = DIRECTION ( 'NONE',  ( -0.0000000000000000000, -0.0000000000000000000, -1.000000000000000000 ) ) ;
#6 = CYLINDRICAL_SURFACE ( 'NONE', #159, 4.099999999999999645 ) ;
#7 = FACE_OUTER_BOUND ( 'NONE', #196, .T. ) ;
#8 = ADVANCED_FACE ( 'NONE', ( #183, #36 ), #126, .T. ) ;
#9 = APPLICATION_PROTOCOL_DEFINITION ( 'draft international standard', 'automotive_design', 1998, #141 ) ;
#10 = CIRCLE ( 'NONE', #136, 4.099999999999999645 ) ;
#11 =( LENGTH_UNIT ( ) NAMED_UNIT ( * ) SI_UNIT ( .MILLI., .METRE. ) );
#12 =( NAMED_UNIT ( * ) SI_UNIT ( $, .STERADIAN. ) SOLID_ANGLE_UNIT ( ) );
#13 = CARTESIAN_POINT ( 'NONE',  ( 7.399999999999999467, 0.0000000000000000000, 0.0000000000000000000 ) ) ;
#14 = DIRECTION ( 'NONE',  ( 0.0000000000000000000, 0.0000000000000000000, 1.000000000000000000 ) ) ;
#15 = CONICAL_SURFACE ( 'NONE', #144, 4.099999999999999645, 0.7853981633974482790 ) ;
#16 = SURFACE_STYLE_FILL_AREA ( #68 ) ;
#17 = ORIENTED_EDGE ( 'NONE', *, *, #129, .F. ) ;
#18 = AXIS2_PLACEMENT_3D ( 'NONE', #112, #96, #60 ) ;
#19 = ADVANCED_FACE ( 'NONE', ( #128, #147 ), #194, .F. ) ;
#20 = EDGE_LOOP ( 'NONE', ( #26 ) ) ;
#21 = SURFACE_SIDE_STYLE ('',( #59 ) ) ;
#22 = CARTESIAN_POINT ( 'NONE',  ( 0.0000000000000000000, 0.0000000000000000000, 11.80000000000000071 ) ) ;
#23 = FACE_BOUND ( 'NONE', #52, .T. ) ;
#24 = AXIS2_PLACEMENT_3D ( 'NONE', #87, #124, #200 ) ;
#25 = SURFACE_STYLE_USAGE ( .BOTH. , #21 ) ;
#26 = ORIENTED_EDGE ( 'NONE', *, *, #173, .T. ) ;
#27 = CARTESIAN_POINT ( 'NONE',  ( 0.0000000000000000000, 0.0000000000000000000, 12.00000000000000000 ) ) ;
#28 = CARTESIAN_POINT ( 'NONE',  ( 0.0000000000000000000, 0.0000000000000000000, 0.2000000000000022593 ) ) ;
#29 =( GEOMETRIC_REPRESENTATION_CONTEXT ( 3 ) GLOBAL_UNCERTAINTY_ASSIGNED_CONTEXT ( ( #105 ) ) GLOBAL_UNIT_ASSIGNED_CONTEXT ( ( #11, #65, #12 ) ) REPRESENTATION_CONTEXT ( 'NONE', 'WORKASPACE' ) );
#30 = VERTEX_POINT ( 'NONE', #116 ) ;
#31 = VERTEX_POINT ( 'NONE', #80 ) ;
#32 = AXIS2_PLACEMENT_3D ( 'NONE', #91, #55, #41 ) ;
#33 = MANIFOLD_SOLID_BREP ( 'Chanfrein1', #95 ) ;
#34 = PRESENTATION_STYLE_ASSIGNMENT (( #70 ) ) ;
#35 = ORIENTED_EDGE ( 'NONE', *, *, #157, .T. ) ;
#36 = FACE_BOUND ( 'NONE', #164, .T. ) ;
#37 = CIRCLE ( 'NONE', #169, 7.599999999999999645 ) ;
#38 = EDGE_CURVE ( 'NONE', #30, #30, #177, .T. ) ;
#39 = CARTESIAN_POINT ( 'NONE',  ( 0.0000000000000000000, 0.0000000000000000000, 11.80000000000000071 ) ) ;
#40 = DIRECTION ( 'NONE',  ( 1.000000000000000000, 0.0000000000000000000, 0.0000000000000000000 ) ) ;
#41 = DIRECTION ( 'NONE',  ( -1.000000000000000000, 0.0000000000000000000, 0.0000000000000000000 ) ) ;
#42 = FACE_OUTER_BOUND ( 'NONE', #85, .T. ) ;
#43 = VERTEX_POINT ( 'NONE', #189 ) ;
#44 = CARTESIAN_POINT ( 'NONE',  ( 4.299999999999998046, 0.0000000000000000000, 12.00000000000000000 ) ) ;
#45 = ADVANCED_FACE ( 'NONE', ( #42, #180 ), #178, .T. ) ;
#46 = AXIS2_PLACEMENT_3D ( 'NONE', #92, #212, #107 ) ;
#47 = DIRECTION ( 'NONE',  ( 1.000000000000000000, 0.0000000000000000000, -0.0000000000000000000 ) ) ;
#48 = PLANE ( 'NONE',  #214 ) ;
#49 = ADVANCED_FACE ( 'NONE', ( #197, #58 ), #6, .F. ) ;
#50 = ORIENTED_EDGE ( 'NONE', *, *, #173, .F. ) ;
#51 = APPLICATION_PROTOCOL_DEFINITION ( 'draft international standard', 'automotive_design', 1998, #61 ) ;
#52 = EDGE_LOOP ( 'NONE', ( #100 ) ) ;
#53 = ORIENTED_EDGE ( 'NONE', *, *, #134, .F. ) ;
#54 = EDGE_LOOP ( 'NONE', ( #4 ) ) ;
#55 = DIRECTION ( 'NONE',  ( 0.0000000000000000000, 0.0000000000000000000, -1.000000000000000000 ) ) ;
#56 = CARTESIAN_POINT ( 'NONE',  ( 0.0000000000000000000, 0.0000000000000000000, 12.00000000000000000 ) ) ;
#57 = CIRCLE ( 'NONE', #205, 7.399999999999999467 ) ;
#58 = FACE_OUTER_BOUND ( 'NONE', #120, .T. ) ;
#59 = SURFACE_STYLE_FILL_AREA ( #75 ) ;
#60 = DIRECTION ( 'NONE',  ( 1.000000000000000000, 0.0000000000000000000, 0.0000000000000000000 ) ) ;
#61 = APPLICATION_CONTEXT ( 'automotive_design' ) ;
#62 = CARTESIAN_POINT ( 'NONE',  ( 0.0000000000000000000, 0.0000000000000000000, 12.00000000000000000 ) ) ;
#63 = ADVANCED_FACE ( 'NONE', ( #7, #210 ), #15, .F. ) ;
#64 = DIRECTION ( 'NONE',  ( 1.000000000000000000, 0.0000000000000000000, 0.0000000000000000000 ) ) ;
#65 =( NAMED_UNIT ( * ) PLANE_ANGLE_UNIT ( ) SI_UNIT ( $, .RADIAN. ) );
#66 = FACE_OUTER_BOUND ( 'NONE', #71, .T. ) ;
#67 = CARTESIAN_POINT ( 'NONE',  ( 0.0000000000000000000, 0.0000000000000000000, 0.0000000000000000000 ) ) ;
#68 = FILL_AREA_STYLE ('',( #152 ) ) ;
#69 = AXIS2_PLACEMENT_3D ( 'NONE', #28, #1, #135 ) ;
#70 = SURFACE_STYLE_USAGE ( .BOTH. , #193 ) ;
#71 = EDGE_LOOP ( 'NONE', ( #72 ) ) ;
#72 = ORIENTED_EDGE ( 'NONE', *, *, #38, .F. ) ;
#73 = COLOUR_RGB ( '',0.8980392156862745390, 0.9176470588235293713, 0.9294117647058823817 ) ;
#74 = ORIENTED_EDGE ( 'NONE', *, *, #167, .F. ) ;
#75 = FILL_AREA_STYLE ('',( #125 ) ) ;
#76 = DIRECTION ( 'NONE',  ( 0.0000000000000000000, 0.0000000000000000000, 1.000000000000000000 ) ) ;
#77 = CONICAL_SURFACE ( 'NONE', #69, 7.599999999999999645, 0.7853981633974439491 ) ;
#78 = PLANE ( 'NONE',  #186 ) ;
#79 = ORIENTED_EDGE ( 'NONE', *, *, #163, .T. ) ;
#80 = CARTESIAN_POINT ( 'NONE',  ( 7.599999999999999645, 0.0000000000000000000, 11.79999999999999538 ) ) ;
#81 = VERTEX_POINT ( 'NONE', #202 ) ;
#82 = CARTESIAN_POINT ( 'NONE',  ( 0.0000000000000000000, 0.0000000000000000000, 12.00000000000000000 ) ) ;
#83 =( NAMED_UNIT ( * ) PLANE_ANGLE_UNIT ( ) SI_UNIT ( $, .RADIAN. ) );
#84 = ORIENTED_EDGE ( 'NONE', *, *, #134, .T. ) ;
#85 = EDGE_LOOP ( 'NONE', ( #168 ) ) ;
#86 =( LENGTH_UNIT ( ) NAMED_UNIT ( * ) SI_UNIT ( .MILLI., .METRE. ) );
#87 = CARTESIAN_POINT ( 'NONE',  ( 0.0000000000000000000, 0.0000000000000000000, 0.2000000000000022593 ) ) ;
#88 = UNCERTAINTY_MEASURE_WITH_UNIT (LENGTH_MEASURE( 1.000000000000000082E-05 ), #122, 'distance_accuracy_value', 'NONE');
#89 = FACE_OUTER_BOUND ( 'NONE', #123, .T. ) ;
#90 = EDGE_CURVE ( 'NONE', #203, #203, #213, .T. ) ;
#91 = CARTESIAN_POINT ( 'NONE',  ( 0.0000000000000000000, 0.0000000000000000000, 12.00000000000000000 ) ) ;
#92 = CARTESIAN_POINT ( 'NONE',  ( 0.0000000000000000000, 0.0000000000000000000, 0.0000000000000000000 ) ) ;
#93 = PRODUCT_DEFINITION ( 'UNKNOWN', '', #110, #166 ) ;
#94 = CARTESIAN_POINT ( 'NONE',  ( 0.0000000000000000000, 0.0000000000000000000, 0.1999999999999987899 ) ) ;
#95 = CLOSED_SHELL ( 'NONE', ( #207, #102, #45, #49, #19, #127, #63, #8 ) ) ;
#96 = DIRECTION ( 'NONE',  ( 0.0000000000000000000, 0.0000000000000000000, 1.000000000000000000 ) ) ;
#97 = DIRECTION ( 'NONE',  ( 1.000000000000000000, 0.0000000000000000000, 0.0000000000000000000 ) ) ;
#98 = FACE_BOUND ( 'NONE', #208, .T. ) ;
#99 = DIRECTION ( 'NONE',  ( 0.0000000000000000000, 0.0000000000000000000, -1.000000000000000000 ) ) ;
#100 = ORIENTED_EDGE ( 'NONE', *, *, #167, .T. ) ;
#101 = PRODUCT_CONTEXT ( 'NONE', #141, 'mechanical' ) ;
#102 = ADVANCED_FACE ( 'NONE', ( #23, #89 ), #78, .F. ) ;
#103 = PRODUCT ( 'PM.291', 'PM.291', '', ( #101 ) ) ;
#104 = CIRCLE ( 'NONE', #182, 7.399999999999995914 ) ;
#105 = UNCERTAINTY_MEASURE_WITH_UNIT (LENGTH_MEASURE( 1.000000000000000082E-05 ), #11, 'distance_accuracy_value', 'NONE');
#106 = DIRECTION ( 'NONE',  ( 0.0000000000000000000, 0.0000000000000000000, 1.000000000000000000 ) ) ;
#107 = DIRECTION ( 'NONE',  ( -1.000000000000000000, 0.0000000000000000000, 0.0000000000000000000 ) ) ;
#108 =( GEOMETRIC_REPRESENTATION_CONTEXT ( 3 ) GLOBAL_UNCERTAINTY_ASSIGNED_CONTEXT ( ( #158 ) ) GLOBAL_UNIT_ASSIGNED_CONTEXT ( ( #86, #142, #199 ) ) REPRESENTATION_CONTEXT ( 'NONE', 'WORKASPACE' ) );
#109 = DIRECTION ( 'NONE',  ( -0.0000000000000000000, -0.0000000000000000000, -1.000000000000000000 ) ) ;
#110 = PRODUCT_DEFINITION_FORMATION_WITH_SPECIFIED_SOURCE ( 'ANY', '', #103, .NOT_KNOWN. ) ;
#111 = DIRECTION ( 'NONE',  ( -0.0000000000000000000, -0.0000000000000000000, -1.000000000000000000 ) ) ;
#112 = CARTESIAN_POINT ( 'NONE',  ( 0.0000000000000000000, 0.0000000000000000000, 0.0000000000000000000 ) ) ;
#113 = CIRCLE ( 'NONE', #18, 4.299999999999998046 ) ;
#114 = STYLED_ITEM ( 'NONE', ( #34 ), #184 ) ;
#115 = DIRECTION ( 'NONE',  ( 1.000000000000000000, 0.0000000000000000000, 0.0000000000000000000 ) ) ;
#116 = CARTESIAN_POINT ( 'NONE',  ( 7.599999999999999645, 0.0000000000000000000, 0.2000000000000022593 ) ) ;
#117 = MECHANICAL_DESIGN_GEOMETRIC_PRESENTATION_REPRESENTATION (  '', ( #133 ), #108 ) ;
#118 = ORIENTED_EDGE ( 'NONE', *, *, #90, .T. ) ;
#119 = SHAPE_DEFINITION_REPRESENTATION ( #156, #184 ) ;
#120 = EDGE_LOOP ( 'NONE', ( #118 ) ) ;
#121 = COLOUR_RGB ( '',0.8980392156862745390, 0.9176470588235293713, 0.9294117647058823817 ) ;
#122 =( LENGTH_UNIT ( ) NAMED_UNIT ( * ) SI_UNIT ( .MILLI., .METRE. ) );
#123 = EDGE_LOOP ( 'NONE', ( #140 ) ) ;
#124 = DIRECTION ( 'NONE',  ( -0.0000000000000000000, -0.0000000000000000000, 1.000000000000000000 ) ) ;
#125 = FILL_AREA_STYLE_COLOUR ( '', #121 ) ;
#126 = CONICAL_SURFACE ( 'NONE', #32, 7.399999999999995914, 0.7853981633974439491 ) ;
#127 = ADVANCED_FACE ( 'NONE', ( #98, #66 ), #77, .T. ) ;
#128 = FACE_BOUND ( 'NONE', #160, .T. ) ;
#129 = EDGE_CURVE ( 'NONE', #185, #185, #57, .T. ) ;
#130 = DIRECTION ( 'NONE',  ( 1.000000000000000000, 0.0000000000000000000, -0.0000000000000000000 ) ) ;
#131 = CARTESIAN_POINT ( 'NONE',  ( 4.099999999999999645, 0.0000000000000000000, 11.80000000000000071 ) ) ;
#132 = DIRECTION ( 'NONE',  ( 0.0000000000000000000, 0.0000000000000000000, 1.000000000000000000 ) ) ;
#133 = STYLED_ITEM ( 'NONE', ( #181 ), #33 ) ;
#134 = EDGE_CURVE ( 'NONE', #43, #43, #104, .T. ) ;
#135 = DIRECTION ( 'NONE',  ( 1.000000000000000000, 0.0000000000000000000, 0.0000000000000000000 ) ) ;
#136 = AXIS2_PLACEMENT_3D ( 'NONE', #94, #151, #115 ) ;
#137 = DIRECTION ( 'NONE',  ( 1.000000000000000000, 0.0000000000000000000, 0.0000000000000000000 ) ) ;
#138 = ORIENTED_EDGE ( 'NONE', *, *, #157, .F. ) ;
#139 = DIRECTION ( 'NONE',  ( 0.0000000000000000000, 0.0000000000000000000, 1.000000000000000000 ) ) ;
#140 = ORIENTED_EDGE ( 'NONE', *, *, #129, .T. ) ;
#141 = APPLICATION_CONTEXT ( 'automotive_design' ) ;
#142 =( NAMED_UNIT ( * ) PLANE_ANGLE_UNIT ( ) SI_UNIT ( $, .RADIAN. ) );
#143 = PRODUCT_RELATED_PRODUCT_CATEGORY ( 'part', '', ( #103 ) ) ;
#144 = AXIS2_PLACEMENT_3D ( 'NONE', #39, #106, #179 ) ;
#145 = MECHANICAL_DESIGN_GEOMETRIC_PRESENTATION_REPRESENTATION (  '', ( #114 ), #192 ) ;
#146 = CARTESIAN_POINT ( 'NONE',  ( 0.0000000000000000000, 0.0000000000000000000, 0.0000000000000000000 ) ) ;
#147 = FACE_OUTER_BOUND ( 'NONE', #191, .T. ) ;
#148 = CARTESIAN_POINT ( 'NONE',  ( 0.0000000000000000000, 0.0000000000000000000, 11.79999999999999538 ) ) ;
#149 = PRESENTATION_LAYER_ASSIGNMENT (  '', '', ( #133 ) ) ;
#150 = PRESENTATION_LAYER_ASSIGNMENT (  '', '', ( #114 ) ) ;
#151 = DIRECTION ( 'NONE',  ( -0.0000000000000000000, -0.0000000000000000000, -1.000000000000000000 ) ) ;
#152 = FILL_AREA_STYLE_COLOUR ( '', #73 ) ;
#153 = VERTEX_POINT ( 'NONE', #44 ) ;
#154 = AXIS2_PLACEMENT_3D ( 'NONE', #56, #109, #165 ) ;
#155 = CARTESIAN_POINT ( 'NONE',  ( 4.299999999999998046, 0.0000000000000000000, 0.0000000000000000000 ) ) ;
#156 = PRODUCT_DEFINITION_SHAPE ( 'NONE', 'NONE',  #93 ) ;
#157 = EDGE_CURVE ( 'NONE', #81, #81, #10, .T. ) ;
#158 = UNCERTAINTY_MEASURE_WITH_UNIT (LENGTH_MEASURE( 1.000000000000000082E-05 ), #86, 'distance_accuracy_value', 'NONE');
#159 = AXIS2_PLACEMENT_3D ( 'NONE', #162, #5, #198 ) ;
#160 = EDGE_LOOP ( 'NONE', ( #138 ) ) ;
#161 =( NAMED_UNIT ( * ) SI_UNIT ( $, .STERADIAN. ) SOLID_ANGLE_UNIT ( ) );
#162 = CARTESIAN_POINT ( 'NONE',  ( 0.0000000000000000000, 0.0000000000000000000, 12.00000000000000000 ) ) ;
#163 = EDGE_CURVE ( 'NONE', #31, #31, #37, .T. ) ;
#164 = EDGE_LOOP ( 'NONE', ( #53 ) ) ;
#165 = DIRECTION ( 'NONE',  ( -1.000000000000000000, 0.0000000000000000000, 0.0000000000000000000 ) ) ;
#166 = PRODUCT_DEFINITION_CONTEXT ( 'detailed design', #61, 'design' ) ;
#167 = EDGE_CURVE ( 'NONE', #201, #201, #113, .T. ) ;
#168 = ORIENTED_EDGE ( 'NONE', *, *, #38, .T. ) ;
#169 = AXIS2_PLACEMENT_3D ( 'NONE', #148, #99, #172 ) ;
#170 = DIRECTION ( 'NONE',  ( -0.0000000000000000000, -0.0000000000000000000, -1.000000000000000000 ) ) ;
#171 = CARTESIAN_POINT ( 'NONE',  ( 0.0000000000000000000, 0.0000000000000000000, 0.0000000000000000000 ) ) ;
#172 = DIRECTION ( 'NONE',  ( 1.000000000000000000, 0.0000000000000000000, 0.0000000000000000000 ) ) ;
#173 = EDGE_CURVE ( 'NONE', #153, #153, #175, .T. ) ;
#174 = ORIENTED_EDGE ( 'NONE', *, *, #90, .F. ) ;
#175 = CIRCLE ( 'NONE', #3, 4.299999999999998046 ) ;
#176 = EDGE_LOOP ( 'NONE', ( #79 ) ) ;
#177 = CIRCLE ( 'NONE', #24, 7.599999999999999645 ) ;
#178 = CYLINDRICAL_SURFACE ( 'NONE', #154, 7.599999999999999645 ) ;
#179 = DIRECTION ( 'NONE',  ( 1.000000000000000000, 0.0000000000000000000, 0.0000000000000000000 ) ) ;
#180 = FACE_OUTER_BOUND ( 'NONE', #176, .T. ) ;
#181 = PRESENTATION_STYLE_ASSIGNMENT (( #25 ) ) ;
#182 = AXIS2_PLACEMENT_3D ( 'NONE', #62, #14, #97 ) ;
#183 = FACE_OUTER_BOUND ( 'NONE', #54, .T. ) ;
#184 = ADVANCED_BREP_SHAPE_REPRESENTATION ( 'PM.291', ( #33, #188 ), #29 ) ;
#185 = VERTEX_POINT ( 'NONE', #13 ) ;
#186 = AXIS2_PLACEMENT_3D ( 'NONE', #146, #211, #47 ) ;
#187 = FACE_BOUND ( 'NONE', #20, .T. ) ;
#188 = AXIS2_PLACEMENT_3D ( 'NONE', #67, #139, #137 ) ;
#189 = CARTESIAN_POINT ( 'NONE',  ( 7.399999999999995914, 0.0000000000000000000, 12.00000000000000000 ) ) ;
#190 = AXIS2_PLACEMENT_3D ( 'NONE', #22, #76, #40 ) ;
#191 = EDGE_LOOP ( 'NONE', ( #74 ) ) ;
#192 =( GEOMETRIC_REPRESENTATION_CONTEXT ( 3 ) GLOBAL_UNCERTAINTY_ASSIGNED_CONTEXT ( ( #88 ) ) GLOBAL_UNIT_ASSIGNED_CONTEXT ( ( #122, #83, #161 ) ) REPRESENTATION_CONTEXT ( 'NONE', 'WORKASPACE' ) );
#193 = SURFACE_SIDE_STYLE ('',( #16 ) ) ;
#194 = CONICAL_SURFACE ( 'NONE', #46, 4.299999999999998046, 0.7853981633974482790 ) ;
#195 = EDGE_LOOP ( 'NONE', ( #35 ) ) ;
#196 = EDGE_LOOP ( 'NONE', ( #50 ) ) ;
#197 = FACE_OUTER_BOUND ( 'NONE', #195, .T. ) ;
#198 = DIRECTION ( 'NONE',  ( -1.000000000000000000, 0.0000000000000000000, 0.0000000000000000000 ) ) ;
#199 =( NAMED_UNIT ( * ) SI_UNIT ( $, .STERADIAN. ) SOLID_ANGLE_UNIT ( ) );
#200 = DIRECTION ( 'NONE',  ( 1.000000000000000000, 0.0000000000000000000, 0.0000000000000000000 ) ) ;
#201 = VERTEX_POINT ( 'NONE', #155 ) ;
#202 = CARTESIAN_POINT ( 'NONE',  ( 4.099999999999999645, 0.0000000000000000000, 0.1999999999999987899 ) ) ;
#203 = VERTEX_POINT ( 'NONE', #131 ) ;
#204 = FACE_OUTER_BOUND ( 'NONE', #206, .T. ) ;
#205 = AXIS2_PLACEMENT_3D ( 'NONE', #171, #111, #2 ) ;
#206 = EDGE_LOOP ( 'NONE', ( #84 ) ) ;
#207 = ADVANCED_FACE ( 'NONE', ( #187, #204 ), #48, .T. ) ;
#208 = EDGE_LOOP ( 'NONE', ( #17 ) ) ;
#209 = EDGE_LOOP ( 'NONE', ( #174 ) ) ;
#210 = FACE_BOUND ( 'NONE', #209, .T. ) ;
#211 = DIRECTION ( 'NONE',  ( 0.0000000000000000000, 0.0000000000000000000, 1.000000000000000000 ) ) ;
#212 = DIRECTION ( 'NONE',  ( -0.0000000000000000000, -0.0000000000000000000, -1.000000000000000000 ) ) ;
#213 = CIRCLE ( 'NONE', #190, 4.099999999999999645 ) ;
#214 = AXIS2_PLACEMENT_3D ( 'NONE', #82, #132, #130 ) ;
ENDSEC;
END-ISO-10303-21;
