ISO-10303-21;
HEADER;
FILE_DESCRIPTION (( 'STEP AP214' ),
    '1' );
FILE_NAME ('PM.292.STEP',
    '2020-11-16T14:31:44',
    ( '' ),
    ( '' ),
    'SwSTEP 2.0',
    'SolidWorks 2020',
    '' );
FILE_SCHEMA (( 'AUTOMOTIVE_DESIGN' ));
ENDSEC;

DATA;
#1 = CIRCLE ( 'NONE', #49, 7.400000000000006573 ) ;
#2 =( GEOMETRIC_REPRESENTATION_CONTEXT ( 3 ) GLOBAL_UNCERTAINTY_ASSIGNED_CONTEXT ( ( #70 ) ) GLOBAL_UNIT_ASSIGNED_CONTEXT ( ( #21, #182, #71 ) ) REPRESENTATION_CONTEXT ( 'NONE', 'WORKASPACE' ) );
#3 = APPLICATION_PROTOCOL_DEFINITION ( 'draft international standard', 'automotive_design', 1998, #199 ) ;
#4 = CARTESIAN_POINT ( 'NONE',  ( 7.599999999999999645, 0.0000000000000000000, 0.2000000000000022593 ) ) ;
#5 = FILL_AREA_STYLE ('',( #147 ) ) ;
#6 = PRODUCT ( 'PM.292', 'PM.292', '', ( #143 ) ) ;
#7 = PRESENTATION_STYLE_ASSIGNMENT (( #75 ) ) ;
#8 = EDGE_LOOP ( 'NONE', ( #120 ) ) ;
#9 = EDGE_LOOP ( 'NONE', ( #192 ) ) ;
#10 = MECHANICAL_DESIGN_GEOMETRIC_PRESENTATION_REPRESENTATION (  '', ( #145 ), #111 ) ;
#11 = DIRECTION ( 'NONE',  ( 0.0000000000000000000, 0.0000000000000000000, 1.000000000000000000 ) ) ;
#12 = DIRECTION ( 'NONE',  ( -1.000000000000000000, 0.0000000000000000000, 0.0000000000000000000 ) ) ;
#13 = MANIFOLD_SOLID_BREP ( 'Chanfrein1', #115 ) ;
#14 = CONICAL_SURFACE ( 'NONE', #69, 7.599999999999999645, 0.7853981633974482790 ) ;
#15 = CARTESIAN_POINT ( 'NONE',  ( 0.0000000000000000000, 0.0000000000000000000, 15.29999999999999716 ) ) ;
#16 = CARTESIAN_POINT ( 'NONE',  ( 7.399999999999997691, 0.0000000000000000000, 0.0000000000000000000 ) ) ;
#17 = FACE_BOUND ( 'NONE', #169, .T. ) ;
#18 = PRESENTATION_STYLE_ASSIGNMENT (( #214 ) ) ;
#19 = CIRCLE ( 'NONE', #101, 7.599999999999999645 ) ;
#20 = VERTEX_POINT ( 'NONE', #84 ) ;
#21 =( LENGTH_UNIT ( ) NAMED_UNIT ( * ) SI_UNIT ( .MILLI., .METRE. ) );
#22 = AXIS2_PLACEMENT_3D ( 'NONE', #15, #80, #138 ) ;
#23 = FILL_AREA_STYLE ('',( #160 ) ) ;
#24 = ORIENTED_EDGE ( 'NONE', *, *, #142, .F. ) ;
#25 = ORIENTED_EDGE ( 'NONE', *, *, #201, .F. ) ;
#26 = EDGE_LOOP ( 'NONE', ( #57 ) ) ;
#27 = PRODUCT_DEFINITION_SHAPE ( 'NONE', 'NONE',  #136 ) ;
#28 =( GEOMETRIC_REPRESENTATION_CONTEXT ( 3 ) GLOBAL_UNCERTAINTY_ASSIGNED_CONTEXT ( ( #41 ) ) GLOBAL_UNIT_ASSIGNED_CONTEXT ( ( #213, #52, #68 ) ) REPRESENTATION_CONTEXT ( 'NONE', 'WORKASPACE' ) );
#29 = ORIENTED_EDGE ( 'NONE', *, *, #33, .F. ) ;
#30 = FACE_OUTER_BOUND ( 'NONE', #191, .T. ) ;
#31 = ADVANCED_FACE ( 'NONE', ( #102, #170 ), #155, .F. ) ;
#32 = FACE_BOUND ( 'NONE', #172, .T. ) ;
#33 = EDGE_CURVE ( 'NONE', #77, #77, #207, .T. ) ;
#34 = AXIS2_PLACEMENT_3D ( 'NONE', #165, #89, #74 ) ;
#35 = CARTESIAN_POINT ( 'NONE',  ( 0.0000000000000000000, 0.0000000000000000000, 15.50000000000000000 ) ) ;
#36 = DIRECTION ( 'NONE',  ( -0.0000000000000000000, -0.0000000000000000000, -1.000000000000000000 ) ) ;
#37 = ADVANCED_FACE ( 'NONE', ( #123, #157 ), #135, .T. ) ;
#38 = DIRECTION ( 'NONE',  ( 0.0000000000000000000, 0.0000000000000000000, 1.000000000000000000 ) ) ;
#39 = CARTESIAN_POINT ( 'NONE',  ( 4.099999999999999645, 0.0000000000000000000, 0.1999999999999987899 ) ) ;
#40 = CONICAL_SURFACE ( 'NONE', #151, 7.400000000000006573, 0.7853981633974439491 ) ;
#41 = UNCERTAINTY_MEASURE_WITH_UNIT (LENGTH_MEASURE( 1.000000000000000082E-05 ), #213, 'distance_accuracy_value', 'NONE');
#42 = EDGE_LOOP ( 'NONE', ( #62 ) ) ;
#43 = DIRECTION ( 'NONE',  ( -0.0000000000000000000, -0.0000000000000000000, -1.000000000000000000 ) ) ;
#44 = ORIENTED_EDGE ( 'NONE', *, *, #164, .F. ) ;
#45 = ORIENTED_EDGE ( 'NONE', *, *, #78, .F. ) ;
#46 = DIRECTION ( 'NONE',  ( 0.0000000000000000000, 0.0000000000000000000, 1.000000000000000000 ) ) ;
#47 = FACE_BOUND ( 'NONE', #204, .T. ) ;
#48 = CARTESIAN_POINT ( 'NONE',  ( 0.0000000000000000000, 0.0000000000000000000, 0.2000000000000022593 ) ) ;
#49 = AXIS2_PLACEMENT_3D ( 'NONE', #154, #11, #179 ) ;
#50 = CARTESIAN_POINT ( 'NONE',  ( 0.0000000000000000000, 0.0000000000000000000, 15.50000000000000000 ) ) ;
#51 = CARTESIAN_POINT ( 'NONE',  ( 0.0000000000000000000, 0.0000000000000000000, 15.50000000000000000 ) ) ;
#52 =( NAMED_UNIT ( * ) PLANE_ANGLE_UNIT ( ) SI_UNIT ( $, .RADIAN. ) );
#53 = VERTEX_POINT ( 'NONE', #39 ) ;
#54 = PRESENTATION_LAYER_ASSIGNMENT (  '', '', ( #141 ) ) ;
#55 = COLOUR_RGB ( '',0.8980392156862745390, 0.9176470588235293713, 0.9294117647058823817 ) ;
#56 = ADVANCED_FACE ( 'NONE', ( #195, #175 ), #162, .F. ) ;
#57 = ORIENTED_EDGE ( 'NONE', *, *, #206, .T. ) ;
#58 = ADVANCED_FACE ( 'NONE', ( #47, #156 ), #112, .F. ) ;
#59 = EDGE_LOOP ( 'NONE', ( #45 ) ) ;
#60 = AXIS2_PLACEMENT_3D ( 'NONE', #198, #65, #95 ) ;
#61 = EDGE_LOOP ( 'NONE', ( #103 ) ) ;
#62 = ORIENTED_EDGE ( 'NONE', *, *, #206, .F. ) ;
#63 = DIRECTION ( 'NONE',  ( -1.000000000000000000, 0.0000000000000000000, 0.0000000000000000000 ) ) ;
#64 = FACE_OUTER_BOUND ( 'NONE', #59, .T. ) ;
#65 = DIRECTION ( 'NONE',  ( 0.0000000000000000000, 0.0000000000000000000, 1.000000000000000000 ) ) ;
#66 = CARTESIAN_POINT ( 'NONE',  ( 0.0000000000000000000, 0.0000000000000000000, 15.50000000000000000 ) ) ;
#67 = VERTEX_POINT ( 'NONE', #163 ) ;
#68 =( NAMED_UNIT ( * ) SI_UNIT ( $, .STERADIAN. ) SOLID_ANGLE_UNIT ( ) );
#69 = AXIS2_PLACEMENT_3D ( 'NONE', #177, #124, #196 ) ;
#70 = UNCERTAINTY_MEASURE_WITH_UNIT (LENGTH_MEASURE( 1.000000000000000082E-05 ), #21, 'distance_accuracy_value', 'NONE');
#71 =( NAMED_UNIT ( * ) SI_UNIT ( $, .STERADIAN. ) SOLID_ANGLE_UNIT ( ) );
#72 = EDGE_LOOP ( 'NONE', ( #44 ) ) ;
#73 = AXIS2_PLACEMENT_3D ( 'NONE', #94, #208, #108 ) ;
#74 = DIRECTION ( 'NONE',  ( 1.000000000000000000, 0.0000000000000000000, 0.0000000000000000000 ) ) ;
#75 = SURFACE_STYLE_USAGE ( .BOTH. , #117 ) ;
#76 = DIRECTION ( 'NONE',  ( 1.000000000000000000, 0.0000000000000000000, -0.0000000000000000000 ) ) ;
#77 = VERTEX_POINT ( 'NONE', #16 ) ;
#78 = EDGE_CURVE ( 'NONE', #67, #67, #189, .T. ) ;
#79 = AXIS2_PLACEMENT_3D ( 'NONE', #121, #113, #139 ) ;
#80 = DIRECTION ( 'NONE',  ( 0.0000000000000000000, 0.0000000000000000000, 1.000000000000000000 ) ) ;
#81 = DIRECTION ( 'NONE',  ( -0.0000000000000000000, -0.0000000000000000000, -1.000000000000000000 ) ) ;
#82 = DIRECTION ( 'NONE',  ( 1.000000000000000000, 0.0000000000000000000, 0.0000000000000000000 ) ) ;
#83 = COLOUR_RGB ( '',0.8980392156862745390, 0.9176470588235293713, 0.9294117647058823817 ) ;
#84 = CARTESIAN_POINT ( 'NONE',  ( 4.300000000000001599, 0.0000000000000000000, 15.50000000000000000 ) ) ;
#85 = CARTESIAN_POINT ( 'NONE',  ( 7.400000000000006573, 0.0000000000000000000, 15.50000000000000000 ) ) ;
#86 = DIRECTION ( 'NONE',  ( 1.000000000000000000, 0.0000000000000000000, 0.0000000000000000000 ) ) ;
#87 = APPLICATION_PROTOCOL_DEFINITION ( 'draft international standard', 'automotive_design', 1998, #184 ) ;
#88 = SURFACE_SIDE_STYLE ('',( #114 ) ) ;
#89 = DIRECTION ( 'NONE',  ( 0.0000000000000000000, 0.0000000000000000000, 1.000000000000000000 ) ) ;
#90 = ORIENTED_EDGE ( 'NONE', *, *, #93, .T. ) ;
#91 = ORIENTED_EDGE ( 'NONE', *, *, #33, .T. ) ;
#92 = CIRCLE ( 'NONE', #60, 4.299999999999998046 ) ;
#93 = EDGE_CURVE ( 'NONE', #185, #185, #92, .T. ) ;
#94 = CARTESIAN_POINT ( 'NONE',  ( 0.0000000000000000000, 0.0000000000000000000, 0.1999999999999987899 ) ) ;
#95 = DIRECTION ( 'NONE',  ( 1.000000000000000000, 0.0000000000000000000, 0.0000000000000000000 ) ) ;
#96 = DIRECTION ( 'NONE',  ( 1.000000000000000000, 0.0000000000000000000, 0.0000000000000000000 ) ) ;
#97 = DIRECTION ( 'NONE',  ( 0.0000000000000000000, 0.0000000000000000000, -1.000000000000000000 ) ) ;
#98 = CYLINDRICAL_SURFACE ( 'NONE', #104, 4.099999999999999645 ) ;
#99 = CARTESIAN_POINT ( 'NONE',  ( 4.299999999999998046, 0.0000000000000000000, 0.0000000000000000000 ) ) ;
#100 = UNCERTAINTY_MEASURE_WITH_UNIT (LENGTH_MEASURE( 1.000000000000000082E-05 ), #130, 'distance_accuracy_value', 'NONE');
#101 = AXIS2_PLACEMENT_3D ( 'NONE', #48, #153, #212 ) ;
#102 = FACE_OUTER_BOUND ( 'NONE', #105, .T. ) ;
#103 = ORIENTED_EDGE ( 'NONE', *, *, #78, .T. ) ;
#104 = AXIS2_PLACEMENT_3D ( 'NONE', #51, #211, #125 ) ;
#105 = EDGE_LOOP ( 'NONE', ( #25 ) ) ;
#106 = SURFACE_STYLE_FILL_AREA ( #5 ) ;
#107 = AXIS2_PLACEMENT_3D ( 'NONE', #188, #43, #96 ) ;
#108 = DIRECTION ( 'NONE',  ( 1.000000000000000000, 0.0000000000000000000, 0.0000000000000000000 ) ) ;
#109 = DIRECTION ( 'NONE',  ( 1.000000000000000000, 0.0000000000000000000, 0.0000000000000000000 ) ) ;
#110 = FACE_BOUND ( 'NONE', #131, .T. ) ;
#111 =( GEOMETRIC_REPRESENTATION_CONTEXT ( 3 ) GLOBAL_UNCERTAINTY_ASSIGNED_CONTEXT ( ( #100 ) ) GLOBAL_UNIT_ASSIGNED_CONTEXT ( ( #130, #150, #200 ) ) REPRESENTATION_CONTEXT ( 'NONE', 'WORKASPACE' ) );
#112 = PLANE ( 'NONE',  #79 ) ;
#113 = DIRECTION ( 'NONE',  ( 0.0000000000000000000, 0.0000000000000000000, 1.000000000000000000 ) ) ;
#114 = SURFACE_STYLE_FILL_AREA ( #23 ) ;
#115 = CLOSED_SHELL ( 'NONE', ( #148, #58, #37, #116, #56, #31, #126, #209 ) ) ;
#116 = ADVANCED_FACE ( 'NONE', ( #30, #176 ), #98, .F. ) ;
#117 = SURFACE_SIDE_STYLE ('',( #106 ) ) ;
#118 = EDGE_LOOP ( 'NONE', ( #190 ) ) ;
#119 = AXIS2_PLACEMENT_3D ( 'NONE', #50, #46, #76 ) ;
#120 = ORIENTED_EDGE ( 'NONE', *, *, #93, .F. ) ;
#121 = CARTESIAN_POINT ( 'NONE',  ( 0.0000000000000000000, 0.0000000000000000000, 0.0000000000000000000 ) ) ;
#122 = CARTESIAN_POINT ( 'NONE',  ( 0.0000000000000000000, 0.0000000000000000000, 15.30000000000000426 ) ) ;
#123 = FACE_OUTER_BOUND ( 'NONE', #26, .T. ) ;
#124 = DIRECTION ( 'NONE',  ( -0.0000000000000000000, -0.0000000000000000000, 1.000000000000000000 ) ) ;
#125 = DIRECTION ( 'NONE',  ( -1.000000000000000000, 0.0000000000000000000, 0.0000000000000000000 ) ) ;
#126 = ADVANCED_FACE ( 'NONE', ( #32, #180 ), #14, .T. ) ;
#127 = CARTESIAN_POINT ( 'NONE',  ( 4.099999999999999645, 0.0000000000000000000, 15.29999999999999716 ) ) ;
#128 = SHAPE_DEFINITION_REPRESENTATION ( #27, #173 ) ;
#129 = PRESENTATION_LAYER_ASSIGNMENT (  '', '', ( #145 ) ) ;
#130 =( LENGTH_UNIT ( ) NAMED_UNIT ( * ) SI_UNIT ( .MILLI., .METRE. ) );
#131 = EDGE_LOOP ( 'NONE', ( #24 ) ) ;
#132 = EDGE_LOOP ( 'NONE', ( #203 ) ) ;
#133 = ORIENTED_EDGE ( 'NONE', *, *, #164, .T. ) ;
#134 = CIRCLE ( 'NONE', #197, 4.300000000000001599 ) ;
#135 = CYLINDRICAL_SURFACE ( 'NONE', #166, 7.599999999999999645 ) ;
#136 = PRODUCT_DEFINITION ( 'UNKNOWN', '', #146, #187 ) ;
#137 = DIRECTION ( 'NONE',  ( 0.0000000000000000000, 0.0000000000000000000, -1.000000000000000000 ) ) ;
#138 = DIRECTION ( 'NONE',  ( 1.000000000000000000, 0.0000000000000000000, 0.0000000000000000000 ) ) ;
#139 = DIRECTION ( 'NONE',  ( 1.000000000000000000, 0.0000000000000000000, -0.0000000000000000000 ) ) ;
#140 = FACE_OUTER_BOUND ( 'NONE', #118, .T. ) ;
#141 = STYLED_ITEM ( 'NONE', ( #18 ), #173 ) ;
#142 = EDGE_CURVE ( 'NONE', #161, #161, #1, .T. ) ;
#143 = PRODUCT_CONTEXT ( 'NONE', #184, 'mechanical' ) ;
#144 = VERTEX_POINT ( 'NONE', #127 ) ;
#145 = STYLED_ITEM ( 'NONE', ( #7 ), #13 ) ;
#146 = PRODUCT_DEFINITION_FORMATION_WITH_SPECIFIED_SOURCE ( 'ANY', '', #6, .NOT_KNOWN. ) ;
#147 = FILL_AREA_STYLE_COLOUR ( '', #83 ) ;
#148 = ADVANCED_FACE ( 'NONE', ( #17, #140 ), #193, .T. ) ;
#149 = EDGE_LOOP ( 'NONE', ( #91 ) ) ;
#150 =( NAMED_UNIT ( * ) PLANE_ANGLE_UNIT ( ) SI_UNIT ( $, .RADIAN. ) );
#151 = AXIS2_PLACEMENT_3D ( 'NONE', #35, #97, #12 ) ;
#152 = DIRECTION ( 'NONE',  ( -1.000000000000000000, 0.0000000000000000000, 0.0000000000000000000 ) ) ;
#153 = DIRECTION ( 'NONE',  ( -0.0000000000000000000, -0.0000000000000000000, 1.000000000000000000 ) ) ;
#154 = CARTESIAN_POINT ( 'NONE',  ( 0.0000000000000000000, 0.0000000000000000000, 15.50000000000000000 ) ) ;
#155 = CONICAL_SURFACE ( 'NONE', #34, 4.099999999999999645, 0.7853981633974482790 ) ;
#156 = FACE_OUTER_BOUND ( 'NONE', #149, .T. ) ;
#157 = FACE_OUTER_BOUND ( 'NONE', #61, .T. ) ;
#158 = VERTEX_POINT ( 'NONE', #4 ) ;
#159 = AXIS2_PLACEMENT_3D ( 'NONE', #122, #137, #109 ) ;
#160 = FILL_AREA_STYLE_COLOUR ( '', #55 ) ;
#161 = VERTEX_POINT ( 'NONE', #85 ) ;
#162 = CONICAL_SURFACE ( 'NONE', #186, 4.299999999999998046, 0.7853981633974482790 ) ;
#163 = CARTESIAN_POINT ( 'NONE',  ( 7.599999999999999645, 0.0000000000000000000, 15.30000000000000426 ) ) ;
#164 = EDGE_CURVE ( 'NONE', #53, #53, #202, .T. ) ;
#165 = CARTESIAN_POINT ( 'NONE',  ( 0.0000000000000000000, 0.0000000000000000000, 15.29999999999999716 ) ) ;
#166 = AXIS2_PLACEMENT_3D ( 'NONE', #66, #205, #152 ) ;
#167 = ORIENTED_EDGE ( 'NONE', *, *, #201, .T. ) ;
#168 = EDGE_CURVE ( 'NONE', #144, #144, #178, .T. ) ;
#169 = EDGE_LOOP ( 'NONE', ( #167 ) ) ;
#170 = FACE_BOUND ( 'NONE', #9, .T. ) ;
#171 = MECHANICAL_DESIGN_GEOMETRIC_PRESENTATION_REPRESENTATION (  '', ( #141 ), #2 ) ;
#172 = EDGE_LOOP ( 'NONE', ( #29 ) ) ;
#173 = ADVANCED_BREP_SHAPE_REPRESENTATION ( 'PM.292', ( #13, #174 ), #28 ) ;
#174 = AXIS2_PLACEMENT_3D ( 'NONE', #183, #38, #86 ) ;
#175 = FACE_OUTER_BOUND ( 'NONE', #8, .T. ) ;
#176 = FACE_OUTER_BOUND ( 'NONE', #132, .T. ) ;
#177 = CARTESIAN_POINT ( 'NONE',  ( 0.0000000000000000000, 0.0000000000000000000, 0.2000000000000022593 ) ) ;
#178 = CIRCLE ( 'NONE', #22, 4.099999999999999645 ) ;
#179 = DIRECTION ( 'NONE',  ( 1.000000000000000000, 0.0000000000000000000, 0.0000000000000000000 ) ) ;
#180 = FACE_OUTER_BOUND ( 'NONE', #42, .T. ) ;
#181 = PRODUCT_RELATED_PRODUCT_CATEGORY ( 'part', '', ( #6 ) ) ;
#182 =( NAMED_UNIT ( * ) PLANE_ANGLE_UNIT ( ) SI_UNIT ( $, .RADIAN. ) );
#183 = CARTESIAN_POINT ( 'NONE',  ( 0.0000000000000000000, 0.0000000000000000000, 0.0000000000000000000 ) ) ;
#184 = APPLICATION_CONTEXT ( 'automotive_design' ) ;
#185 = VERTEX_POINT ( 'NONE', #99 ) ;
#186 = AXIS2_PLACEMENT_3D ( 'NONE', #194, #81, #63 ) ;
#187 = PRODUCT_DEFINITION_CONTEXT ( 'detailed design', #199, 'design' ) ;
#188 = CARTESIAN_POINT ( 'NONE',  ( 0.0000000000000000000, 0.0000000000000000000, 0.0000000000000000000 ) ) ;
#189 = CIRCLE ( 'NONE', #159, 7.599999999999999645 ) ;
#190 = ORIENTED_EDGE ( 'NONE', *, *, #142, .T. ) ;
#191 = EDGE_LOOP ( 'NONE', ( #133 ) ) ;
#192 = ORIENTED_EDGE ( 'NONE', *, *, #168, .F. ) ;
#193 = PLANE ( 'NONE',  #119 ) ;
#194 = CARTESIAN_POINT ( 'NONE',  ( 0.0000000000000000000, 0.0000000000000000000, 0.0000000000000000000 ) ) ;
#195 = FACE_BOUND ( 'NONE', #72, .T. ) ;
#196 = DIRECTION ( 'NONE',  ( 1.000000000000000000, 0.0000000000000000000, 0.0000000000000000000 ) ) ;
#197 = AXIS2_PLACEMENT_3D ( 'NONE', #210, #36, #82 ) ;
#198 = CARTESIAN_POINT ( 'NONE',  ( 0.0000000000000000000, 0.0000000000000000000, 0.0000000000000000000 ) ) ;
#199 = APPLICATION_CONTEXT ( 'automotive_design' ) ;
#200 =( NAMED_UNIT ( * ) SI_UNIT ( $, .STERADIAN. ) SOLID_ANGLE_UNIT ( ) );
#201 = EDGE_CURVE ( 'NONE', #20, #20, #134, .T. ) ;
#202 = CIRCLE ( 'NONE', #73, 4.099999999999999645 ) ;
#203 = ORIENTED_EDGE ( 'NONE', *, *, #168, .T. ) ;
#204 = EDGE_LOOP ( 'NONE', ( #90 ) ) ;
#205 = DIRECTION ( 'NONE',  ( -0.0000000000000000000, -0.0000000000000000000, -1.000000000000000000 ) ) ;
#206 = EDGE_CURVE ( 'NONE', #158, #158, #19, .T. ) ;
#207 = CIRCLE ( 'NONE', #107, 7.399999999999997691 ) ;
#208 = DIRECTION ( 'NONE',  ( -0.0000000000000000000, -0.0000000000000000000, -1.000000000000000000 ) ) ;
#209 = ADVANCED_FACE ( 'NONE', ( #64, #110 ), #40, .T. ) ;
#210 = CARTESIAN_POINT ( 'NONE',  ( 0.0000000000000000000, 0.0000000000000000000, 15.50000000000000000 ) ) ;
#211 = DIRECTION ( 'NONE',  ( -0.0000000000000000000, -0.0000000000000000000, -1.000000000000000000 ) ) ;
#212 = DIRECTION ( 'NONE',  ( 1.000000000000000000, 0.0000000000000000000, 0.0000000000000000000 ) ) ;
#213 =( LENGTH_UNIT ( ) NAMED_UNIT ( * ) SI_UNIT ( .MILLI., .METRE. ) );
#214 = SURFACE_STYLE_USAGE ( .BOTH. , #88 ) ;
ENDSEC;
END-ISO-10303-21;
