ISO-10303-21;
HEADER;
FILE_DESCRIPTION (( 'STEP AP214' ),
    '1' );
FILE_NAME ('PM.290.STEP',
    '2020-11-16T14:31:12',
    ( '' ),
    ( '' ),
    'SwSTEP 2.0',
    'SolidWorks 2020',
    '' );
FILE_SCHEMA (( 'AUTOMOTIVE_DESIGN' ));
ENDSEC;

DATA;
#1 = FILL_AREA_STYLE ('',( #140 ) ) ;
#2 = SURFACE_SIDE_STYLE ('',( #154 ) ) ;
#3 =( NAMED_UNIT ( * ) PLANE_ANGLE_UNIT ( ) SI_UNIT ( $, .RADIAN. ) );
#4 = PRODUCT ( 'PM.290', 'PM.290', '', ( #137 ) ) ;
#5 =( LENGTH_UNIT ( ) NAMED_UNIT ( * ) SI_UNIT ( .MILLI., .METRE. ) );
#6 = AXIS2_PLACEMENT_3D ( 'NONE', #122, #39, #107 ) ;
#7 =( NAMED_UNIT ( * ) SI_UNIT ( $, .STERADIAN. ) SOLID_ANGLE_UNIT ( ) );
#8 = EDGE_LOOP ( 'NONE', ( #68 ) ) ;
#9 = COLOUR_RGB ( '',0.6470588235294117974, 0.6196078431372549211, 0.5882352941176470784 ) ;
#10 = EDGE_LOOP ( 'NONE', ( #81 ) ) ;
#11 = DIRECTION ( 'NONE',  ( -1.000000000000000000, 0.0000000000000000000, 0.0000000000000000000 ) ) ;
#12 = CARTESIAN_POINT ( 'NONE',  ( 0.0000000000000000000, 0.0000000000000000000, -42.50000000000000000 ) ) ;
#13 = DIRECTION ( 'NONE',  ( 0.0000000000000000000, 0.0000000000000000000, 1.000000000000000000 ) ) ;
#14 = PLANE ( 'NONE',  #156 ) ;
#15 = STYLED_ITEM ( 'NONE', ( #118 ), #71 ) ;
#16 = PRODUCT_DEFINITION ( 'UNKNOWN', '', #123, #31 ) ;
#17 = EDGE_LOOP ( 'NONE', ( #43 ) ) ;
#18 = ORIENTED_EDGE ( 'NONE', *, *, #67, .T. ) ;
#19 = AXIS2_PLACEMENT_3D ( 'NONE', #20, #26, #70 ) ;
#20 = CARTESIAN_POINT ( 'NONE',  ( 0.0000000000000000000, 0.0000000000000000000, 30.50000000000000000 ) ) ;
#21 = MECHANICAL_DESIGN_GEOMETRIC_PRESENTATION_REPRESENTATION (  '', ( #15 ), #52 ) ;
#22 = DIRECTION ( 'NONE',  ( -0.0000000000000000000, -0.0000000000000000000, -1.000000000000000000 ) ) ;
#23 = DIRECTION ( 'NONE',  ( 1.000000000000000000, 0.0000000000000000000, 0.0000000000000000000 ) ) ;
#24 = AXIS2_PLACEMENT_3D ( 'NONE', #57, #49, #120 ) ;
#25 = DIRECTION ( 'NONE',  ( 1.000000000000000000, 0.0000000000000000000, -0.0000000000000000000 ) ) ;
#26 = DIRECTION ( 'NONE',  ( -0.0000000000000000000, -0.0000000000000000000, 1.000000000000000000 ) ) ;
#27 = PRESENTATION_STYLE_ASSIGNMENT (( #152 ) ) ;
#28 = PRESENTATION_LAYER_ASSIGNMENT (  '', '', ( #129 ) ) ;
#29 = DIRECTION ( 'NONE',  ( 1.000000000000000000, 0.0000000000000000000, 0.0000000000000000000 ) ) ;
#30 =( NAMED_UNIT ( * ) SI_UNIT ( $, .STERADIAN. ) SOLID_ANGLE_UNIT ( ) );
#31 = PRODUCT_DEFINITION_CONTEXT ( 'detailed design', #100, 'design' ) ;
#32 = CIRCLE ( 'NONE', #59, 4.000000000000000000 ) ;
#33 = EDGE_LOOP ( 'NONE', ( #83 ) ) ;
#34 = FILL_AREA_STYLE ('',( #158 ) ) ;
#35 = ORIENTED_EDGE ( 'NONE', *, *, #101, .T. ) ;
#36 = CARTESIAN_POINT ( 'NONE',  ( 0.0000000000000000000, 0.0000000000000000000, -42.50000000000000000 ) ) ;
#37 = CARTESIAN_POINT ( 'NONE',  ( 2.100000000000000089, 0.0000000000000000000, 42.50000000000000000 ) ) ;
#38 = VERTEX_POINT ( 'NONE', #58 ) ;
#39 = DIRECTION ( 'NONE',  ( 0.0000000000000000000, 0.0000000000000000000, 1.000000000000000000 ) ) ;
#40 =( GEOMETRIC_REPRESENTATION_CONTEXT ( 3 ) GLOBAL_UNCERTAINTY_ASSIGNED_CONTEXT ( ( #180 ) ) GLOBAL_UNIT_ASSIGNED_CONTEXT ( ( #80, #179, #94 ) ) REPRESENTATION_CONTEXT ( 'NONE', 'WORKASPACE' ) );
#41 = FACE_OUTER_BOUND ( 'NONE', #102, .T. ) ;
#42 = AXIS2_PLACEMENT_3D ( 'NONE', #132, #74, #148 ) ;
#43 = ORIENTED_EDGE ( 'NONE', *, *, #149, .T. ) ;
#44 = PRODUCT_DEFINITION_SHAPE ( 'NONE', 'NONE',  #16 ) ;
#45 = DIRECTION ( 'NONE',  ( 1.000000000000000000, 0.0000000000000000000, 0.0000000000000000000 ) ) ;
#46 = ORIENTED_EDGE ( 'NONE', *, *, #172, .F. ) ;
#47 = AXIS2_PLACEMENT_3D ( 'NONE', #130, #117, #45 ) ;
#48 = FACE_BOUND ( 'NONE', #84, .T. ) ;
#49 = DIRECTION ( 'NONE',  ( -0.0000000000000000000, -0.0000000000000000000, -1.000000000000000000 ) ) ;
#50 = CARTESIAN_POINT ( 'NONE',  ( 4.000000000000000000, 0.0000000000000000000, -42.50000000000000000 ) ) ;
#51 = VERTEX_POINT ( 'NONE', #50 ) ;
#52 =( GEOMETRIC_REPRESENTATION_CONTEXT ( 3 ) GLOBAL_UNCERTAINTY_ASSIGNED_CONTEXT ( ( #99 ) ) GLOBAL_UNIT_ASSIGNED_CONTEXT ( ( #5, #160, #7 ) ) REPRESENTATION_CONTEXT ( 'NONE', 'WORKASPACE' ) );
#53 = SURFACE_SIDE_STYLE ('',( #125 ) ) ;
#54 = ORIENTED_EDGE ( 'NONE', *, *, #76, .F. ) ;
#55 = DIRECTION ( 'NONE',  ( -0.0000000000000000000, -0.0000000000000000000, 1.000000000000000000 ) ) ;
#56 = CARTESIAN_POINT ( 'NONE',  ( 0.0000000000000000000, 0.0000000000000000000, -30.50000000000000000 ) ) ;
#57 = CARTESIAN_POINT ( 'NONE',  ( 0.0000000000000000000, 0.0000000000000000000, -30.50000000000000000 ) ) ;
#58 = CARTESIAN_POINT ( 'NONE',  ( -2.100000000000000089, 0.0000000000000000000, -30.50000000000000000 ) ) ;
#59 = AXIS2_PLACEMENT_3D ( 'NONE', #82, #13, #89 ) ;
#60 = DIRECTION ( 'NONE',  ( -0.0000000000000000000, -0.0000000000000000000, -1.000000000000000000 ) ) ;
#61 = CIRCLE ( 'NONE', #161, 2.100000000000000089 ) ;
#62 = EDGE_LOOP ( 'NONE', ( #171 ) ) ;
#63 = ORIENTED_EDGE ( 'NONE', *, *, #67, .F. ) ;
#64 = ORIENTED_EDGE ( 'NONE', *, *, #169, .F. ) ;
#65 = UNCERTAINTY_MEASURE_WITH_UNIT (LENGTH_MEASURE( 1.000000000000000082E-05 ), #78, 'distance_accuracy_value', 'NONE');
#66 = EDGE_LOOP ( 'NONE', ( #126 ) ) ;
#67 = EDGE_CURVE ( 'NONE', #177, #177, #92, .T. ) ;
#68 = ORIENTED_EDGE ( 'NONE', *, *, #76, .T. ) ;
#69 = AXIS2_PLACEMENT_3D ( 'NONE', #112, #55, #23 ) ;
#70 = DIRECTION ( 'NONE',  ( 1.000000000000000000, 0.0000000000000000000, 0.0000000000000000000 ) ) ;
#71 = MANIFOLD_SOLID_BREP ( 'Symétrie1', #113 ) ;
#72 = DIRECTION ( 'NONE',  ( -1.000000000000000000, 0.0000000000000000000, 0.0000000000000000000 ) ) ;
#73 = CYLINDRICAL_SURFACE ( 'NONE', #138, 4.000000000000000000 ) ;
#74 = DIRECTION ( 'NONE',  ( -0.0000000000000000000, -0.0000000000000000000, 1.000000000000000000 ) ) ;
#75 = FACE_OUTER_BOUND ( 'NONE', #8, .T. ) ;
#76 = EDGE_CURVE ( 'NONE', #133, #133, #61, .T. ) ;
#77 = CARTESIAN_POINT ( 'NONE',  ( 0.0000000000000000000, 0.0000000000000000000, 0.0000000000000000000 ) ) ;
#78 =( LENGTH_UNIT ( ) NAMED_UNIT ( * ) SI_UNIT ( .MILLI., .METRE. ) );
#79 = SHAPE_DEFINITION_REPRESENTATION ( #44, #115 ) ;
#80 =( LENGTH_UNIT ( ) NAMED_UNIT ( * ) SI_UNIT ( .MILLI., .METRE. ) );
#81 = ORIENTED_EDGE ( 'NONE', *, *, #101, .F. ) ;
#82 = CARTESIAN_POINT ( 'NONE',  ( 0.0000000000000000000, 0.0000000000000000000, -42.50000000000000000 ) ) ;
#83 = ORIENTED_EDGE ( 'NONE', *, *, #149, .F. ) ;
#84 = EDGE_LOOP ( 'NONE', ( #63 ) ) ;
#85 = DIRECTION ( 'NONE',  ( 0.0000000000000000000, 0.0000000000000000000, 1.000000000000000000 ) ) ;
#86 = CIRCLE ( 'NONE', #6, 4.000000000000000000 ) ;
#87 = FACE_OUTER_BOUND ( 'NONE', #62, .T. ) ;
#88 = CIRCLE ( 'NONE', #114, 2.100000000000000089 ) ;
#89 = DIRECTION ( 'NONE',  ( 1.000000000000000000, 0.0000000000000000000, 0.0000000000000000000 ) ) ;
#90 = CYLINDRICAL_SURFACE ( 'NONE', #69, 2.100000000000000089 ) ;
#91 = FACE_OUTER_BOUND ( 'NONE', #105, .T. ) ;
#92 = CIRCLE ( 'NONE', #47, 2.100000000000000089 ) ;
#93 = APPLICATION_CONTEXT ( 'automotive_design' ) ;
#94 =( NAMED_UNIT ( * ) SI_UNIT ( $, .STERADIAN. ) SOLID_ANGLE_UNIT ( ) );
#95 = DIRECTION ( 'NONE',  ( 0.0000000000000000000, 0.0000000000000000000, 1.000000000000000000 ) ) ;
#96 = CONICAL_SURFACE ( 'NONE', #19, 2.100000000000000089, 1.029744258676657642 ) ;
#97 = APPLICATION_PROTOCOL_DEFINITION ( 'draft international standard', 'automotive_design', 1998, #93 ) ;
#98 = AXIS2_PLACEMENT_3D ( 'NONE', #77, #95, #29 ) ;
#99 = UNCERTAINTY_MEASURE_WITH_UNIT (LENGTH_MEASURE( 1.000000000000000082E-05 ), #5, 'distance_accuracy_value', 'NONE');
#100 = APPLICATION_CONTEXT ( 'automotive_design' ) ;
#101 = EDGE_CURVE ( 'NONE', #51, #51, #32, .T. ) ;
#102 = EDGE_LOOP ( 'NONE', ( #35 ) ) ;
#103 = CONICAL_SURFACE ( 'NONE', #24, 2.100000000000000089, 1.029744258676657642 ) ;
#104 = ADVANCED_FACE ( 'NONE', ( #136, #168 ), #90, .F. ) ;
#105 = EDGE_LOOP ( 'NONE', ( #64 ) ) ;
#106 = FACE_BOUND ( 'NONE', #141, .T. ) ;
#107 = DIRECTION ( 'NONE',  ( 1.000000000000000000, 0.0000000000000000000, 0.0000000000000000000 ) ) ;
#108 = ADVANCED_FACE ( 'NONE', ( #48, #164 ), #14, .T. ) ;
#109 = CIRCLE ( 'NONE', #42, 2.100000000000000089 ) ;
#110 = VERTEX_POINT ( 'NONE', #165 ) ;
#111 = DIRECTION ( 'NONE',  ( -1.000000000000000000, 0.0000000000000000000, 0.0000000000000000000 ) ) ;
#112 = CARTESIAN_POINT ( 'NONE',  ( 0.0000000000000000000, 0.0000000000000000000, 42.50000000000000000 ) ) ;
#113 = CLOSED_SHELL ( 'NONE', ( #116, #108, #134, #104, #139, #153, #170 ) ) ;
#114 = AXIS2_PLACEMENT_3D ( 'NONE', #56, #22, #72 ) ;
#115 = ADVANCED_BREP_SHAPE_REPRESENTATION ( 'PM.290', ( #71, #98 ), #40 ) ;
#116 = ADVANCED_FACE ( 'NONE', ( #119, #41 ), #73, .T. ) ;
#117 = DIRECTION ( 'NONE',  ( -0.0000000000000000000, -0.0000000000000000000, 1.000000000000000000 ) ) ;
#118 = PRESENTATION_STYLE_ASSIGNMENT (( #142 ) ) ;
#119 = FACE_OUTER_BOUND ( 'NONE', #128, .T. ) ;
#120 = DIRECTION ( 'NONE',  ( -1.000000000000000000, 0.0000000000000000000, 0.0000000000000000000 ) ) ;
#121 = PLANE ( 'NONE',  #175 ) ;
#122 = CARTESIAN_POINT ( 'NONE',  ( 0.0000000000000000000, 0.0000000000000000000, 42.50000000000000000 ) ) ;
#123 = PRODUCT_DEFINITION_FORMATION_WITH_SPECIFIED_SOURCE ( 'ANY', '', #4, .NOT_KNOWN. ) ;
#124 = APPLICATION_PROTOCOL_DEFINITION ( 'draft international standard', 'automotive_design', 1998, #100 ) ;
#125 = SURFACE_STYLE_FILL_AREA ( #34 ) ;
#126 = ORIENTED_EDGE ( 'NONE', *, *, #172, .T. ) ;
#127 = DIRECTION ( 'NONE',  ( -1.000000000000000000, 0.0000000000000000000, 0.0000000000000000000 ) ) ;
#128 = EDGE_LOOP ( 'NONE', ( #46 ) ) ;
#129 = STYLED_ITEM ( 'NONE', ( #27 ), #115 ) ;
#130 = CARTESIAN_POINT ( 'NONE',  ( 0.0000000000000000000, 0.0000000000000000000, 42.50000000000000000 ) ) ;
#131 = DIRECTION ( 'NONE',  ( -0.0000000000000000000, -0.0000000000000000000, -1.000000000000000000 ) ) ;
#132 = CARTESIAN_POINT ( 'NONE',  ( 0.0000000000000000000, 0.0000000000000000000, 30.50000000000000000 ) ) ;
#133 = VERTEX_POINT ( 'NONE', #174 ) ;
#134 = ADVANCED_FACE ( 'NONE', ( #106, #163 ), #121, .F. ) ;
#135 = DIRECTION ( 'NONE',  ( 0.0000000000000000000, 0.0000000000000000000, 1.000000000000000000 ) ) ;
#136 = FACE_OUTER_BOUND ( 'NONE', #33, .T. ) ;
#137 = PRODUCT_CONTEXT ( 'NONE', #93, 'mechanical' ) ;
#138 = AXIS2_PLACEMENT_3D ( 'NONE', #147, #60, #111 ) ;
#139 = ADVANCED_FACE ( 'NONE', ( #166 ), #96, .F. ) ;
#140 = FILL_AREA_STYLE_COLOUR ( '', #9 ) ;
#141 = EDGE_LOOP ( 'NONE', ( #54 ) ) ;
#142 = SURFACE_STYLE_USAGE ( .BOTH. , #53 ) ;
#143 = EDGE_LOOP ( 'NONE', ( #18 ) ) ;
#144 = PRODUCT_RELATED_PRODUCT_CATEGORY ( 'part', '', ( #4 ) ) ;
#145 = DIRECTION ( 'NONE',  ( 1.000000000000000000, 0.0000000000000000000, -0.0000000000000000000 ) ) ;
#146 = COLOUR_RGB ( '',0.6470588235294117974, 0.6196078431372549211, 0.5882352941176470784 ) ;
#147 = CARTESIAN_POINT ( 'NONE',  ( 0.0000000000000000000, 0.0000000000000000000, 42.50000000000000000 ) ) ;
#148 = DIRECTION ( 'NONE',  ( 1.000000000000000000, 0.0000000000000000000, 0.0000000000000000000 ) ) ;
#149 = EDGE_CURVE ( 'NONE', #110, #110, #109, .T. ) ;
#150 = CARTESIAN_POINT ( 'NONE',  ( 4.000000000000000000, 0.0000000000000000000, 42.50000000000000000 ) ) ;
#151 = CYLINDRICAL_SURFACE ( 'NONE', #159, 2.100000000000000089 ) ;
#152 = SURFACE_STYLE_USAGE ( .BOTH. , #2 ) ;
#153 = ADVANCED_FACE ( 'NONE', ( #91, #75 ), #151, .F. ) ;
#154 = SURFACE_STYLE_FILL_AREA ( #1 ) ;
#155 = PRESENTATION_LAYER_ASSIGNMENT (  '', '', ( #15 ) ) ;
#156 = AXIS2_PLACEMENT_3D ( 'NONE', #173, #85, #145 ) ;
#157 = DIRECTION ( 'NONE',  ( -0.0000000000000000000, -0.0000000000000000000, -1.000000000000000000 ) ) ;
#158 = FILL_AREA_STYLE_COLOUR ( '', #146 ) ;
#159 = AXIS2_PLACEMENT_3D ( 'NONE', #12, #131, #11 ) ;
#160 =( NAMED_UNIT ( * ) PLANE_ANGLE_UNIT ( ) SI_UNIT ( $, .RADIAN. ) );
#161 = AXIS2_PLACEMENT_3D ( 'NONE', #162, #157, #127 ) ;
#162 = CARTESIAN_POINT ( 'NONE',  ( 0.0000000000000000000, 0.0000000000000000000, -42.50000000000000000 ) ) ;
#163 = FACE_OUTER_BOUND ( 'NONE', #10, .T. ) ;
#164 = FACE_OUTER_BOUND ( 'NONE', #66, .T. ) ;
#165 = CARTESIAN_POINT ( 'NONE',  ( 2.100000000000000089, 0.0000000000000000000, 30.50000000000000000 ) ) ;
#166 = FACE_OUTER_BOUND ( 'NONE', #17, .T. ) ;
#167 = MECHANICAL_DESIGN_GEOMETRIC_PRESENTATION_REPRESENTATION (  '', ( #129 ), #178 ) ;
#168 = FACE_OUTER_BOUND ( 'NONE', #143, .T. ) ;
#169 = EDGE_CURVE ( 'NONE', #38, #38, #88, .T. ) ;
#170 = ADVANCED_FACE ( 'NONE', ( #87 ), #103, .F. ) ;
#171 = ORIENTED_EDGE ( 'NONE', *, *, #169, .T. ) ;
#172 = EDGE_CURVE ( 'NONE', #176, #176, #86, .T. ) ;
#173 = CARTESIAN_POINT ( 'NONE',  ( 0.0000000000000000000, 0.0000000000000000000, 42.50000000000000000 ) ) ;
#174 = CARTESIAN_POINT ( 'NONE',  ( -2.100000000000000089, 0.0000000000000000000, -42.50000000000000000 ) ) ;
#175 = AXIS2_PLACEMENT_3D ( 'NONE', #36, #135, #25 ) ;
#176 = VERTEX_POINT ( 'NONE', #150 ) ;
#177 = VERTEX_POINT ( 'NONE', #37 ) ;
#178 =( GEOMETRIC_REPRESENTATION_CONTEXT ( 3 ) GLOBAL_UNCERTAINTY_ASSIGNED_CONTEXT ( ( #65 ) ) GLOBAL_UNIT_ASSIGNED_CONTEXT ( ( #78, #3, #30 ) ) REPRESENTATION_CONTEXT ( 'NONE', 'WORKASPACE' ) );
#179 =( NAMED_UNIT ( * ) PLANE_ANGLE_UNIT ( ) SI_UNIT ( $, .RADIAN. ) );
#180 = UNCERTAINTY_MEASURE_WITH_UNIT (LENGTH_MEASURE( 1.000000000000000082E-05 ), #80, 'distance_accuracy_value', 'NONE');
ENDSEC;
END-ISO-10303-21;
