  0
SECTION
  2
HEADER
  9
$ACADVER
  1
AC1009
  9
$INSBASE
 10
0.0
 20
0.0
 30
0.0
  9
$EXTMIN
 10
0.0
 20
0.0
 30
0.0
  9
$EXTMAX
 10
0.0
 20
0.0
 30
0.0
  0
ENDSEC
  0
SECTION
  2
TABLES
  0
TABLE
  2
VPORT
 70
0
  0
ENDTAB
  0
TABLE
  2
LTYPE
 70
1
  0
LTYPE
  2
CONTINUOUS
 70
0
  3
Solid line
 72
65
 73
0
 40
0.0
  0
ENDTAB
  0
TABLE
  2
LAYER
 70
1
  0
LAYER
  2
0
 70
64
 62
7
  6
continuous
  0
ENDTAB
  0
TABLE
  2
STYLE
 70
1
  0
STYLE
  2
STANDARD
 70
0
 40
0
 41
1.0
 50
0.0
 71
0
 42
1
 3
ARIAL.TTF
 4

  0
ENDTAB
  0
TABLE
  2
VIEW
 70
0
  0
ENDTAB
  0
ENDSEC
  0
SECTION
  2
BLOCKS
  0
BLOCK
  8
0
  2
FILLET006
 70
0
 10
0.0
 20
0.0
 30
0.0
  3
FILLET006
  0
LINE
  8
0
 62
0
 10
103.46595696
 20
72.6162038453
 30
0.0
 11
91.5576360976
 21
60.7078713086
 31
0.0
  0
ARC
  8
0
 62
0
 10
77.4154935415
 20
74.85
 30
0.0
 40
20.0
 50
-90.0
 51
-44.999971914
  0
LINE
  8
0
 62
0
 10
77.4154935415
 20
54.85
 30
0.0
 11
69.1872385187
 21
54.85
 31
0.0
  0
LINE
  8
0
 62
0
 10
86.3149929247
 20
65.3647227852
 30
0.0
 11
98.5162067024
 21
77.5659485248
 31
0.0
  0
ARC
  8
0
 62
0
 10
77.8297073911
 20
73.85
 30
0.0
 40
12.0
 50
-90.0
 51
-44.999971914
  0
LINE
  8
0
 62
0
 10
69.1872362619
 20
61.85
 30
0.0
 11
77.8297073911
 21
61.85
 31
0.0
  0
ARC
  8
0
 62
0
 10
104.880171215
 20
71.2019909762
 30
0.0
 40
2.0
 50
81.4837678176
 51
135.000028086
  0
ARC
  8
0
 62
0
 10
106.25
 20
80.35
 30
0.0
 40
7.25
 50
0.0
 51
-171.483706305
  0
ARC
  8
0
 62
0
 10
97.1019924468
 20
78.9801613939
 30
0.0
 40
2.0
 50
-44.999971914
 51
8.5162936949
  0
ARC
  8
0
 62
0
 10
106.25
 20
80.35
 30
0.0
 40
7.25
 50
-98.5162321824
 51
-0.0
  0
ARC
  8
0
 62
0
 10
106.25
 20
80.35
 30
0.0
 40
4.5
 50
-0.0
 51
173.942476376
  0
ARC
  8
0
 62
0
 10
106.25
 20
80.35
 30
0.0
 40
4.5
 50
173.942476376
 51
-83.9424061615
  0
ARC
  8
0
 62
0
 10
106.25
 20
80.35
 30
0.0
 40
4.5
 50
-83.9424061615
 51
-0.0
  0
ARC
  8
0
 62
0
 10
69.1872385187
 20
52.85
 30
0.0
 40
2.0
 50
90.0
 51
143.516274694
  0
ARC
  8
0
 62
0
 10
61.75
 20
58.3499984741
 30
0.0
 40
7.25
 50
36.4837488166
 51
-36.4837253061
  0
ARC
  8
0
 62
0
 10
69.1872362619
 20
63.85
 30
0.0
 40
2.0
 50
-143.516251183
 51
-90.0
  0
ARC
  8
0
 62
0
 10
61.75
 20
58.35
 30
0.0
 40
3.0
 50
-0.0
 51
90.0
  0
ARC
  8
0
 62
0
 10
61.75
 20
58.35
 30
0.0
 40
3.0
 50
90.0
 51
-90.0
  0
ARC
  8
0
 62
0
 10
61.75
 20
58.35
 30
0.0
 40
3.0
 50
-90.0
 51
0.0
  0
ENDBLK
  0
ENDSEC
  0
SECTION
  2
ENTITIES
  0
INSERT
  2
FILLET006
  8
0
 10
0.0
 20
0.0
 30
0.0
  0
ENDSEC
  0
EOF
