ISO-10303-21;
HEADER;
/* Generated by software containing ST-Developer
 * from STEP Tools, Inc. (www.steptools.com) 
 */

FILE_DESCRIPTION(
/* description */ (''),
/* implementation_level */ '2;1');

FILE_NAME(
/* name */ '/Users/Bruno/Downloads/axe Y 2 v2.step',
/* time_stamp */ '2020-10-20T23:37:47+02:00',
/* author */ (''),
/* organization */ (''),
/* preprocessor_version */ 'ST-DEVELOPER v18.1',
/* originating_system */ 'Autodesk Translation Framework v9.3.0.1241',
/* authorisation */ '');

FILE_SCHEMA (('AUTOMOTIVE_DESIGN { 1 0 10303 214 3 1 1 }'));
ENDSEC;

DATA;
#10=MECHANICAL_DESIGN_GEOMETRIC_PRESENTATION_REPRESENTATION('',(#13),#624);
#11=SHAPE_REPRESENTATION_RELATIONSHIP('SRR','None',#631,#12);
#12=ADVANCED_BREP_SHAPE_REPRESENTATION('',(#14),#623);
#13=STYLED_ITEM('',(#640),#14);
#14=MANIFOLD_SOLID_BREP('Corps2',#364);
#15=FACE_BOUND('',#64,.T.);
#16=FACE_BOUND('',#67,.T.);
#17=FACE_BOUND('',#70,.T.);
#18=FACE_BOUND('',#73,.T.);
#19=FACE_BOUND('',#83,.T.);
#20=FACE_BOUND('',#84,.T.);
#21=FACE_BOUND('',#85,.T.);
#22=FACE_BOUND('',#86,.T.);
#23=FACE_BOUND('',#87,.T.);
#24=FACE_BOUND('',#90,.T.);
#25=FACE_BOUND('',#91,.T.);
#26=FACE_BOUND('',#92,.T.);
#27=FACE_BOUND('',#93,.T.);
#28=FACE_BOUND('',#94,.T.);
#29=PLANE('',#381);
#30=PLANE('',#386);
#31=PLANE('',#391);
#32=PLANE('',#396);
#33=PLANE('',#409);
#34=PLANE('',#410);
#35=PLANE('',#411);
#36=PLANE('',#412);
#37=PLANE('',#413);
#38=PLANE('',#414);
#39=PLANE('',#415);
#40=PLANE('',#416);
#41=FACE_OUTER_BOUND('',#62,.T.);
#42=FACE_OUTER_BOUND('',#63,.T.);
#43=FACE_OUTER_BOUND('',#65,.T.);
#44=FACE_OUTER_BOUND('',#66,.T.);
#45=FACE_OUTER_BOUND('',#68,.T.);
#46=FACE_OUTER_BOUND('',#69,.T.);
#47=FACE_OUTER_BOUND('',#71,.T.);
#48=FACE_OUTER_BOUND('',#72,.T.);
#49=FACE_OUTER_BOUND('',#74,.T.);
#50=FACE_OUTER_BOUND('',#75,.T.);
#51=FACE_OUTER_BOUND('',#76,.T.);
#52=FACE_OUTER_BOUND('',#77,.T.);
#53=FACE_OUTER_BOUND('',#78,.T.);
#54=FACE_OUTER_BOUND('',#79,.T.);
#55=FACE_OUTER_BOUND('',#80,.T.);
#56=FACE_OUTER_BOUND('',#81,.T.);
#57=FACE_OUTER_BOUND('',#82,.T.);
#58=FACE_OUTER_BOUND('',#88,.T.);
#59=FACE_OUTER_BOUND('',#89,.T.);
#60=FACE_OUTER_BOUND('',#95,.T.);
#61=FACE_OUTER_BOUND('',#96,.T.);
#62=EDGE_LOOP('',(#244,#245,#246,#247));
#63=EDGE_LOOP('',(#248));
#64=EDGE_LOOP('',(#249));
#65=EDGE_LOOP('',(#250,#251,#252,#253));
#66=EDGE_LOOP('',(#254));
#67=EDGE_LOOP('',(#255));
#68=EDGE_LOOP('',(#256,#257,#258,#259));
#69=EDGE_LOOP('',(#260));
#70=EDGE_LOOP('',(#261));
#71=EDGE_LOOP('',(#262,#263,#264,#265));
#72=EDGE_LOOP('',(#266));
#73=EDGE_LOOP('',(#267));
#74=EDGE_LOOP('',(#268,#269,#270,#271));
#75=EDGE_LOOP('',(#272,#273,#274,#275));
#76=EDGE_LOOP('',(#276,#277,#278,#279));
#77=EDGE_LOOP('',(#280,#281,#282,#283));
#78=EDGE_LOOP('',(#284,#285,#286,#287));
#79=EDGE_LOOP('',(#288,#289,#290,#291));
#80=EDGE_LOOP('',(#292,#293,#294,#295));
#81=EDGE_LOOP('',(#296,#297,#298,#299));
#82=EDGE_LOOP('',(#300,#301,#302,#303));
#83=EDGE_LOOP('',(#304));
#84=EDGE_LOOP('',(#305));
#85=EDGE_LOOP('',(#306));
#86=EDGE_LOOP('',(#307));
#87=EDGE_LOOP('',(#308));
#88=EDGE_LOOP('',(#309,#310,#311,#312));
#89=EDGE_LOOP('',(#313,#314,#315,#316));
#90=EDGE_LOOP('',(#317));
#91=EDGE_LOOP('',(#318));
#92=EDGE_LOOP('',(#319));
#93=EDGE_LOOP('',(#320));
#94=EDGE_LOOP('',(#321));
#95=EDGE_LOOP('',(#322,#323,#324,#325,#326,#327));
#96=EDGE_LOOP('',(#328,#329,#330,#331,#332,#333));
#97=LINE('',#529,#124);
#98=LINE('',#538,#125);
#99=LINE('',#547,#126);
#100=LINE('',#556,#127);
#101=LINE('',#564,#128);
#102=LINE('',#568,#129);
#103=LINE('',#572,#130);
#104=LINE('',#576,#131);
#105=LINE('',#581,#132);
#106=LINE('',#586,#133);
#107=LINE('',#588,#134);
#108=LINE('',#590,#135);
#109=LINE('',#591,#136);
#110=LINE('',#594,#137);
#111=LINE('',#596,#138);
#112=LINE('',#597,#139);
#113=LINE('',#600,#140);
#114=LINE('',#602,#141);
#115=LINE('',#603,#142);
#116=LINE('',#606,#143);
#117=LINE('',#608,#144);
#118=LINE('',#609,#145);
#119=LINE('',#612,#146);
#120=LINE('',#614,#147);
#121=LINE('',#615,#148);
#122=LINE('',#617,#149);
#123=LINE('',#618,#150);
#124=VECTOR('',#423,5.5);
#125=VECTOR('',#434,5.5);
#126=VECTOR('',#445,5.5);
#127=VECTOR('',#456,5.5);
#128=VECTOR('',#467,3.);
#129=VECTOR('',#472,3.);
#130=VECTOR('',#477,3.);
#131=VECTOR('',#482,3.);
#132=VECTOR('',#487,12.5);
#133=VECTOR('',#492,10.);
#134=VECTOR('',#493,10.);
#135=VECTOR('',#494,10.);
#136=VECTOR('',#495,10.);
#137=VECTOR('',#498,10.);
#138=VECTOR('',#499,10.);
#139=VECTOR('',#500,10.);
#140=VECTOR('',#503,10.);
#141=VECTOR('',#504,10.);
#142=VECTOR('',#505,10.);
#143=VECTOR('',#508,10.);
#144=VECTOR('',#509,10.);
#145=VECTOR('',#510,10.);
#146=VECTOR('',#513,10.);
#147=VECTOR('',#514,10.);
#148=VECTOR('',#515,10.);
#149=VECTOR('',#518,10.);
#150=VECTOR('',#519,10.);
#151=CIRCLE('',#379,5.5);
#152=CIRCLE('',#380,5.5);
#153=CIRCLE('',#382,3.);
#154=CIRCLE('',#384,5.5);
#155=CIRCLE('',#385,5.5);
#156=CIRCLE('',#387,3.);
#157=CIRCLE('',#389,5.5);
#158=CIRCLE('',#390,5.5);
#159=CIRCLE('',#392,3.);
#160=CIRCLE('',#394,5.5);
#161=CIRCLE('',#395,5.5);
#162=CIRCLE('',#397,3.);
#163=CIRCLE('',#399,3.);
#164=CIRCLE('',#401,3.);
#165=CIRCLE('',#403,3.);
#166=CIRCLE('',#405,3.);
#167=CIRCLE('',#407,12.5);
#168=CIRCLE('',#408,12.5);
#169=VERTEX_POINT('',#526);
#170=VERTEX_POINT('',#528);
#171=VERTEX_POINT('',#532);
#172=VERTEX_POINT('',#535);
#173=VERTEX_POINT('',#537);
#174=VERTEX_POINT('',#541);
#175=VERTEX_POINT('',#544);
#176=VERTEX_POINT('',#546);
#177=VERTEX_POINT('',#550);
#178=VERTEX_POINT('',#553);
#179=VERTEX_POINT('',#555);
#180=VERTEX_POINT('',#559);
#181=VERTEX_POINT('',#562);
#182=VERTEX_POINT('',#566);
#183=VERTEX_POINT('',#570);
#184=VERTEX_POINT('',#574);
#185=VERTEX_POINT('',#578);
#186=VERTEX_POINT('',#580);
#187=VERTEX_POINT('',#584);
#188=VERTEX_POINT('',#585);
#189=VERTEX_POINT('',#587);
#190=VERTEX_POINT('',#589);
#191=VERTEX_POINT('',#593);
#192=VERTEX_POINT('',#595);
#193=VERTEX_POINT('',#599);
#194=VERTEX_POINT('',#601);
#195=VERTEX_POINT('',#605);
#196=VERTEX_POINT('',#607);
#197=VERTEX_POINT('',#611);
#198=VERTEX_POINT('',#613);
#199=EDGE_CURVE('',#169,#169,#151,.T.);
#200=EDGE_CURVE('',#169,#170,#97,.T.);
#201=EDGE_CURVE('',#170,#170,#152,.T.);
#202=EDGE_CURVE('',#171,#171,#153,.T.);
#203=EDGE_CURVE('',#172,#172,#154,.T.);
#204=EDGE_CURVE('',#172,#173,#98,.T.);
#205=EDGE_CURVE('',#173,#173,#155,.T.);
#206=EDGE_CURVE('',#174,#174,#156,.T.);
#207=EDGE_CURVE('',#175,#175,#157,.T.);
#208=EDGE_CURVE('',#175,#176,#99,.T.);
#209=EDGE_CURVE('',#176,#176,#158,.T.);
#210=EDGE_CURVE('',#177,#177,#159,.T.);
#211=EDGE_CURVE('',#178,#178,#160,.T.);
#212=EDGE_CURVE('',#178,#179,#100,.T.);
#213=EDGE_CURVE('',#179,#179,#161,.T.);
#214=EDGE_CURVE('',#180,#180,#162,.T.);
#215=EDGE_CURVE('',#181,#181,#163,.T.);
#216=EDGE_CURVE('',#181,#174,#101,.T.);
#217=EDGE_CURVE('',#182,#182,#164,.T.);
#218=EDGE_CURVE('',#182,#171,#102,.T.);
#219=EDGE_CURVE('',#183,#183,#165,.T.);
#220=EDGE_CURVE('',#183,#180,#103,.T.);
#221=EDGE_CURVE('',#184,#184,#166,.T.);
#222=EDGE_CURVE('',#184,#177,#104,.T.);
#223=EDGE_CURVE('',#185,#185,#167,.T.);
#224=EDGE_CURVE('',#185,#186,#105,.T.);
#225=EDGE_CURVE('',#186,#186,#168,.T.);
#226=EDGE_CURVE('',#187,#188,#106,.T.);
#227=EDGE_CURVE('',#187,#189,#107,.T.);
#228=EDGE_CURVE('',#190,#189,#108,.T.);
#229=EDGE_CURVE('',#188,#190,#109,.T.);
#230=EDGE_CURVE('',#188,#191,#110,.T.);
#231=EDGE_CURVE('',#192,#190,#111,.T.);
#232=EDGE_CURVE('',#191,#192,#112,.T.);
#233=EDGE_CURVE('',#193,#191,#113,.T.);
#234=EDGE_CURVE('',#194,#192,#114,.T.);
#235=EDGE_CURVE('',#193,#194,#115,.T.);
#236=EDGE_CURVE('',#195,#193,#116,.T.);
#237=EDGE_CURVE('',#196,#194,#117,.T.);
#238=EDGE_CURVE('',#195,#196,#118,.T.);
#239=EDGE_CURVE('',#197,#195,#119,.T.);
#240=EDGE_CURVE('',#198,#196,#120,.T.);
#241=EDGE_CURVE('',#197,#198,#121,.T.);
#242=EDGE_CURVE('',#187,#197,#122,.T.);
#243=EDGE_CURVE('',#189,#198,#123,.T.);
#244=ORIENTED_EDGE('',*,*,#199,.F.);
#245=ORIENTED_EDGE('',*,*,#200,.T.);
#246=ORIENTED_EDGE('',*,*,#201,.T.);
#247=ORIENTED_EDGE('',*,*,#200,.F.);
#248=ORIENTED_EDGE('',*,*,#201,.F.);
#249=ORIENTED_EDGE('',*,*,#202,.F.);
#250=ORIENTED_EDGE('',*,*,#203,.F.);
#251=ORIENTED_EDGE('',*,*,#204,.T.);
#252=ORIENTED_EDGE('',*,*,#205,.T.);
#253=ORIENTED_EDGE('',*,*,#204,.F.);
#254=ORIENTED_EDGE('',*,*,#205,.F.);
#255=ORIENTED_EDGE('',*,*,#206,.F.);
#256=ORIENTED_EDGE('',*,*,#207,.F.);
#257=ORIENTED_EDGE('',*,*,#208,.T.);
#258=ORIENTED_EDGE('',*,*,#209,.T.);
#259=ORIENTED_EDGE('',*,*,#208,.F.);
#260=ORIENTED_EDGE('',*,*,#209,.F.);
#261=ORIENTED_EDGE('',*,*,#210,.F.);
#262=ORIENTED_EDGE('',*,*,#211,.F.);
#263=ORIENTED_EDGE('',*,*,#212,.T.);
#264=ORIENTED_EDGE('',*,*,#213,.T.);
#265=ORIENTED_EDGE('',*,*,#212,.F.);
#266=ORIENTED_EDGE('',*,*,#213,.F.);
#267=ORIENTED_EDGE('',*,*,#214,.F.);
#268=ORIENTED_EDGE('',*,*,#215,.F.);
#269=ORIENTED_EDGE('',*,*,#216,.T.);
#270=ORIENTED_EDGE('',*,*,#206,.T.);
#271=ORIENTED_EDGE('',*,*,#216,.F.);
#272=ORIENTED_EDGE('',*,*,#217,.F.);
#273=ORIENTED_EDGE('',*,*,#218,.T.);
#274=ORIENTED_EDGE('',*,*,#202,.T.);
#275=ORIENTED_EDGE('',*,*,#218,.F.);
#276=ORIENTED_EDGE('',*,*,#219,.F.);
#277=ORIENTED_EDGE('',*,*,#220,.T.);
#278=ORIENTED_EDGE('',*,*,#214,.T.);
#279=ORIENTED_EDGE('',*,*,#220,.F.);
#280=ORIENTED_EDGE('',*,*,#221,.F.);
#281=ORIENTED_EDGE('',*,*,#222,.T.);
#282=ORIENTED_EDGE('',*,*,#210,.T.);
#283=ORIENTED_EDGE('',*,*,#222,.F.);
#284=ORIENTED_EDGE('',*,*,#223,.F.);
#285=ORIENTED_EDGE('',*,*,#224,.T.);
#286=ORIENTED_EDGE('',*,*,#225,.F.);
#287=ORIENTED_EDGE('',*,*,#224,.F.);
#288=ORIENTED_EDGE('',*,*,#226,.F.);
#289=ORIENTED_EDGE('',*,*,#227,.T.);
#290=ORIENTED_EDGE('',*,*,#228,.F.);
#291=ORIENTED_EDGE('',*,*,#229,.F.);
#292=ORIENTED_EDGE('',*,*,#230,.F.);
#293=ORIENTED_EDGE('',*,*,#229,.T.);
#294=ORIENTED_EDGE('',*,*,#231,.F.);
#295=ORIENTED_EDGE('',*,*,#232,.F.);
#296=ORIENTED_EDGE('',*,*,#233,.T.);
#297=ORIENTED_EDGE('',*,*,#232,.T.);
#298=ORIENTED_EDGE('',*,*,#234,.F.);
#299=ORIENTED_EDGE('',*,*,#235,.F.);
#300=ORIENTED_EDGE('',*,*,#236,.T.);
#301=ORIENTED_EDGE('',*,*,#235,.T.);
#302=ORIENTED_EDGE('',*,*,#237,.F.);
#303=ORIENTED_EDGE('',*,*,#238,.F.);
#304=ORIENTED_EDGE('',*,*,#215,.T.);
#305=ORIENTED_EDGE('',*,*,#217,.T.);
#306=ORIENTED_EDGE('',*,*,#219,.T.);
#307=ORIENTED_EDGE('',*,*,#221,.T.);
#308=ORIENTED_EDGE('',*,*,#223,.T.);
#309=ORIENTED_EDGE('',*,*,#239,.T.);
#310=ORIENTED_EDGE('',*,*,#238,.T.);
#311=ORIENTED_EDGE('',*,*,#240,.F.);
#312=ORIENTED_EDGE('',*,*,#241,.F.);
#313=ORIENTED_EDGE('',*,*,#242,.T.);
#314=ORIENTED_EDGE('',*,*,#241,.T.);
#315=ORIENTED_EDGE('',*,*,#243,.F.);
#316=ORIENTED_EDGE('',*,*,#227,.F.);
#317=ORIENTED_EDGE('',*,*,#199,.T.);
#318=ORIENTED_EDGE('',*,*,#203,.T.);
#319=ORIENTED_EDGE('',*,*,#207,.T.);
#320=ORIENTED_EDGE('',*,*,#211,.T.);
#321=ORIENTED_EDGE('',*,*,#225,.T.);
#322=ORIENTED_EDGE('',*,*,#243,.T.);
#323=ORIENTED_EDGE('',*,*,#240,.T.);
#324=ORIENTED_EDGE('',*,*,#237,.T.);
#325=ORIENTED_EDGE('',*,*,#234,.T.);
#326=ORIENTED_EDGE('',*,*,#231,.T.);
#327=ORIENTED_EDGE('',*,*,#228,.T.);
#328=ORIENTED_EDGE('',*,*,#242,.F.);
#329=ORIENTED_EDGE('',*,*,#226,.T.);
#330=ORIENTED_EDGE('',*,*,#230,.T.);
#331=ORIENTED_EDGE('',*,*,#233,.F.);
#332=ORIENTED_EDGE('',*,*,#236,.F.);
#333=ORIENTED_EDGE('',*,*,#239,.F.);
#334=CYLINDRICAL_SURFACE('',#378,5.5);
#335=CYLINDRICAL_SURFACE('',#383,5.5);
#336=CYLINDRICAL_SURFACE('',#388,5.5);
#337=CYLINDRICAL_SURFACE('',#393,5.5);
#338=CYLINDRICAL_SURFACE('',#398,3.);
#339=CYLINDRICAL_SURFACE('',#400,3.);
#340=CYLINDRICAL_SURFACE('',#402,3.);
#341=CYLINDRICAL_SURFACE('',#404,3.);
#342=CYLINDRICAL_SURFACE('',#406,12.5);
#343=ADVANCED_FACE('',(#41),#334,.F.);
#344=ADVANCED_FACE('',(#42,#15),#29,.F.);
#345=ADVANCED_FACE('',(#43),#335,.F.);
#346=ADVANCED_FACE('',(#44,#16),#30,.F.);
#347=ADVANCED_FACE('',(#45),#336,.F.);
#348=ADVANCED_FACE('',(#46,#17),#31,.F.);
#349=ADVANCED_FACE('',(#47),#337,.F.);
#350=ADVANCED_FACE('',(#48,#18),#32,.F.);
#351=ADVANCED_FACE('',(#49),#338,.F.);
#352=ADVANCED_FACE('',(#50),#339,.F.);
#353=ADVANCED_FACE('',(#51),#340,.F.);
#354=ADVANCED_FACE('',(#52),#341,.F.);
#355=ADVANCED_FACE('',(#53),#342,.F.);
#356=ADVANCED_FACE('',(#54),#33,.T.);
#357=ADVANCED_FACE('',(#55),#34,.T.);
#358=ADVANCED_FACE('',(#56),#35,.T.);
#359=ADVANCED_FACE('',(#57,#19,#20,#21,#22,#23),#36,.T.);
#360=ADVANCED_FACE('',(#58),#37,.T.);
#361=ADVANCED_FACE('',(#59,#24,#25,#26,#27,#28),#38,.T.);
#362=ADVANCED_FACE('',(#60),#39,.T.);
#363=ADVANCED_FACE('',(#61),#40,.F.);
#364=CLOSED_SHELL('',(#343,#344,#345,#346,#347,#348,#349,#350,#351,#352,
#353,#354,#355,#356,#357,#358,#359,#360,#361,#362,#363));
#365=DERIVED_UNIT_ELEMENT(#367,1.);
#366=DERIVED_UNIT_ELEMENT(#626,3.);
#367=(
MASS_UNIT()
NAMED_UNIT(*)
SI_UNIT(.KILO.,.GRAM.)
);
#368=DERIVED_UNIT((#365,#366));
#369=MEASURE_REPRESENTATION_ITEM('density measure',
POSITIVE_RATIO_MEASURE(7850.),#368);
#370=PROPERTY_DEFINITION_REPRESENTATION(#375,#372);
#371=PROPERTY_DEFINITION_REPRESENTATION(#376,#373);
#372=REPRESENTATION('material name',(#374),#623);
#373=REPRESENTATION('density',(#369),#623);
#374=DESCRIPTIVE_REPRESENTATION_ITEM('Acier','Acier');
#375=PROPERTY_DEFINITION('material property','material name',#633);
#376=PROPERTY_DEFINITION('material property','density of part',#633);
#377=AXIS2_PLACEMENT_3D('placement',#524,#417,#418);
#378=AXIS2_PLACEMENT_3D('',#525,#419,#420);
#379=AXIS2_PLACEMENT_3D('',#527,#421,#422);
#380=AXIS2_PLACEMENT_3D('',#530,#424,#425);
#381=AXIS2_PLACEMENT_3D('',#531,#426,#427);
#382=AXIS2_PLACEMENT_3D('',#533,#428,#429);
#383=AXIS2_PLACEMENT_3D('',#534,#430,#431);
#384=AXIS2_PLACEMENT_3D('',#536,#432,#433);
#385=AXIS2_PLACEMENT_3D('',#539,#435,#436);
#386=AXIS2_PLACEMENT_3D('',#540,#437,#438);
#387=AXIS2_PLACEMENT_3D('',#542,#439,#440);
#388=AXIS2_PLACEMENT_3D('',#543,#441,#442);
#389=AXIS2_PLACEMENT_3D('',#545,#443,#444);
#390=AXIS2_PLACEMENT_3D('',#548,#446,#447);
#391=AXIS2_PLACEMENT_3D('',#549,#448,#449);
#392=AXIS2_PLACEMENT_3D('',#551,#450,#451);
#393=AXIS2_PLACEMENT_3D('',#552,#452,#453);
#394=AXIS2_PLACEMENT_3D('',#554,#454,#455);
#395=AXIS2_PLACEMENT_3D('',#557,#457,#458);
#396=AXIS2_PLACEMENT_3D('',#558,#459,#460);
#397=AXIS2_PLACEMENT_3D('',#560,#461,#462);
#398=AXIS2_PLACEMENT_3D('',#561,#463,#464);
#399=AXIS2_PLACEMENT_3D('',#563,#465,#466);
#400=AXIS2_PLACEMENT_3D('',#565,#468,#469);
#401=AXIS2_PLACEMENT_3D('',#567,#470,#471);
#402=AXIS2_PLACEMENT_3D('',#569,#473,#474);
#403=AXIS2_PLACEMENT_3D('',#571,#475,#476);
#404=AXIS2_PLACEMENT_3D('',#573,#478,#479);
#405=AXIS2_PLACEMENT_3D('',#575,#480,#481);
#406=AXIS2_PLACEMENT_3D('',#577,#483,#484);
#407=AXIS2_PLACEMENT_3D('',#579,#485,#486);
#408=AXIS2_PLACEMENT_3D('',#582,#488,#489);
#409=AXIS2_PLACEMENT_3D('',#583,#490,#491);
#410=AXIS2_PLACEMENT_3D('',#592,#496,#497);
#411=AXIS2_PLACEMENT_3D('',#598,#501,#502);
#412=AXIS2_PLACEMENT_3D('',#604,#506,#507);
#413=AXIS2_PLACEMENT_3D('',#610,#511,#512);
#414=AXIS2_PLACEMENT_3D('',#616,#516,#517);
#415=AXIS2_PLACEMENT_3D('',#619,#520,#521);
#416=AXIS2_PLACEMENT_3D('',#620,#522,#523);
#417=DIRECTION('axis',(0.,0.,1.));
#418=DIRECTION('refdir',(1.,0.,0.));
#419=DIRECTION('center_axis',(0.,0.,1.));
#420=DIRECTION('ref_axis',(-1.,0.,0.));
#421=DIRECTION('center_axis',(0.,0.,1.));
#422=DIRECTION('ref_axis',(-1.,0.,0.));
#423=DIRECTION('',(0.,0.,1.));
#424=DIRECTION('center_axis',(0.,0.,1.));
#425=DIRECTION('ref_axis',(-1.,0.,0.));
#426=DIRECTION('center_axis',(0.,0.,1.));
#427=DIRECTION('ref_axis',(-1.,0.,0.));
#428=DIRECTION('center_axis',(0.,0.,-1.));
#429=DIRECTION('ref_axis',(1.,0.,0.));
#430=DIRECTION('center_axis',(0.,0.,1.));
#431=DIRECTION('ref_axis',(-1.,0.,0.));
#432=DIRECTION('center_axis',(0.,0.,1.));
#433=DIRECTION('ref_axis',(-1.,0.,0.));
#434=DIRECTION('',(0.,0.,1.));
#435=DIRECTION('center_axis',(0.,0.,1.));
#436=DIRECTION('ref_axis',(-1.,0.,0.));
#437=DIRECTION('center_axis',(0.,0.,1.));
#438=DIRECTION('ref_axis',(-1.,0.,0.));
#439=DIRECTION('center_axis',(0.,0.,-1.));
#440=DIRECTION('ref_axis',(1.,0.,0.));
#441=DIRECTION('center_axis',(0.,0.,1.));
#442=DIRECTION('ref_axis',(-1.,0.,0.));
#443=DIRECTION('center_axis',(0.,0.,1.));
#444=DIRECTION('ref_axis',(-1.,0.,0.));
#445=DIRECTION('',(0.,0.,1.));
#446=DIRECTION('center_axis',(0.,0.,1.));
#447=DIRECTION('ref_axis',(-1.,0.,0.));
#448=DIRECTION('center_axis',(0.,0.,1.));
#449=DIRECTION('ref_axis',(-1.,0.,0.));
#450=DIRECTION('center_axis',(0.,0.,-1.));
#451=DIRECTION('ref_axis',(1.,0.,0.));
#452=DIRECTION('center_axis',(0.,0.,1.));
#453=DIRECTION('ref_axis',(-1.,0.,0.));
#454=DIRECTION('center_axis',(0.,0.,1.));
#455=DIRECTION('ref_axis',(-1.,0.,0.));
#456=DIRECTION('',(0.,0.,1.));
#457=DIRECTION('center_axis',(0.,0.,1.));
#458=DIRECTION('ref_axis',(-1.,0.,0.));
#459=DIRECTION('center_axis',(0.,0.,1.));
#460=DIRECTION('ref_axis',(-1.,0.,0.));
#461=DIRECTION('center_axis',(0.,0.,-1.));
#462=DIRECTION('ref_axis',(1.,0.,0.));
#463=DIRECTION('center_axis',(0.,0.,-1.));
#464=DIRECTION('ref_axis',(1.,0.,0.));
#465=DIRECTION('center_axis',(0.,0.,-1.));
#466=DIRECTION('ref_axis',(1.,0.,0.));
#467=DIRECTION('',(0.,0.,-1.));
#468=DIRECTION('center_axis',(0.,0.,-1.));
#469=DIRECTION('ref_axis',(1.,0.,0.));
#470=DIRECTION('center_axis',(0.,0.,-1.));
#471=DIRECTION('ref_axis',(1.,0.,0.));
#472=DIRECTION('',(0.,0.,-1.));
#473=DIRECTION('center_axis',(0.,0.,-1.));
#474=DIRECTION('ref_axis',(1.,0.,0.));
#475=DIRECTION('center_axis',(0.,0.,-1.));
#476=DIRECTION('ref_axis',(1.,0.,0.));
#477=DIRECTION('',(0.,0.,-1.));
#478=DIRECTION('center_axis',(0.,0.,-1.));
#479=DIRECTION('ref_axis',(1.,0.,0.));
#480=DIRECTION('center_axis',(0.,0.,-1.));
#481=DIRECTION('ref_axis',(1.,0.,0.));
#482=DIRECTION('',(0.,0.,-1.));
#483=DIRECTION('center_axis',(0.,0.,-1.));
#484=DIRECTION('ref_axis',(1.,0.,0.));
#485=DIRECTION('center_axis',(0.,0.,-1.));
#486=DIRECTION('ref_axis',(1.,0.,0.));
#487=DIRECTION('',(0.,0.,-1.));
#488=DIRECTION('center_axis',(0.,0.,1.));
#489=DIRECTION('ref_axis',(1.,0.,0.));
#490=DIRECTION('center_axis',(1.,0.,0.));
#491=DIRECTION('ref_axis',(0.,0.,-1.));
#492=DIRECTION('',(0.,0.,1.));
#493=DIRECTION('',(0.,1.,0.));
#494=DIRECTION('',(0.,0.,-1.));
#495=DIRECTION('',(0.,1.,0.));
#496=DIRECTION('center_axis',(0.,0.,1.));
#497=DIRECTION('ref_axis',(1.,0.,0.));
#498=DIRECTION('',(-1.,0.,0.));
#499=DIRECTION('',(1.,0.,0.));
#500=DIRECTION('',(0.,1.,0.));
#501=DIRECTION('center_axis',(1.,0.,0.));
#502=DIRECTION('ref_axis',(0.,0.,-1.));
#503=DIRECTION('',(0.,0.,-1.));
#504=DIRECTION('',(0.,0.,-1.));
#505=DIRECTION('',(0.,1.,0.));
#506=DIRECTION('center_axis',(0.,0.,1.));
#507=DIRECTION('ref_axis',(1.,0.,0.));
#508=DIRECTION('',(1.,0.,0.));
#509=DIRECTION('',(1.,0.,0.));
#510=DIRECTION('',(0.,1.,0.));
#511=DIRECTION('center_axis',(-1.,0.,0.));
#512=DIRECTION('ref_axis',(0.,0.,1.));
#513=DIRECTION('',(0.,0.,1.));
#514=DIRECTION('',(0.,0.,1.));
#515=DIRECTION('',(0.,1.,0.));
#516=DIRECTION('center_axis',(0.,0.,-1.));
#517=DIRECTION('ref_axis',(-1.,0.,0.));
#518=DIRECTION('',(-1.,0.,0.));
#519=DIRECTION('',(-1.,0.,0.));
#520=DIRECTION('center_axis',(0.,1.,0.));
#521=DIRECTION('ref_axis',(0.,0.,1.));
#522=DIRECTION('center_axis',(0.,1.,0.));
#523=DIRECTION('ref_axis',(1.,0.,0.));
#524=CARTESIAN_POINT('',(0.,0.,0.));
#525=CARTESIAN_POINT('Origin',(-15.,76.,-7.));
#526=CARTESIAN_POINT('',(-9.50000000000001,76.,-10.));
#527=CARTESIAN_POINT('Origin',(-15.,76.,-10.));
#528=CARTESIAN_POINT('',(-9.50000000000001,76.,-4.));
#529=CARTESIAN_POINT('',(-9.50000000000001,76.,-7.));
#530=CARTESIAN_POINT('Origin',(-15.,76.,-4.));
#531=CARTESIAN_POINT('Origin',(-15.,76.,-4.));
#532=CARTESIAN_POINT('',(-18.,76.,-4.));
#533=CARTESIAN_POINT('Origin',(-15.,76.,-4.));
#534=CARTESIAN_POINT('Origin',(-15.,10.,-7.));
#535=CARTESIAN_POINT('',(-9.50000000000001,10.,-10.));
#536=CARTESIAN_POINT('Origin',(-15.,10.,-10.));
#537=CARTESIAN_POINT('',(-9.50000000000001,10.,-4.));
#538=CARTESIAN_POINT('',(-9.50000000000001,10.,-7.));
#539=CARTESIAN_POINT('Origin',(-15.,10.,-4.));
#540=CARTESIAN_POINT('Origin',(-15.,10.,-4.));
#541=CARTESIAN_POINT('',(-18.,10.,-4.));
#542=CARTESIAN_POINT('Origin',(-15.,10.,-4.));
#543=CARTESIAN_POINT('Origin',(18.,68.,-7.));
#544=CARTESIAN_POINT('',(23.5,68.,-10.));
#545=CARTESIAN_POINT('Origin',(18.,68.,-10.));
#546=CARTESIAN_POINT('',(23.5,68.,-4.));
#547=CARTESIAN_POINT('',(23.5,68.,-7.));
#548=CARTESIAN_POINT('Origin',(18.,68.,-4.));
#549=CARTESIAN_POINT('Origin',(18.,68.,-4.));
#550=CARTESIAN_POINT('',(15.,68.,-4.));
#551=CARTESIAN_POINT('Origin',(18.,68.,-4.));
#552=CARTESIAN_POINT('Origin',(18.,18.,-7.));
#553=CARTESIAN_POINT('',(23.5,18.,-10.));
#554=CARTESIAN_POINT('Origin',(18.,18.,-10.));
#555=CARTESIAN_POINT('',(23.5,18.,-4.));
#556=CARTESIAN_POINT('',(23.5,18.,-7.));
#557=CARTESIAN_POINT('Origin',(18.,18.,-4.));
#558=CARTESIAN_POINT('Origin',(18.,18.,-4.));
#559=CARTESIAN_POINT('',(15.,18.,-4.));
#560=CARTESIAN_POINT('Origin',(18.,18.,-4.));
#561=CARTESIAN_POINT('Origin',(-15.,10.,0.));
#562=CARTESIAN_POINT('',(-18.,10.,10.));
#563=CARTESIAN_POINT('Origin',(-15.,10.,10.));
#564=CARTESIAN_POINT('',(-18.,10.,0.));
#565=CARTESIAN_POINT('Origin',(-15.,76.,0.));
#566=CARTESIAN_POINT('',(-18.,76.,10.));
#567=CARTESIAN_POINT('Origin',(-15.,76.,10.));
#568=CARTESIAN_POINT('',(-18.,76.,0.));
#569=CARTESIAN_POINT('Origin',(18.,18.,0.));
#570=CARTESIAN_POINT('',(15.,18.,10.));
#571=CARTESIAN_POINT('Origin',(18.,18.,10.));
#572=CARTESIAN_POINT('',(15.,18.,0.));
#573=CARTESIAN_POINT('Origin',(18.,68.,0.));
#574=CARTESIAN_POINT('',(15.,68.,10.));
#575=CARTESIAN_POINT('Origin',(18.,68.,10.));
#576=CARTESIAN_POINT('',(15.,68.,0.));
#577=CARTESIAN_POINT('Origin',(18.,43.,0.));
#578=CARTESIAN_POINT('',(5.50000000000001,43.,10.));
#579=CARTESIAN_POINT('Origin',(18.,43.,10.));
#580=CARTESIAN_POINT('',(5.50000000000001,43.,-10.));
#581=CARTESIAN_POINT('',(5.50000000000001,43.,0.));
#582=CARTESIAN_POINT('Origin',(18.,43.,-10.));
#583=CARTESIAN_POINT('Origin',(61.,0.,-5.));
#584=CARTESIAN_POINT('',(61.,0.,-10.));
#585=CARTESIAN_POINT('',(61.,0.,-5.));
#586=CARTESIAN_POINT('',(61.,0.,-10.));
#587=CARTESIAN_POINT('',(61.,86.,-10.));
#588=CARTESIAN_POINT('',(61.,0.,-10.));
#589=CARTESIAN_POINT('',(61.,86.,-5.));
#590=CARTESIAN_POINT('',(61.,86.,-10.));
#591=CARTESIAN_POINT('',(61.,0.,-5.));
#592=CARTESIAN_POINT('Origin',(38.,0.,-5.));
#593=CARTESIAN_POINT('',(38.,0.,-5.));
#594=CARTESIAN_POINT('',(61.,0.,-5.));
#595=CARTESIAN_POINT('',(38.,86.,-5.));
#596=CARTESIAN_POINT('',(61.,86.,-5.));
#597=CARTESIAN_POINT('',(38.,0.,-5.));
#598=CARTESIAN_POINT('Origin',(38.,0.,10.));
#599=CARTESIAN_POINT('',(38.,0.,10.));
#600=CARTESIAN_POINT('',(38.,0.,10.));
#601=CARTESIAN_POINT('',(38.,86.,10.));
#602=CARTESIAN_POINT('',(38.,86.,10.));
#603=CARTESIAN_POINT('',(38.,0.,10.));
#604=CARTESIAN_POINT('Origin',(-25.,0.,10.));
#605=CARTESIAN_POINT('',(-25.,0.,10.));
#606=CARTESIAN_POINT('',(-25.,0.,10.));
#607=CARTESIAN_POINT('',(-25.,86.,10.));
#608=CARTESIAN_POINT('',(-25.,86.,10.));
#609=CARTESIAN_POINT('',(-25.,0.,10.));
#610=CARTESIAN_POINT('Origin',(-25.,0.,-10.));
#611=CARTESIAN_POINT('',(-25.,0.,-10.));
#612=CARTESIAN_POINT('',(-25.,0.,-10.));
#613=CARTESIAN_POINT('',(-25.,86.,-10.));
#614=CARTESIAN_POINT('',(-25.,86.,-10.));
#615=CARTESIAN_POINT('',(-25.,0.,-10.));
#616=CARTESIAN_POINT('Origin',(61.,0.,-10.));
#617=CARTESIAN_POINT('',(38.,0.,-10.));
#618=CARTESIAN_POINT('',(38.,86.,-10.));
#619=CARTESIAN_POINT('Origin',(18.,86.,0.));
#620=CARTESIAN_POINT('Origin',(18.,0.,0.));
#621=UNCERTAINTY_MEASURE_WITH_UNIT(LENGTH_MEASURE(0.01),#625,
'DISTANCE_ACCURACY_VALUE',
'Maximum model space distance between geometric entities at asserted c
onnectivities');
#622=UNCERTAINTY_MEASURE_WITH_UNIT(LENGTH_MEASURE(0.01),#625,
'DISTANCE_ACCURACY_VALUE',
'Maximum model space distance between geometric entities at asserted c
onnectivities');
#623=(
GEOMETRIC_REPRESENTATION_CONTEXT(3)
GLOBAL_UNCERTAINTY_ASSIGNED_CONTEXT((#621))
GLOBAL_UNIT_ASSIGNED_CONTEXT((#625,#627,#628))
REPRESENTATION_CONTEXT('','3D')
);
#624=(
GEOMETRIC_REPRESENTATION_CONTEXT(3)
GLOBAL_UNCERTAINTY_ASSIGNED_CONTEXT((#622))
GLOBAL_UNIT_ASSIGNED_CONTEXT((#625,#627,#628))
REPRESENTATION_CONTEXT('','3D')
);
#625=(
LENGTH_UNIT()
NAMED_UNIT(*)
SI_UNIT(.MILLI.,.METRE.)
);
#626=(
LENGTH_UNIT()
NAMED_UNIT(*)
SI_UNIT($,.METRE.)
);
#627=(
NAMED_UNIT(*)
PLANE_ANGLE_UNIT()
SI_UNIT($,.RADIAN.)
);
#628=(
NAMED_UNIT(*)
SI_UNIT($,.STERADIAN.)
SOLID_ANGLE_UNIT()
);
#629=SHAPE_DEFINITION_REPRESENTATION(#630,#631);
#630=PRODUCT_DEFINITION_SHAPE('',$,#633);
#631=SHAPE_REPRESENTATION('',(#377),#623);
#632=PRODUCT_DEFINITION_CONTEXT('part definition',#637,'design');
#633=PRODUCT_DEFINITION('axe Y 2','axe Y 2 v2',#634,#632);
#634=PRODUCT_DEFINITION_FORMATION('',$,#639);
#635=PRODUCT_RELATED_PRODUCT_CATEGORY('axe Y 2 v2','axe Y 2 v2',(#639));
#636=APPLICATION_PROTOCOL_DEFINITION('international standard',
'automotive_design',2009,#637);
#637=APPLICATION_CONTEXT(
'Core Data for Automotive Mechanical Design Process');
#638=PRODUCT_CONTEXT('part definition',#637,'mechanical');
#639=PRODUCT('axe Y 2','axe Y 2 v2',$,(#638));
#640=PRESENTATION_STYLE_ASSIGNMENT((#641));
#641=SURFACE_STYLE_USAGE(.BOTH.,#642);
#642=SURFACE_SIDE_STYLE('',(#643));
#643=SURFACE_STYLE_FILL_AREA(#644);
#644=FILL_AREA_STYLE('Acier - Satin\X\E9',(#645));
#645=FILL_AREA_STYLE_COLOUR('Acier - Satin\X\E9',#646);
#646=COLOUR_RGB('Acier - Satin\X\E9',0.627450980392157,0.627450980392157,
0.627450980392157);
ENDSEC;
END-ISO-10303-21;
