ISO-10303-21;
HEADER;
/* Generated by software containing ST-Developer
 * from STEP Tools, Inc. (www.steptools.com) 
 */

FILE_DESCRIPTION(
/* description */ (''),
/* implementation_level */ '2;1');

FILE_NAME(
/* name */ '/Users/Bruno/Downloads/axe Y 1 v3.step',
/* time_stamp */ '2020-10-20T23:38:08+02:00',
/* author */ (''),
/* organization */ (''),
/* preprocessor_version */ 'ST-DEVELOPER v18.1',
/* originating_system */ 'Autodesk Translation Framework v9.3.0.1241',
/* authorisation */ '');

FILE_SCHEMA (('AUTOMOTIVE_DESIGN { 1 0 10303 214 3 1 1 }'));
ENDSEC;

DATA;
#10=MECHANICAL_DESIGN_GEOMETRIC_PRESENTATION_REPRESENTATION('',(#13),#423);
#11=SHAPE_REPRESENTATION_RELATIONSHIP('SRR','None',#430,#12);
#12=ADVANCED_BREP_SHAPE_REPRESENTATION('',(#14),#422);
#13=STYLED_ITEM('',(#439),#14);
#14=MANIFOLD_SOLID_BREP('Corps1',#247);
#15=FACE_BOUND('',#48,.T.);
#16=FACE_BOUND('',#55,.T.);
#17=FACE_BOUND('',#56,.T.);
#18=FACE_BOUND('',#57,.T.);
#19=FACE_BOUND('',#58,.T.);
#20=FACE_BOUND('',#59,.T.);
#21=FACE_BOUND('',#61,.T.);
#22=FACE_BOUND('',#62,.T.);
#23=FACE_BOUND('',#63,.T.);
#24=FACE_BOUND('',#64,.T.);
#25=FACE_BOUND('',#65,.T.);
#26=PLANE('',#264);
#27=PLANE('',#280);
#28=PLANE('',#281);
#29=PLANE('',#282);
#30=PLANE('',#283);
#31=PLANE('',#284);
#32=PLANE('',#285);
#33=FACE_OUTER_BOUND('',#46,.T.);
#34=FACE_OUTER_BOUND('',#47,.T.);
#35=FACE_OUTER_BOUND('',#49,.T.);
#36=FACE_OUTER_BOUND('',#50,.T.);
#37=FACE_OUTER_BOUND('',#51,.T.);
#38=FACE_OUTER_BOUND('',#52,.T.);
#39=FACE_OUTER_BOUND('',#53,.T.);
#40=FACE_OUTER_BOUND('',#54,.T.);
#41=FACE_OUTER_BOUND('',#60,.T.);
#42=FACE_OUTER_BOUND('',#66,.T.);
#43=FACE_OUTER_BOUND('',#67,.T.);
#44=FACE_OUTER_BOUND('',#68,.T.);
#45=FACE_OUTER_BOUND('',#69,.T.);
#46=EDGE_LOOP('',(#168,#169,#170,#171));
#47=EDGE_LOOP('',(#172));
#48=EDGE_LOOP('',(#173));
#49=EDGE_LOOP('',(#174,#175,#176,#177));
#50=EDGE_LOOP('',(#178,#179,#180,#181));
#51=EDGE_LOOP('',(#182,#183,#184,#185));
#52=EDGE_LOOP('',(#186,#187,#188,#189));
#53=EDGE_LOOP('',(#190,#191,#192,#193));
#54=EDGE_LOOP('',(#194,#195,#196,#197));
#55=EDGE_LOOP('',(#198));
#56=EDGE_LOOP('',(#199));
#57=EDGE_LOOP('',(#200));
#58=EDGE_LOOP('',(#201));
#59=EDGE_LOOP('',(#202));
#60=EDGE_LOOP('',(#203,#204,#205,#206));
#61=EDGE_LOOP('',(#207));
#62=EDGE_LOOP('',(#208));
#63=EDGE_LOOP('',(#209));
#64=EDGE_LOOP('',(#210));
#65=EDGE_LOOP('',(#211));
#66=EDGE_LOOP('',(#212,#213,#214,#215));
#67=EDGE_LOOP('',(#216,#217,#218,#219));
#68=EDGE_LOOP('',(#220,#221,#222,#223));
#69=EDGE_LOOP('',(#224,#225,#226,#227));
#70=LINE('',#361,#88);
#71=LINE('',#370,#89);
#72=LINE('',#376,#90);
#73=LINE('',#382,#91);
#74=LINE('',#388,#92);
#75=LINE('',#392,#93);
#76=LINE('',#397,#94);
#77=LINE('',#399,#95);
#78=LINE('',#401,#96);
#79=LINE('',#402,#97);
#80=LINE('',#406,#98);
#81=LINE('',#408,#99);
#82=LINE('',#410,#100);
#83=LINE('',#411,#101);
#84=LINE('',#413,#102);
#85=LINE('',#414,#103);
#86=LINE('',#416,#104);
#87=LINE('',#418,#105);
#88=VECTOR('',#292,16.);
#89=VECTOR('',#303,3.);
#90=VECTOR('',#310,3.);
#91=VECTOR('',#317,3.);
#92=VECTOR('',#324,3.);
#93=VECTOR('',#329,12.5);
#94=VECTOR('',#334,10.);
#95=VECTOR('',#335,10.);
#96=VECTOR('',#336,10.);
#97=VECTOR('',#337,10.);
#98=VECTOR('',#340,10.);
#99=VECTOR('',#341,10.);
#100=VECTOR('',#342,10.);
#101=VECTOR('',#343,10.);
#102=VECTOR('',#346,10.);
#103=VECTOR('',#347,10.);
#104=VECTOR('',#350,10.);
#105=VECTOR('',#353,10.);
#106=CIRCLE('',#262,16.);
#107=CIRCLE('',#263,16.);
#108=CIRCLE('',#265,12.5);
#109=CIRCLE('',#267,3.);
#110=CIRCLE('',#268,3.);
#111=CIRCLE('',#270,3.);
#112=CIRCLE('',#271,3.);
#113=CIRCLE('',#273,3.);
#114=CIRCLE('',#274,3.);
#115=CIRCLE('',#276,3.);
#116=CIRCLE('',#277,3.);
#117=CIRCLE('',#279,12.5);
#118=VERTEX_POINT('',#358);
#119=VERTEX_POINT('',#360);
#120=VERTEX_POINT('',#364);
#121=VERTEX_POINT('',#367);
#122=VERTEX_POINT('',#369);
#123=VERTEX_POINT('',#373);
#124=VERTEX_POINT('',#375);
#125=VERTEX_POINT('',#379);
#126=VERTEX_POINT('',#381);
#127=VERTEX_POINT('',#385);
#128=VERTEX_POINT('',#387);
#129=VERTEX_POINT('',#391);
#130=VERTEX_POINT('',#395);
#131=VERTEX_POINT('',#396);
#132=VERTEX_POINT('',#398);
#133=VERTEX_POINT('',#400);
#134=VERTEX_POINT('',#404);
#135=VERTEX_POINT('',#405);
#136=VERTEX_POINT('',#407);
#137=VERTEX_POINT('',#409);
#138=EDGE_CURVE('',#118,#118,#106,.T.);
#139=EDGE_CURVE('',#118,#119,#70,.T.);
#140=EDGE_CURVE('',#119,#119,#107,.T.);
#141=EDGE_CURVE('',#120,#120,#108,.T.);
#142=EDGE_CURVE('',#121,#121,#109,.T.);
#143=EDGE_CURVE('',#121,#122,#71,.T.);
#144=EDGE_CURVE('',#122,#122,#110,.T.);
#145=EDGE_CURVE('',#123,#123,#111,.T.);
#146=EDGE_CURVE('',#123,#124,#72,.T.);
#147=EDGE_CURVE('',#124,#124,#112,.T.);
#148=EDGE_CURVE('',#125,#125,#113,.T.);
#149=EDGE_CURVE('',#125,#126,#73,.T.);
#150=EDGE_CURVE('',#126,#126,#114,.T.);
#151=EDGE_CURVE('',#127,#127,#115,.T.);
#152=EDGE_CURVE('',#127,#128,#74,.T.);
#153=EDGE_CURVE('',#128,#128,#116,.T.);
#154=EDGE_CURVE('',#120,#129,#75,.T.);
#155=EDGE_CURVE('',#129,#129,#117,.T.);
#156=EDGE_CURVE('',#130,#131,#76,.T.);
#157=EDGE_CURVE('',#131,#132,#77,.T.);
#158=EDGE_CURVE('',#132,#133,#78,.T.);
#159=EDGE_CURVE('',#133,#130,#79,.T.);
#160=EDGE_CURVE('',#134,#135,#80,.T.);
#161=EDGE_CURVE('',#135,#136,#81,.T.);
#162=EDGE_CURVE('',#136,#137,#82,.T.);
#163=EDGE_CURVE('',#137,#134,#83,.T.);
#164=EDGE_CURVE('',#133,#136,#84,.T.);
#165=EDGE_CURVE('',#130,#135,#85,.T.);
#166=EDGE_CURVE('',#132,#137,#86,.T.);
#167=EDGE_CURVE('',#131,#134,#87,.T.);
#168=ORIENTED_EDGE('',*,*,#138,.F.);
#169=ORIENTED_EDGE('',*,*,#139,.T.);
#170=ORIENTED_EDGE('',*,*,#140,.T.);
#171=ORIENTED_EDGE('',*,*,#139,.F.);
#172=ORIENTED_EDGE('',*,*,#140,.F.);
#173=ORIENTED_EDGE('',*,*,#141,.F.);
#174=ORIENTED_EDGE('',*,*,#142,.F.);
#175=ORIENTED_EDGE('',*,*,#143,.T.);
#176=ORIENTED_EDGE('',*,*,#144,.F.);
#177=ORIENTED_EDGE('',*,*,#143,.F.);
#178=ORIENTED_EDGE('',*,*,#145,.F.);
#179=ORIENTED_EDGE('',*,*,#146,.T.);
#180=ORIENTED_EDGE('',*,*,#147,.F.);
#181=ORIENTED_EDGE('',*,*,#146,.F.);
#182=ORIENTED_EDGE('',*,*,#148,.F.);
#183=ORIENTED_EDGE('',*,*,#149,.T.);
#184=ORIENTED_EDGE('',*,*,#150,.F.);
#185=ORIENTED_EDGE('',*,*,#149,.F.);
#186=ORIENTED_EDGE('',*,*,#151,.F.);
#187=ORIENTED_EDGE('',*,*,#152,.T.);
#188=ORIENTED_EDGE('',*,*,#153,.F.);
#189=ORIENTED_EDGE('',*,*,#152,.F.);
#190=ORIENTED_EDGE('',*,*,#141,.T.);
#191=ORIENTED_EDGE('',*,*,#154,.T.);
#192=ORIENTED_EDGE('',*,*,#155,.F.);
#193=ORIENTED_EDGE('',*,*,#154,.F.);
#194=ORIENTED_EDGE('',*,*,#156,.T.);
#195=ORIENTED_EDGE('',*,*,#157,.T.);
#196=ORIENTED_EDGE('',*,*,#158,.T.);
#197=ORIENTED_EDGE('',*,*,#159,.T.);
#198=ORIENTED_EDGE('',*,*,#144,.T.);
#199=ORIENTED_EDGE('',*,*,#147,.T.);
#200=ORIENTED_EDGE('',*,*,#150,.T.);
#201=ORIENTED_EDGE('',*,*,#153,.T.);
#202=ORIENTED_EDGE('',*,*,#155,.T.);
#203=ORIENTED_EDGE('',*,*,#160,.T.);
#204=ORIENTED_EDGE('',*,*,#161,.T.);
#205=ORIENTED_EDGE('',*,*,#162,.T.);
#206=ORIENTED_EDGE('',*,*,#163,.T.);
#207=ORIENTED_EDGE('',*,*,#138,.T.);
#208=ORIENTED_EDGE('',*,*,#142,.T.);
#209=ORIENTED_EDGE('',*,*,#145,.T.);
#210=ORIENTED_EDGE('',*,*,#148,.T.);
#211=ORIENTED_EDGE('',*,*,#151,.T.);
#212=ORIENTED_EDGE('',*,*,#164,.T.);
#213=ORIENTED_EDGE('',*,*,#161,.F.);
#214=ORIENTED_EDGE('',*,*,#165,.F.);
#215=ORIENTED_EDGE('',*,*,#159,.F.);
#216=ORIENTED_EDGE('',*,*,#166,.T.);
#217=ORIENTED_EDGE('',*,*,#162,.F.);
#218=ORIENTED_EDGE('',*,*,#164,.F.);
#219=ORIENTED_EDGE('',*,*,#158,.F.);
#220=ORIENTED_EDGE('',*,*,#167,.T.);
#221=ORIENTED_EDGE('',*,*,#163,.F.);
#222=ORIENTED_EDGE('',*,*,#166,.F.);
#223=ORIENTED_EDGE('',*,*,#157,.F.);
#224=ORIENTED_EDGE('',*,*,#165,.T.);
#225=ORIENTED_EDGE('',*,*,#160,.F.);
#226=ORIENTED_EDGE('',*,*,#167,.F.);
#227=ORIENTED_EDGE('',*,*,#156,.F.);
#228=CYLINDRICAL_SURFACE('',#261,16.);
#229=CYLINDRICAL_SURFACE('',#266,3.);
#230=CYLINDRICAL_SURFACE('',#269,3.);
#231=CYLINDRICAL_SURFACE('',#272,3.);
#232=CYLINDRICAL_SURFACE('',#275,3.);
#233=CYLINDRICAL_SURFACE('',#278,12.5);
#234=ADVANCED_FACE('',(#33),#228,.F.);
#235=ADVANCED_FACE('',(#34,#15),#26,.F.);
#236=ADVANCED_FACE('',(#35),#229,.F.);
#237=ADVANCED_FACE('',(#36),#230,.F.);
#238=ADVANCED_FACE('',(#37),#231,.F.);
#239=ADVANCED_FACE('',(#38),#232,.F.);
#240=ADVANCED_FACE('',(#39),#233,.F.);
#241=ADVANCED_FACE('',(#40,#16,#17,#18,#19,#20),#27,.T.);
#242=ADVANCED_FACE('',(#41,#21,#22,#23,#24,#25),#28,.F.);
#243=ADVANCED_FACE('',(#42),#29,.F.);
#244=ADVANCED_FACE('',(#43),#30,.F.);
#245=ADVANCED_FACE('',(#44),#31,.F.);
#246=ADVANCED_FACE('',(#45),#32,.F.);
#247=CLOSED_SHELL('',(#234,#235,#236,#237,#238,#239,#240,#241,#242,#243,
#244,#245,#246));
#248=DERIVED_UNIT_ELEMENT(#250,1.);
#249=DERIVED_UNIT_ELEMENT(#425,3.);
#250=(
MASS_UNIT()
NAMED_UNIT(*)
SI_UNIT(.KILO.,.GRAM.)
);
#251=DERIVED_UNIT((#248,#249));
#252=MEASURE_REPRESENTATION_ITEM('density measure',
POSITIVE_RATIO_MEASURE(7850.),#251);
#253=PROPERTY_DEFINITION_REPRESENTATION(#258,#255);
#254=PROPERTY_DEFINITION_REPRESENTATION(#259,#256);
#255=REPRESENTATION('material name',(#257),#422);
#256=REPRESENTATION('density',(#252),#422);
#257=DESCRIPTIVE_REPRESENTATION_ITEM('Acier','Acier');
#258=PROPERTY_DEFINITION('material property','material name',#432);
#259=PROPERTY_DEFINITION('material property','density of part',#432);
#260=AXIS2_PLACEMENT_3D('placement',#356,#286,#287);
#261=AXIS2_PLACEMENT_3D('',#357,#288,#289);
#262=AXIS2_PLACEMENT_3D('',#359,#290,#291);
#263=AXIS2_PLACEMENT_3D('',#362,#293,#294);
#264=AXIS2_PLACEMENT_3D('',#363,#295,#296);
#265=AXIS2_PLACEMENT_3D('',#365,#297,#298);
#266=AXIS2_PLACEMENT_3D('',#366,#299,#300);
#267=AXIS2_PLACEMENT_3D('',#368,#301,#302);
#268=AXIS2_PLACEMENT_3D('',#371,#304,#305);
#269=AXIS2_PLACEMENT_3D('',#372,#306,#307);
#270=AXIS2_PLACEMENT_3D('',#374,#308,#309);
#271=AXIS2_PLACEMENT_3D('',#377,#311,#312);
#272=AXIS2_PLACEMENT_3D('',#378,#313,#314);
#273=AXIS2_PLACEMENT_3D('',#380,#315,#316);
#274=AXIS2_PLACEMENT_3D('',#383,#318,#319);
#275=AXIS2_PLACEMENT_3D('',#384,#320,#321);
#276=AXIS2_PLACEMENT_3D('',#386,#322,#323);
#277=AXIS2_PLACEMENT_3D('',#389,#325,#326);
#278=AXIS2_PLACEMENT_3D('',#390,#327,#328);
#279=AXIS2_PLACEMENT_3D('',#393,#330,#331);
#280=AXIS2_PLACEMENT_3D('',#394,#332,#333);
#281=AXIS2_PLACEMENT_3D('',#403,#338,#339);
#282=AXIS2_PLACEMENT_3D('',#412,#344,#345);
#283=AXIS2_PLACEMENT_3D('',#415,#348,#349);
#284=AXIS2_PLACEMENT_3D('',#417,#351,#352);
#285=AXIS2_PLACEMENT_3D('',#419,#354,#355);
#286=DIRECTION('axis',(0.,0.,1.));
#287=DIRECTION('refdir',(1.,0.,0.));
#288=DIRECTION('center_axis',(4.44089209850063E-16,4.93038065763132E-32,
-1.));
#289=DIRECTION('ref_axis',(1.,0.,4.44089209850063E-16));
#290=DIRECTION('center_axis',(4.44089209850063E-16,4.93038065763132E-32,
-1.));
#291=DIRECTION('ref_axis',(1.,0.,4.44089209850063E-16));
#292=DIRECTION('',(4.44089209850063E-16,4.93038065763133E-32,-1.));
#293=DIRECTION('center_axis',(4.44089209850063E-16,4.93038065763132E-32,
-1.));
#294=DIRECTION('ref_axis',(1.,0.,4.44089209850063E-16));
#295=DIRECTION('center_axis',(4.44089209850063E-16,4.93038065763132E-32,
-1.));
#296=DIRECTION('ref_axis',(1.,0.,4.44089209850063E-16));
#297=DIRECTION('center_axis',(-4.44089209850063E-16,-4.93038065763132E-32,
1.));
#298=DIRECTION('ref_axis',(1.,0.,4.44089209850063E-16));
#299=DIRECTION('center_axis',(4.44089209850063E-16,4.93038065763132E-32,
-1.));
#300=DIRECTION('ref_axis',(1.,0.,4.44089209850063E-16));
#301=DIRECTION('center_axis',(4.44089209850063E-16,4.93038065763132E-32,
-1.));
#302=DIRECTION('ref_axis',(1.,0.,4.44089209850063E-16));
#303=DIRECTION('',(4.44089209850063E-16,4.93038065763132E-32,-1.));
#304=DIRECTION('center_axis',(-4.44089209850063E-16,-4.93038065763132E-32,
1.));
#305=DIRECTION('ref_axis',(1.,0.,4.44089209850063E-16));
#306=DIRECTION('center_axis',(4.44089209850063E-16,4.93038065763132E-32,
-1.));
#307=DIRECTION('ref_axis',(1.,0.,4.44089209850063E-16));
#308=DIRECTION('center_axis',(4.44089209850063E-16,4.93038065763132E-32,
-1.));
#309=DIRECTION('ref_axis',(1.,0.,4.44089209850063E-16));
#310=DIRECTION('',(4.44089209850063E-16,4.93038065763132E-32,-1.));
#311=DIRECTION('center_axis',(-4.44089209850063E-16,-4.93038065763132E-32,
1.));
#312=DIRECTION('ref_axis',(1.,0.,4.44089209850063E-16));
#313=DIRECTION('center_axis',(4.44089209850063E-16,4.93038065763132E-32,
-1.));
#314=DIRECTION('ref_axis',(1.,0.,4.44089209850063E-16));
#315=DIRECTION('center_axis',(4.44089209850063E-16,4.93038065763132E-32,
-1.));
#316=DIRECTION('ref_axis',(1.,0.,4.44089209850063E-16));
#317=DIRECTION('',(4.44089209850063E-16,4.93038065763132E-32,-1.));
#318=DIRECTION('center_axis',(-4.44089209850063E-16,-4.93038065763132E-32,
1.));
#319=DIRECTION('ref_axis',(1.,0.,4.44089209850063E-16));
#320=DIRECTION('center_axis',(4.44089209850063E-16,4.93038065763132E-32,
-1.));
#321=DIRECTION('ref_axis',(1.,0.,4.44089209850063E-16));
#322=DIRECTION('center_axis',(4.44089209850063E-16,4.93038065763132E-32,
-1.));
#323=DIRECTION('ref_axis',(1.,0.,4.44089209850063E-16));
#324=DIRECTION('',(4.44089209850063E-16,4.93038065763132E-32,-1.));
#325=DIRECTION('center_axis',(-4.44089209850063E-16,-4.93038065763132E-32,
1.));
#326=DIRECTION('ref_axis',(1.,0.,4.44089209850063E-16));
#327=DIRECTION('center_axis',(4.44089209850063E-16,4.93038065763132E-32,
-1.));
#328=DIRECTION('ref_axis',(1.,0.,4.44089209850063E-16));
#329=DIRECTION('',(4.44089209850063E-16,4.93038065763132E-32,-1.));
#330=DIRECTION('center_axis',(-4.44089209850063E-16,-4.93038065763132E-32,
1.));
#331=DIRECTION('ref_axis',(1.,0.,4.44089209850063E-16));
#332=DIRECTION('center_axis',(4.44089209850063E-16,4.93038065763132E-32,
-1.));
#333=DIRECTION('ref_axis',(-2.22044604925031E-16,1.,-2.46519032881566E-32));
#334=DIRECTION('',(1.,2.22044604925031E-16,4.44089209850063E-16));
#335=DIRECTION('',(2.22044604925031E-16,-1.,2.46519032881566E-32));
#336=DIRECTION('',(-1.,-2.22044604925031E-16,-4.44089209850063E-16));
#337=DIRECTION('',(-2.22044604925031E-16,1.,-2.46519032881566E-32));
#338=DIRECTION('center_axis',(4.44089209850063E-16,4.93038065763132E-32,
-1.));
#339=DIRECTION('ref_axis',(0.866025403784438,0.5,3.84592537276713E-16));
#340=DIRECTION('',(-1.,-2.22044604925031E-16,-4.44089209850063E-16));
#341=DIRECTION('',(2.22044604925031E-16,-1.,2.46519032881566E-32));
#342=DIRECTION('',(1.,2.22044604925031E-16,4.44089209850063E-16));
#343=DIRECTION('',(-2.22044604925031E-16,1.,-2.46519032881566E-32));
#344=DIRECTION('center_axis',(1.,2.22044604925031E-16,4.44089209850063E-16));
#345=DIRECTION('ref_axis',(4.44089209850063E-16,4.93038065763132E-32,-1.));
#346=DIRECTION('',(-4.44089209850063E-16,-4.93038065763132E-32,1.));
#347=DIRECTION('',(-4.44089209850063E-16,-4.93038065763132E-32,1.));
#348=DIRECTION('center_axis',(-2.22044604925031E-16,1.,-2.46519032881566E-32));
#349=DIRECTION('ref_axis',(-4.44089209850063E-16,-4.93038065763132E-32,
1.));
#350=DIRECTION('',(-4.44089209850063E-16,-4.93038065763132E-32,1.));
#351=DIRECTION('center_axis',(-1.,-2.22044604925031E-16,-4.44089209850063E-16));
#352=DIRECTION('ref_axis',(-4.44089209850063E-16,-4.93038065763132E-32,
1.));
#353=DIRECTION('',(-4.44089209850063E-16,-4.93038065763132E-32,1.));
#354=DIRECTION('center_axis',(2.22044604925031E-16,-1.,2.46519032881566E-32));
#355=DIRECTION('ref_axis',(4.44089209850063E-16,4.93038065763132E-32,-1.));
#356=CARTESIAN_POINT('',(0.,0.,0.));
#357=CARTESIAN_POINT('Origin',(-2.28952774676347,13.6410076572542,4.28210721763654));
#358=CARTESIAN_POINT('',(-18.2895277467635,13.6410076572543,12.2321072176365));
#359=CARTESIAN_POINT('Origin',(-2.28952774676348,13.6410076572542,12.2321072176365));
#360=CARTESIAN_POINT('',(-18.2895277467635,13.6410076572543,-3.66789278236347));
#361=CARTESIAN_POINT('',(-18.2895277467635,13.6410076572543,4.28210721763653));
#362=CARTESIAN_POINT('Origin',(-2.28952774676347,13.6410076572542,-3.66789278236346));
#363=CARTESIAN_POINT('Origin',(-2.28952774676347,13.6410076572542,-3.66789278236346));
#364=CARTESIAN_POINT('',(-14.7895277467635,13.6410076572542,-3.66789278236347));
#365=CARTESIAN_POINT('Origin',(-2.28952774676347,13.6410076572542,-3.66789278236346));
#366=CARTESIAN_POINT('Origin',(30.7104722532365,-19.3589923427458,2.23210721763655));
#367=CARTESIAN_POINT('',(27.7104722532365,-19.3589923427458,12.2321072176365));
#368=CARTESIAN_POINT('Origin',(30.7104722532365,-19.3589923427458,12.2321072176365));
#369=CARTESIAN_POINT('',(27.7104722532365,-19.3589923427458,-7.76789278236346));
#370=CARTESIAN_POINT('',(27.7104722532365,-19.3589923427458,2.23210721763655));
#371=CARTESIAN_POINT('Origin',(30.7104722532365,-19.3589923427458,-7.76789278236345));
#372=CARTESIAN_POINT('Origin',(-35.2895277467635,-19.3589923427458,2.23210721763652));
#373=CARTESIAN_POINT('',(-38.2895277467635,-19.3589923427458,12.2321072176365));
#374=CARTESIAN_POINT('Origin',(-35.2895277467635,-19.3589923427458,12.2321072176365));
#375=CARTESIAN_POINT('',(-38.2895277467635,-19.3589923427458,-7.76789278236349));
#376=CARTESIAN_POINT('',(-38.2895277467635,-19.3589923427458,2.23210721763652));
#377=CARTESIAN_POINT('Origin',(-35.2895277467635,-19.3589923427458,-7.76789278236349));
#378=CARTESIAN_POINT('Origin',(22.7104722532365,13.6410076572543,2.23210721763655));
#379=CARTESIAN_POINT('',(19.7104722532365,13.6410076572543,12.2321072176365));
#380=CARTESIAN_POINT('Origin',(22.7104722532365,13.6410076572543,12.2321072176365));
#381=CARTESIAN_POINT('',(19.7104722532365,13.6410076572543,-7.76789278236346));
#382=CARTESIAN_POINT('',(19.7104722532365,13.6410076572543,2.23210721763655));
#383=CARTESIAN_POINT('Origin',(22.7104722532365,13.6410076572543,-7.76789278236346));
#384=CARTESIAN_POINT('Origin',(-27.2895277467635,13.6410076572542,2.23210721763653));
#385=CARTESIAN_POINT('',(-30.2895277467635,13.6410076572542,12.2321072176365));
#386=CARTESIAN_POINT('Origin',(-27.2895277467635,13.6410076572542,12.2321072176365));
#387=CARTESIAN_POINT('',(-30.2895277467635,13.6410076572542,-7.76789278236348));
#388=CARTESIAN_POINT('',(-30.2895277467635,13.6410076572542,2.23210721763653));
#389=CARTESIAN_POINT('Origin',(-27.2895277467635,13.6410076572542,-7.76789278236348));
#390=CARTESIAN_POINT('Origin',(-2.28952774676347,13.6410076572542,2.2321072176366));
#391=CARTESIAN_POINT('',(-14.7895277467635,13.6410076572543,-7.76789278236348));
#392=CARTESIAN_POINT('',(-14.7895277467635,13.6410076572543,2.23210721763659));
#393=CARTESIAN_POINT('Origin',(-2.28952774676347,13.6410076572542,-7.76789278236347));
#394=CARTESIAN_POINT('Origin',(-2.28952774676348,2.14100765725425,-7.76789278236347));
#395=CARTESIAN_POINT('',(-45.2895277467635,33.6410076572542,-7.76789278236349));
#396=CARTESIAN_POINT('',(40.7104722532365,33.6410076572543,-7.76789278236345));
#397=CARTESIAN_POINT('',(-2.28952774676348,33.6410076572542,-7.76789278236347));
#398=CARTESIAN_POINT('',(40.7104722532365,-29.3589923427458,-7.76789278236345));
#399=CARTESIAN_POINT('',(40.7104722532365,2.14100765725426,-7.76789278236345));
#400=CARTESIAN_POINT('',(-45.2895277467635,-29.3589923427458,-7.76789278236349));
#401=CARTESIAN_POINT('',(-2.28952774676347,-29.3589923427458,-7.76789278236347));
#402=CARTESIAN_POINT('',(-45.2895277467635,2.14100765725424,-7.76789278236349));
#403=CARTESIAN_POINT('Origin',(-0.0337046943405106,-20.8493340079062,12.2321072176365));
#404=CARTESIAN_POINT('',(40.7104722532365,33.6410076572543,12.2321072176366));
#405=CARTESIAN_POINT('',(-45.2895277467635,33.6410076572542,12.2321072176365));
#406=CARTESIAN_POINT('',(-2.28952774676348,33.6410076572542,12.2321072176365));
#407=CARTESIAN_POINT('',(-45.2895277467635,-29.3589923427458,12.2321072176365));
#408=CARTESIAN_POINT('',(-45.2895277467635,2.14100765725424,12.2321072176365));
#409=CARTESIAN_POINT('',(40.7104722532365,-29.3589923427457,12.2321072176365));
#410=CARTESIAN_POINT('',(-2.28952774676348,-29.3589923427458,12.2321072176365));
#411=CARTESIAN_POINT('',(40.7104722532365,2.14100765725426,12.2321072176366));
#412=CARTESIAN_POINT('Origin',(-45.2895277467635,2.14100765725424,2.23210721763652));
#413=CARTESIAN_POINT('',(-45.2895277467635,-29.3589923427458,2.23210721763652));
#414=CARTESIAN_POINT('',(-45.2895277467635,33.6410076572542,2.23210721763652));
#415=CARTESIAN_POINT('Origin',(-2.28952774676347,-29.3589923427458,2.23210721763653));
#416=CARTESIAN_POINT('',(40.7104722532365,-29.3589923427457,2.23210721763655));
#417=CARTESIAN_POINT('Origin',(40.7104722532365,2.14100765725425,2.23210721763655));
#418=CARTESIAN_POINT('',(40.7104722532365,33.6410076572543,2.23210721763655));
#419=CARTESIAN_POINT('Origin',(-2.28952774676348,33.6410076572542,2.23210721763653));
#420=UNCERTAINTY_MEASURE_WITH_UNIT(LENGTH_MEASURE(0.01),#424,
'DISTANCE_ACCURACY_VALUE',
'Maximum model space distance between geometric entities at asserted c
onnectivities');
#421=UNCERTAINTY_MEASURE_WITH_UNIT(LENGTH_MEASURE(0.01),#424,
'DISTANCE_ACCURACY_VALUE',
'Maximum model space distance between geometric entities at asserted c
onnectivities');
#422=(
GEOMETRIC_REPRESENTATION_CONTEXT(3)
GLOBAL_UNCERTAINTY_ASSIGNED_CONTEXT((#420))
GLOBAL_UNIT_ASSIGNED_CONTEXT((#424,#426,#427))
REPRESENTATION_CONTEXT('','3D')
);
#423=(
GEOMETRIC_REPRESENTATION_CONTEXT(3)
GLOBAL_UNCERTAINTY_ASSIGNED_CONTEXT((#421))
GLOBAL_UNIT_ASSIGNED_CONTEXT((#424,#426,#427))
REPRESENTATION_CONTEXT('','3D')
);
#424=(
LENGTH_UNIT()
NAMED_UNIT(*)
SI_UNIT(.MILLI.,.METRE.)
);
#425=(
LENGTH_UNIT()
NAMED_UNIT(*)
SI_UNIT($,.METRE.)
);
#426=(
NAMED_UNIT(*)
PLANE_ANGLE_UNIT()
SI_UNIT($,.RADIAN.)
);
#427=(
NAMED_UNIT(*)
SI_UNIT($,.STERADIAN.)
SOLID_ANGLE_UNIT()
);
#428=SHAPE_DEFINITION_REPRESENTATION(#429,#430);
#429=PRODUCT_DEFINITION_SHAPE('',$,#432);
#430=SHAPE_REPRESENTATION('',(#260),#422);
#431=PRODUCT_DEFINITION_CONTEXT('part definition',#436,'design');
#432=PRODUCT_DEFINITION('axe Y 1','axe Y 1 v3',#433,#431);
#433=PRODUCT_DEFINITION_FORMATION('',$,#438);
#434=PRODUCT_RELATED_PRODUCT_CATEGORY('axe Y 1 v3','axe Y 1 v3',(#438));
#435=APPLICATION_PROTOCOL_DEFINITION('international standard',
'automotive_design',2009,#436);
#436=APPLICATION_CONTEXT(
'Core Data for Automotive Mechanical Design Process');
#437=PRODUCT_CONTEXT('part definition',#436,'mechanical');
#438=PRODUCT('axe Y 1','axe Y 1 v3',$,(#437));
#439=PRESENTATION_STYLE_ASSIGNMENT((#440));
#440=SURFACE_STYLE_USAGE(.BOTH.,#441);
#441=SURFACE_SIDE_STYLE('',(#442));
#442=SURFACE_STYLE_FILL_AREA(#443);
#443=FILL_AREA_STYLE('Acier - Satin\X\E9',(#444));
#444=FILL_AREA_STYLE_COLOUR('Acier - Satin\X\E9',#445);
#445=COLOUR_RGB('Acier - Satin\X\E9',0.627450980392157,0.627450980392157,
0.627450980392157);
ENDSEC;
END-ISO-10303-21;
