ISO-10303-21;
HEADER;
/* Generated by software containing ST-Developer
 * from STEP Tools, Inc. (www.steptools.com) 
 */
/* OPTION: using custom renumber hook */

FILE_DESCRIPTION(
/* description */ (''),
/* implementation_level */ '2;1');

FILE_NAME(
/* name */ '5f7df672d1158815e4f36de0',
/* time_stamp */ '2020-10-07T17:10:11+00:00',
/* author */ (''),
/* organization */ (''),
/* preprocessor_version */ 'ST-DEVELOPER v16.7',
/* originating_system */ $,
/* authorisation */ $);

FILE_SCHEMA (('AUTOMOTIVE_DESIGN {1 0 10303 214 3 1 1}'));
ENDSEC;

DATA;
#10=PROPERTY_DEFINITION_REPRESENTATION(#14,#12);
#11=PROPERTY_DEFINITION_REPRESENTATION(#15,#13);
#12=REPRESENTATION('',(#16),#507);
#13=REPRESENTATION('',(#17),#507);
#14=PROPERTY_DEFINITION('pmi validation property','',#512);
#15=PROPERTY_DEFINITION('pmi validation property','',#512);
#16=VALUE_REPRESENTATION_ITEM('number of annotations',COUNT_MEASURE(0.));
#17=VALUE_REPRESENTATION_ITEM('number of views',COUNT_MEASURE(0.));
#18=SHAPE_REPRESENTATION_RELATIONSHIP('','',#319,#19);
#19=ADVANCED_BREP_SHAPE_REPRESENTATION('',(#317),#507);
#20=CYLINDRICAL_SURFACE('',#339,0.0045);
#21=CYLINDRICAL_SURFACE('',#340,0.0045);
#22=CYLINDRICAL_SURFACE('',#341,0.003);
#23=CYLINDRICAL_SURFACE('',#343,0.003);
#24=CIRCLE('',#322,0.003);
#25=CIRCLE('',#323,0.003);
#26=CIRCLE('',#325,0.003);
#27=CIRCLE('',#326,0.003);
#28=CIRCLE('',#328,0.0045);
#29=CIRCLE('',#329,0.0045);
#30=CIRCLE('',#332,0.0045);
#31=CIRCLE('',#333,0.0045);
#32=ORIENTED_EDGE('',*,*,#108,.F.);
#33=ORIENTED_EDGE('',*,*,#109,.T.);
#34=ORIENTED_EDGE('',*,*,#110,.T.);
#35=ORIENTED_EDGE('',*,*,#111,.F.);
#36=ORIENTED_EDGE('',*,*,#112,.F.);
#37=ORIENTED_EDGE('',*,*,#113,.T.);
#38=ORIENTED_EDGE('',*,*,#114,.T.);
#39=ORIENTED_EDGE('',*,*,#115,.F.);
#40=ORIENTED_EDGE('',*,*,#116,.T.);
#41=ORIENTED_EDGE('',*,*,#117,.F.);
#42=ORIENTED_EDGE('',*,*,#118,.F.);
#43=ORIENTED_EDGE('',*,*,#119,.T.);
#44=ORIENTED_EDGE('',*,*,#120,.T.);
#45=ORIENTED_EDGE('',*,*,#121,.F.);
#46=ORIENTED_EDGE('',*,*,#122,.F.);
#47=ORIENTED_EDGE('',*,*,#123,.T.);
#48=ORIENTED_EDGE('',*,*,#124,.F.);
#49=ORIENTED_EDGE('',*,*,#125,.F.);
#50=ORIENTED_EDGE('',*,*,#126,.F.);
#51=ORIENTED_EDGE('',*,*,#108,.T.);
#52=ORIENTED_EDGE('',*,*,#127,.T.);
#53=ORIENTED_EDGE('',*,*,#128,.F.);
#54=ORIENTED_EDGE('',*,*,#129,.T.);
#55=ORIENTED_EDGE('',*,*,#110,.F.);
#56=ORIENTED_EDGE('',*,*,#130,.F.);
#57=ORIENTED_EDGE('',*,*,#131,.F.);
#58=ORIENTED_EDGE('',*,*,#117,.T.);
#59=ORIENTED_EDGE('',*,*,#132,.F.);
#60=ORIENTED_EDGE('',*,*,#133,.F.);
#61=ORIENTED_EDGE('',*,*,#134,.T.);
#62=ORIENTED_EDGE('',*,*,#119,.F.);
#63=ORIENTED_EDGE('',*,*,#135,.F.);
#64=ORIENTED_EDGE('',*,*,#136,.T.);
#65=ORIENTED_EDGE('',*,*,#137,.F.);
#66=ORIENTED_EDGE('',*,*,#136,.F.);
#67=ORIENTED_EDGE('',*,*,#138,.T.);
#68=ORIENTED_EDGE('',*,*,#139,.T.);
#69=ORIENTED_EDGE('',*,*,#128,.T.);
#70=ORIENTED_EDGE('',*,*,#140,.T.);
#71=ORIENTED_EDGE('',*,*,#138,.F.);
#72=ORIENTED_EDGE('',*,*,#135,.T.);
#73=ORIENTED_EDGE('',*,*,#118,.T.);
#74=ORIENTED_EDGE('',*,*,#131,.T.);
#75=ORIENTED_EDGE('',*,*,#127,.F.);
#76=ORIENTED_EDGE('',*,*,#111,.T.);
#77=ORIENTED_EDGE('',*,*,#129,.F.);
#78=ORIENTED_EDGE('',*,*,#116,.F.);
#79=ORIENTED_EDGE('',*,*,#134,.F.);
#80=ORIENTED_EDGE('',*,*,#137,.T.);
#81=ORIENTED_EDGE('',*,*,#141,.T.);
#82=ORIENTED_EDGE('',*,*,#139,.F.);
#83=ORIENTED_EDGE('',*,*,#140,.F.);
#84=ORIENTED_EDGE('',*,*,#130,.T.);
#85=ORIENTED_EDGE('',*,*,#109,.F.);
#86=ORIENTED_EDGE('',*,*,#126,.T.);
#87=ORIENTED_EDGE('',*,*,#141,.F.);
#88=ORIENTED_EDGE('',*,*,#133,.T.);
#89=ORIENTED_EDGE('',*,*,#125,.T.);
#90=ORIENTED_EDGE('',*,*,#132,.T.);
#91=ORIENTED_EDGE('',*,*,#124,.T.);
#92=ORIENTED_EDGE('',*,*,#142,.T.);
#93=ORIENTED_EDGE('',*,*,#120,.F.);
#94=ORIENTED_EDGE('',*,*,#143,.F.);
#95=ORIENTED_EDGE('',*,*,#113,.F.);
#96=ORIENTED_EDGE('',*,*,#143,.T.);
#97=ORIENTED_EDGE('',*,*,#123,.F.);
#98=ORIENTED_EDGE('',*,*,#144,.F.);
#99=ORIENTED_EDGE('',*,*,#114,.F.);
#100=ORIENTED_EDGE('',*,*,#115,.T.);
#101=ORIENTED_EDGE('',*,*,#144,.T.);
#102=ORIENTED_EDGE('',*,*,#122,.T.);
#103=ORIENTED_EDGE('',*,*,#145,.F.);
#104=ORIENTED_EDGE('',*,*,#112,.T.);
#105=ORIENTED_EDGE('',*,*,#145,.T.);
#106=ORIENTED_EDGE('',*,*,#121,.T.);
#107=ORIENTED_EDGE('',*,*,#142,.F.);
#108=EDGE_CURVE('',#146,#147,#172,.T.);
#109=EDGE_CURVE('',#146,#148,#173,.T.);
#110=EDGE_CURVE('',#148,#149,#174,.T.);
#111=EDGE_CURVE('',#147,#149,#175,.T.);
#112=EDGE_CURVE('',#150,#151,#176,.T.);
#113=EDGE_CURVE('',#150,#152,#24,.F.);
#114=EDGE_CURVE('',#152,#153,#177,.T.);
#115=EDGE_CURVE('',#151,#153,#25,.T.);
#116=EDGE_CURVE('',#154,#155,#178,.T.);
#117=EDGE_CURVE('',#156,#155,#179,.T.);
#118=EDGE_CURVE('',#157,#156,#180,.T.);
#119=EDGE_CURVE('',#157,#154,#181,.T.);
#120=EDGE_CURVE('',#158,#159,#26,.T.);
#121=EDGE_CURVE('',#160,#159,#182,.T.);
#122=EDGE_CURVE('',#161,#160,#27,.T.);
#123=EDGE_CURVE('',#161,#158,#183,.T.);
#124=EDGE_CURVE('',#162,#162,#28,.F.);
#125=EDGE_CURVE('',#163,#163,#29,.F.);
#126=EDGE_CURVE('',#146,#164,#184,.T.);
#127=EDGE_CURVE('',#147,#165,#185,.T.);
#128=EDGE_CURVE('',#164,#165,#186,.T.);
#129=EDGE_CURVE('',#155,#149,#187,.T.);
#130=EDGE_CURVE('',#166,#148,#188,.T.);
#131=EDGE_CURVE('',#156,#166,#189,.T.);
#132=EDGE_CURVE('',#167,#167,#30,.T.);
#133=EDGE_CURVE('',#168,#168,#31,.T.);
#134=EDGE_CURVE('',#169,#154,#190,.T.);
#135=EDGE_CURVE('',#170,#157,#191,.T.);
#136=EDGE_CURVE('',#170,#169,#192,.T.);
#137=EDGE_CURVE('',#169,#165,#193,.T.);
#138=EDGE_CURVE('',#170,#171,#194,.T.);
#139=EDGE_CURVE('',#171,#164,#195,.T.);
#140=EDGE_CURVE('',#166,#171,#196,.T.);
#141=EDGE_CURVE('',#148,#164,#197,.T.);
#142=EDGE_CURVE('',#150,#159,#198,.T.);
#143=EDGE_CURVE('',#152,#158,#199,.T.);
#144=EDGE_CURVE('',#153,#161,#200,.T.);
#145=EDGE_CURVE('',#151,#160,#201,.T.);
#146=VERTEX_POINT('',#428);
#147=VERTEX_POINT('',#429);
#148=VERTEX_POINT('',#431);
#149=VERTEX_POINT('',#433);
#150=VERTEX_POINT('',#436);
#151=VERTEX_POINT('',#437);
#152=VERTEX_POINT('',#439);
#153=VERTEX_POINT('',#441);
#154=VERTEX_POINT('',#445);
#155=VERTEX_POINT('',#446);
#156=VERTEX_POINT('',#448);
#157=VERTEX_POINT('',#450);
#158=VERTEX_POINT('',#453);
#159=VERTEX_POINT('',#454);
#160=VERTEX_POINT('',#456);
#161=VERTEX_POINT('',#458);
#162=VERTEX_POINT('',#462);
#163=VERTEX_POINT('',#464);
#164=VERTEX_POINT('',#466);
#165=VERTEX_POINT('',#468);
#166=VERTEX_POINT('',#473);
#167=VERTEX_POINT('',#477);
#168=VERTEX_POINT('',#479);
#169=VERTEX_POINT('',#481);
#170=VERTEX_POINT('',#483);
#171=VERTEX_POINT('',#488);
#172=LINE('',#427,#202);
#173=LINE('',#430,#203);
#174=LINE('',#432,#204);
#175=LINE('',#434,#205);
#176=LINE('',#435,#206);
#177=LINE('',#440,#207);
#178=LINE('',#444,#208);
#179=LINE('',#447,#209);
#180=LINE('',#449,#210);
#181=LINE('',#451,#211);
#182=LINE('',#455,#212);
#183=LINE('',#459,#213);
#184=LINE('',#465,#214);
#185=LINE('',#467,#215);
#186=LINE('',#469,#216);
#187=LINE('',#471,#217);
#188=LINE('',#472,#218);
#189=LINE('',#474,#219);
#190=LINE('',#480,#220);
#191=LINE('',#482,#221);
#192=LINE('',#484,#222);
#193=LINE('',#486,#223);
#194=LINE('',#487,#224);
#195=LINE('',#489,#225);
#196=LINE('',#491,#226);
#197=LINE('',#494,#227);
#198=LINE('',#499,#228);
#199=LINE('',#500,#229);
#200=LINE('',#502,#230);
#201=LINE('',#504,#231);
#202=VECTOR('',#349,1.);
#203=VECTOR('',#350,1.);
#204=VECTOR('',#351,1.);
#205=VECTOR('',#352,1.);
#206=VECTOR('',#353,1.);
#207=VECTOR('',#356,1.);
#208=VECTOR('',#361,1.);
#209=VECTOR('',#362,1.);
#210=VECTOR('',#363,1.);
#211=VECTOR('',#364,1.);
#212=VECTOR('',#367,1.);
#213=VECTOR('',#370,1.);
#214=VECTOR('',#377,1.);
#215=VECTOR('',#378,1.);
#216=VECTOR('',#379,1.);
#217=VECTOR('',#382,1.);
#218=VECTOR('',#383,1.);
#219=VECTOR('',#384,1.);
#220=VECTOR('',#391,1.);
#221=VECTOR('',#392,1.);
#222=VECTOR('',#393,1.);
#223=VECTOR('',#396,1.);
#224=VECTOR('',#397,1.);
#225=VECTOR('',#398,1.);
#226=VECTOR('',#401,1.);
#227=VECTOR('',#406,1.);
#228=VECTOR('',#415,1.);
#229=VECTOR('',#416,1.);
#230=VECTOR('',#419,1.);
#231=VECTOR('',#422,1.);
#232=EDGE_LOOP('',(#32,#33,#34,#35));
#233=EDGE_LOOP('',(#36,#37,#38,#39));
#234=EDGE_LOOP('',(#40,#41,#42,#43));
#235=EDGE_LOOP('',(#44,#45,#46,#47));
#236=EDGE_LOOP('',(#48));
#237=EDGE_LOOP('',(#49));
#238=EDGE_LOOP('',(#50,#51,#52,#53));
#239=EDGE_LOOP('',(#54,#55,#56,#57,#58));
#240=EDGE_LOOP('',(#59));
#241=EDGE_LOOP('',(#60));
#242=EDGE_LOOP('',(#61,#62,#63,#64));
#243=EDGE_LOOP('',(#65,#66,#67,#68,#69));
#244=EDGE_LOOP('',(#70,#71,#72,#73,#74));
#245=EDGE_LOOP('',(#75,#76,#77,#78,#79,#80));
#246=EDGE_LOOP('',(#81,#82,#83,#84));
#247=EDGE_LOOP('',(#85,#86,#87));
#248=EDGE_LOOP('',(#88));
#249=EDGE_LOOP('',(#89));
#250=EDGE_LOOP('',(#90));
#251=EDGE_LOOP('',(#91));
#252=EDGE_LOOP('',(#92,#93,#94,#95));
#253=EDGE_LOOP('',(#96,#97,#98,#99));
#254=EDGE_LOOP('',(#100,#101,#102,#103));
#255=EDGE_LOOP('',(#104,#105,#106,#107));
#256=FACE_BOUND('',#232,.T.);
#257=FACE_BOUND('',#233,.T.);
#258=FACE_BOUND('',#234,.T.);
#259=FACE_BOUND('',#235,.T.);
#260=FACE_BOUND('',#236,.T.);
#261=FACE_BOUND('',#237,.T.);
#262=FACE_BOUND('',#238,.T.);
#263=FACE_BOUND('',#239,.T.);
#264=FACE_BOUND('',#240,.T.);
#265=FACE_BOUND('',#241,.T.);
#266=FACE_BOUND('',#242,.T.);
#267=FACE_BOUND('',#243,.T.);
#268=FACE_BOUND('',#244,.T.);
#269=FACE_BOUND('',#245,.T.);
#270=FACE_BOUND('',#246,.T.);
#271=FACE_BOUND('',#247,.T.);
#272=FACE_BOUND('',#248,.T.);
#273=FACE_BOUND('',#249,.T.);
#274=FACE_BOUND('',#250,.T.);
#275=FACE_BOUND('',#251,.T.);
#276=FACE_BOUND('',#252,.T.);
#277=FACE_BOUND('',#253,.T.);
#278=FACE_BOUND('',#254,.T.);
#279=FACE_BOUND('',#255,.T.);
#280=PLANE('',#321);
#281=PLANE('',#324);
#282=PLANE('',#327);
#283=PLANE('',#330);
#284=PLANE('',#331);
#285=PLANE('',#334);
#286=PLANE('',#335);
#287=PLANE('',#336);
#288=PLANE('',#337);
#289=PLANE('',#338);
#290=PLANE('',#342);
#291=PLANE('',#344);
#292=ADVANCED_FACE('',(#256,#257),#280,.T.);
#293=ADVANCED_FACE('',(#258,#259),#281,.F.);
#294=ADVANCED_FACE('',(#260,#261,#262),#282,.F.);
#295=ADVANCED_FACE('',(#263),#283,.F.);
#296=ADVANCED_FACE('',(#264,#265,#266),#284,.F.);
#297=ADVANCED_FACE('',(#267),#285,.T.);
#298=ADVANCED_FACE('',(#268),#286,.F.);
#299=ADVANCED_FACE('',(#269),#287,.T.);
#300=ADVANCED_FACE('',(#270),#288,.F.);
#301=ADVANCED_FACE('',(#271),#289,.T.);
#302=ADVANCED_FACE('',(#272,#273),#20,.F.);
#303=ADVANCED_FACE('',(#274,#275),#21,.F.);
#304=ADVANCED_FACE('',(#276),#22,.F.);
#305=ADVANCED_FACE('',(#277),#290,.T.);
#306=ADVANCED_FACE('',(#278),#23,.F.);
#307=ADVANCED_FACE('',(#279),#291,.F.);
#308=CLOSED_SHELL('',(#292,#293,#294,#295,#296,#297,#298,#299,#300,#301,
#302,#303,#304,#305,#306,#307));
#309=STYLED_ITEM('',(#310),#317);
#310=PRESENTATION_STYLE_ASSIGNMENT((#311));
#311=SURFACE_STYLE_USAGE(.BOTH.,#312);
#312=SURFACE_SIDE_STYLE('',(#313));
#313=SURFACE_STYLE_FILL_AREA(#314);
#314=FILL_AREA_STYLE('',(#315));
#315=FILL_AREA_STYLE_COLOUR('',#316);
#316=COLOUR_RGB('',0.615686274509804,0.811764705882353,0.929411764705882);
#317=MANIFOLD_SOLID_BREP('Part 1',#308);
#318=SHAPE_DEFINITION_REPRESENTATION(#512,#319);
#319=SHAPE_REPRESENTATION('Part 1',(#320),#507);
#320=AXIS2_PLACEMENT_3D('',#425,#345,#346);
#321=AXIS2_PLACEMENT_3D('',#426,#347,#348);
#322=AXIS2_PLACEMENT_3D('',#438,#354,#355);
#323=AXIS2_PLACEMENT_3D('',#442,#357,#358);
#324=AXIS2_PLACEMENT_3D('',#443,#359,#360);
#325=AXIS2_PLACEMENT_3D('',#452,#365,#366);
#326=AXIS2_PLACEMENT_3D('',#457,#368,#369);
#327=AXIS2_PLACEMENT_3D('',#460,#371,#372);
#328=AXIS2_PLACEMENT_3D('',#461,#373,#374);
#329=AXIS2_PLACEMENT_3D('',#463,#375,#376);
#330=AXIS2_PLACEMENT_3D('',#470,#380,#381);
#331=AXIS2_PLACEMENT_3D('',#475,#385,#386);
#332=AXIS2_PLACEMENT_3D('',#476,#387,#388);
#333=AXIS2_PLACEMENT_3D('',#478,#389,#390);
#334=AXIS2_PLACEMENT_3D('',#485,#394,#395);
#335=AXIS2_PLACEMENT_3D('',#490,#399,#400);
#336=AXIS2_PLACEMENT_3D('',#492,#402,#403);
#337=AXIS2_PLACEMENT_3D('',#493,#404,#405);
#338=AXIS2_PLACEMENT_3D('',#495,#407,#408);
#339=AXIS2_PLACEMENT_3D('',#496,#409,#410);
#340=AXIS2_PLACEMENT_3D('',#497,#411,#412);
#341=AXIS2_PLACEMENT_3D('',#498,#413,#414);
#342=AXIS2_PLACEMENT_3D('',#501,#417,#418);
#343=AXIS2_PLACEMENT_3D('',#503,#420,#421);
#344=AXIS2_PLACEMENT_3D('',#505,#423,#424);
#345=DIRECTION('',(0.,0.,1.));
#346=DIRECTION('',(1.,0.,0.));
#347=DIRECTION('',(0.,0.,-1.));
#348=DIRECTION('',(-1.,0.,0.));
#349=DIRECTION('',(0.,-1.,0.));
#350=DIRECTION('',(1.,0.,0.));
#351=DIRECTION('',(0.,-1.,0.));
#352=DIRECTION('',(1.,0.,0.));
#353=DIRECTION('',(-1.,0.,0.));
#354=DIRECTION('',(0.,0.,-1.));
#355=DIRECTION('',(-1.,0.,0.));
#356=DIRECTION('',(-1.,0.,0.));
#357=DIRECTION('',(0.,0.,-1.));
#358=DIRECTION('',(-1.,0.,0.));
#359=DIRECTION('',(0.,0.,-1.));
#360=DIRECTION('',(-1.,0.,0.));
#361=DIRECTION('',(1.,0.,0.));
#362=DIRECTION('',(0.,-1.,0.));
#363=DIRECTION('',(1.,0.,0.));
#364=DIRECTION('',(0.,-1.,0.));
#365=DIRECTION('',(0.,0.,-1.));
#366=DIRECTION('',(1.,0.,0.));
#367=DIRECTION('',(1.,0.,0.));
#368=DIRECTION('',(0.,0.,1.));
#369=DIRECTION('',(1.,0.,0.));
#370=DIRECTION('',(1.,0.,0.));
#371=DIRECTION('',(-1.,0.,-1.13583084736577E-16));
#372=DIRECTION('',(-1.13583084736577E-16,0.,1.));
#373=DIRECTION('',(-1.,0.,-1.13583084736577E-16));
#374=DIRECTION('',(-1.13583084736577E-16,0.,1.));
#375=DIRECTION('',(-1.,0.,-1.13583084736577E-16));
#376=DIRECTION('',(-1.13583084736577E-16,0.,1.));
#377=DIRECTION('',(1.13583084736577E-16,0.,-1.));
#378=DIRECTION('',(1.13583084736577E-16,0.,-1.));
#379=DIRECTION('',(0.,-1.,0.));
#380=DIRECTION('',(-1.,0.,0.));
#381=DIRECTION('',(0.,0.,1.));
#382=DIRECTION('',(0.,0.,-1.));
#383=DIRECTION('',(0.,-1.,0.));
#384=DIRECTION('',(0.,0.,-1.));
#385=DIRECTION('',(1.,0.,0.));
#386=DIRECTION('',(0.,0.,-1.));
#387=DIRECTION('',(-1.,0.,0.));
#388=DIRECTION('',(0.,0.,1.));
#389=DIRECTION('',(-1.,0.,0.));
#390=DIRECTION('',(0.,0.,1.));
#391=DIRECTION('',(0.,0.,1.));
#392=DIRECTION('',(0.,0.,1.));
#393=DIRECTION('',(0.,-1.,0.));
#394=DIRECTION('',(-5.55111512312578E-17,0.,-1.));
#395=DIRECTION('',(-1.,0.,5.55111512312578E-17));
#396=DIRECTION('',(1.,0.,-5.55111512312578E-17));
#397=DIRECTION('',(1.,0.,-5.55111512312578E-17));
#398=DIRECTION('',(0.,-1.,0.));
#399=DIRECTION('',(0.,-1.,0.));
#400=DIRECTION('',(1.,0.,0.));
#401=DIRECTION('',(-0.78086880944303,0.,-0.624695047554425));
#402=DIRECTION('',(0.,-1.,0.));
#403=DIRECTION('',(1.,0.,0.));
#404=DIRECTION('',(-0.624695047554424,0.,0.78086880944303));
#405=DIRECTION('',(0.78086880944303,0.,0.624695047554424));
#406=DIRECTION('',(-0.78086880944303,0.,-0.624695047554425));
#407=DIRECTION('',(0.,-1.,0.));
#408=DIRECTION('',(1.,0.,0.));
#409=DIRECTION('',(-1.,0.,0.));
#410=DIRECTION('',(0.,0.,1.));
#411=DIRECTION('',(-1.,0.,0.));
#412=DIRECTION('',(0.,0.,1.));
#413=DIRECTION('',(0.,0.,1.));
#414=DIRECTION('',(1.,0.,0.));
#415=DIRECTION('',(0.,0.,1.));
#416=DIRECTION('',(0.,0.,1.));
#417=DIRECTION('',(0.,-1.,0.));
#418=DIRECTION('',(0.,0.,-1.));
#419=DIRECTION('',(0.,0.,1.));
#420=DIRECTION('',(0.,0.,1.));
#421=DIRECTION('',(1.,0.,0.));
#422=DIRECTION('',(0.,0.,1.));
#423=DIRECTION('',(0.,-1.,0.));
#424=DIRECTION('',(0.,0.,-1.));
#425=CARTESIAN_POINT('',(0.,0.,0.));
#426=CARTESIAN_POINT('',(0.0575,0.03,0.084));
#427=CARTESIAN_POINT('',(0.005,0.03,0.084));
#428=CARTESIAN_POINT('',(0.005,0.025,0.084));
#429=CARTESIAN_POINT('',(0.005,0.,0.084));
#430=CARTESIAN_POINT('',(0.0575,0.025,0.084));
#431=CARTESIAN_POINT('',(0.11,0.025,0.084));
#432=CARTESIAN_POINT('',(0.11,0.03,0.084));
#433=CARTESIAN_POINT('',(0.11,0.,0.084));
#434=CARTESIAN_POINT('',(0.0575,0.,0.084));
#435=CARTESIAN_POINT('',(0.0575,0.008,0.084));
#436=CARTESIAN_POINT('',(0.1,0.008,0.084));
#437=CARTESIAN_POINT('',(0.02,0.008,0.084));
#438=CARTESIAN_POINT('',(0.1,0.011,0.084));
#439=CARTESIAN_POINT('',(0.1,0.014,0.084));
#440=CARTESIAN_POINT('',(0.0575,0.014,0.084));
#441=CARTESIAN_POINT('',(0.02,0.014,0.084));
#442=CARTESIAN_POINT('',(0.02,0.011,0.084));
#443=CARTESIAN_POINT('',(0.055,0.03,0.089));
#444=CARTESIAN_POINT('',(0.055,0.,0.089));
#445=CARTESIAN_POINT('',(0.,0.,0.089));
#446=CARTESIAN_POINT('',(0.11,0.,0.089));
#447=CARTESIAN_POINT('',(0.11,0.03,0.089));
#448=CARTESIAN_POINT('',(0.11,0.03,0.089));
#449=CARTESIAN_POINT('',(0.055,0.03,0.089));
#450=CARTESIAN_POINT('',(0.,0.03,0.089));
#451=CARTESIAN_POINT('',(0.,0.03,0.089));
#452=CARTESIAN_POINT('',(0.1,0.011,0.089));
#453=CARTESIAN_POINT('',(0.1,0.014,0.089));
#454=CARTESIAN_POINT('',(0.1,0.008,0.089));
#455=CARTESIAN_POINT('',(0.06,0.008,0.089));
#456=CARTESIAN_POINT('',(0.02,0.008,0.089));
#457=CARTESIAN_POINT('',(0.02,0.011,0.089));
#458=CARTESIAN_POINT('',(0.02,0.014,0.089));
#459=CARTESIAN_POINT('',(0.06,0.014,0.089));
#460=CARTESIAN_POINT('',(0.005,0.03,0.042));
#461=CARTESIAN_POINT('',(0.005,0.011,0.06));
#462=CARTESIAN_POINT('',(0.005,0.011,0.0645));
#463=CARTESIAN_POINT('',(0.005,0.011,0.02));
#464=CARTESIAN_POINT('',(0.005,0.011,0.0245));
#465=CARTESIAN_POINT('',(0.005,0.025,0.042));
#466=CARTESIAN_POINT('',(0.005,0.025,-3.46944695195361E-17));
#467=CARTESIAN_POINT('',(0.005,0.,0.042));
#468=CARTESIAN_POINT('',(0.005,0.,-3.46944695195361E-17));
#469=CARTESIAN_POINT('',(0.005,0.03,-3.46944695195361E-17));
#470=CARTESIAN_POINT('',(0.11,0.03,0.0865));
#471=CARTESIAN_POINT('',(0.11,0.,0.0865));
#472=CARTESIAN_POINT('',(0.11,0.03,0.084));
#473=CARTESIAN_POINT('',(0.11,0.03,0.084));
#474=CARTESIAN_POINT('',(0.11,0.03,0.0865));
#475=CARTESIAN_POINT('',(0.,0.03,0.0445));
#476=CARTESIAN_POINT('',(0.,0.011,0.06));
#477=CARTESIAN_POINT('',(0.,0.011,0.0645));
#478=CARTESIAN_POINT('',(0.,0.011,0.02));
#479=CARTESIAN_POINT('',(0.,0.011,0.0245));
#480=CARTESIAN_POINT('',(0.,0.,0.0445));
#481=CARTESIAN_POINT('',(-2.16840434497101E-19,0.,4.8919202022546E-19));
#482=CARTESIAN_POINT('',(0.,0.03,0.0445));
#483=CARTESIAN_POINT('',(-2.16840434497101E-19,0.03,4.8919202022546E-19));
#484=CARTESIAN_POINT('',(-2.16840434497101E-19,0.03,4.8919202022546E-19));
#485=CARTESIAN_POINT('',(0.0025,0.03,3.50414142147315E-19));
#486=CARTESIAN_POINT('',(0.0025,0.,3.50414142147315E-19));
#487=CARTESIAN_POINT('',(0.0025,0.03,3.50414142147315E-19));
#488=CARTESIAN_POINT('',(0.005,0.03,-3.46944695195361E-17));
#489=CARTESIAN_POINT('',(0.005,0.03,-3.46944695195361E-17));
#490=CARTESIAN_POINT('',(0.055,0.03,0.0445));
#491=CARTESIAN_POINT('',(0.0575,0.03,0.042));
#492=CARTESIAN_POINT('',(0.055,0.,0.0445));
#493=CARTESIAN_POINT('',(0.0575,0.03,0.042));
#494=CARTESIAN_POINT('',(0.0575,0.025,0.042));
#495=CARTESIAN_POINT('',(0.055,0.025,0.0445));
#496=CARTESIAN_POINT('',(0.145992871124305,0.011,0.02));
#497=CARTESIAN_POINT('',(0.145992871124305,0.011,0.06));
#498=CARTESIAN_POINT('',(0.1,0.011,-0.055650934731493));
#499=CARTESIAN_POINT('',(0.1,0.008,-0.055650934731493));
#500=CARTESIAN_POINT('',(0.1,0.014,-0.055650934731493));
#501=CARTESIAN_POINT('',(0.06,0.014,-0.055650934731493));
#502=CARTESIAN_POINT('',(0.02,0.014,-0.055650934731493));
#503=CARTESIAN_POINT('',(0.02,0.011,-0.055650934731493));
#504=CARTESIAN_POINT('',(0.02,0.008,-0.055650934731493));
#505=CARTESIAN_POINT('',(0.06,0.008,-0.055650934731493));
#506=MECHANICAL_DESIGN_GEOMETRIC_PRESENTATION_REPRESENTATION('',(#309),
#507);
#507=(
GEOMETRIC_REPRESENTATION_CONTEXT(3)
GLOBAL_UNCERTAINTY_ASSIGNED_CONTEXT((#508))
GLOBAL_UNIT_ASSIGNED_CONTEXT((#511,#510,#509))
REPRESENTATION_CONTEXT('Part 1','TOP_LEVEL_ASSEMBLY_PART')
);
#508=UNCERTAINTY_MEASURE_WITH_UNIT(LENGTH_MEASURE(5.E-6),#511,
'DISTANCE_ACCURACY_VALUE','Maximum Tolerance applied to model');
#509=(
NAMED_UNIT(*)
SI_UNIT($,.STERADIAN.)
SOLID_ANGLE_UNIT()
);
#510=(
NAMED_UNIT(*)
PLANE_ANGLE_UNIT()
SI_UNIT($,.RADIAN.)
);
#511=(
LENGTH_UNIT()
NAMED_UNIT(*)
SI_UNIT($,.METRE.)
);
#512=PRODUCT_DEFINITION_SHAPE('','',#513);
#513=PRODUCT_DEFINITION('','',#515,#514);
#514=PRODUCT_DEFINITION_CONTEXT('',#521,'design');
#515=PRODUCT_DEFINITION_FORMATION_WITH_SPECIFIED_SOURCE('','',#517,
 .NOT_KNOWN.);
#516=PRODUCT_RELATED_PRODUCT_CATEGORY('','',(#517));
#517=PRODUCT('Part 1','Part 1','Part 1',(#519));
#518=PRODUCT_CATEGORY('','');
#519=PRODUCT_CONTEXT('',#521,'mechanical');
#520=APPLICATION_PROTOCOL_DEFINITION('international standard',
'automotive_design',2010,#521);
#521=APPLICATION_CONTEXT(
'core data for automotive mechanical design processes');
ENDSEC;
END-ISO-10303-21;
