ISO-10303-21;
HEADER;
FILE_DESCRIPTION (( 'STEP AP214' ),
    '1' );
FILE_NAME ('Plaque inox.STEP',
    '2020-10-07T07:29:08',
    ( '' ),
    ( '' ),
    'SwSTEP 2.0',
    'SolidWorks 2014',
    '' );
FILE_SCHEMA (( 'AUTOMOTIVE_DESIGN' ));
ENDSEC;

DATA;
#1 = DIRECTION ( 'NONE',  ( -0.0000000000000000000, -1.000000000000000000, -0.0000000000000000000 ) ) ;
#2 = ORIENTED_EDGE ( 'NONE', *, *, #145, .T. ) ;
#3 = LINE ( 'NONE', #72, #159 ) ;
#4 = EDGE_CURVE ( 'NONE', #155, #54, #69, .T. ) ;
#5 = CARTESIAN_POINT ( 'NONE',  ( -1200.000000000000000, 699.9999999999998900, 4.000000000000000000 ) ) ;
#6 = PRODUCT_DEFINITION_CONTEXT ( 'detailed design', #139, 'design' ) ;
#7 = FILL_AREA_STYLE ('',( #118 ) ) ;
#8 =( NAMED_UNIT ( * ) SI_UNIT ( $, .STERADIAN. ) SOLID_ANGLE_UNIT ( ) );
#9 = ORIENTED_EDGE ( 'NONE', *, *, #120, .F. ) ;
#10 = CARTESIAN_POINT ( 'NONE',  ( 0.0000000000000000000, 0.0000000000000000000, 0.0000000000000000000 ) ) ;
#11 = PRODUCT_DEFINITION ( 'UNKNOWN', '', #188, #6 ) ;
#12 = ORIENTED_EDGE ( 'NONE', *, *, #79, .T. ) ;
#13 = VECTOR ( 'NONE', #89, 1000.000000000000000 ) ;
#14 = APPLICATION_CONTEXT ( 'automotive_design' ) ;
#15 = ORIENTED_EDGE ( 'NONE', *, *, #132, .T. ) ;
#16 = CARTESIAN_POINT ( 'NONE',  ( 0.0000000000000000000, 0.0000000000000000000, 4.000000000000000000 ) ) ;
#17 = SURFACE_STYLE_FILL_AREA ( #7 ) ;
#18 = AXIS2_PLACEMENT_3D ( 'NONE', #135, #182, #165 ) ;
#19 = ORIENTED_EDGE ( 'NONE', *, *, #125, .F. ) ;
#20 = VERTEX_POINT ( 'NONE', #158 ) ;
#21 = SURFACE_SIDE_STYLE ('',( #17 ) ) ;
#22 = VECTOR ( 'NONE', #101, 1000.000000000000000 ) ;
#23 = CARTESIAN_POINT ( 'NONE',  ( 0.0000000000000000000, 700.0000000000000000, 0.0000000000000000000 ) ) ;
#24 = COLOUR_RGB ( '',0.7921568627450980000, 0.8196078431372548800, 0.9333333333333333500 ) ;
#25 = SURFACE_STYLE_USAGE ( .BOTH. , #122 ) ;
#26 = CARTESIAN_POINT ( 'NONE',  ( -1200.000000000000000, 0.0000000000000000000, 4.000000000000000000 ) ) ;
#27 = AXIS2_PLACEMENT_3D ( 'NONE', #149, #186, #28 ) ;
#28 = DIRECTION ( 'NONE',  ( 1.000000000000000000, 9.251858538542971600E-017, 0.0000000000000000000 ) ) ;
#29 = VECTOR ( 'NONE', #1, 1000.000000000000000 ) ;
#30 = PRODUCT_CONTEXT ( 'NONE', #14, 'mechanical' ) ;
#31 =( NAMED_UNIT ( * ) SI_UNIT ( $, .STERADIAN. ) SOLID_ANGLE_UNIT ( ) );
#32 = PRESENTATION_LAYER_ASSIGNMENT (  '', '', ( #83 ) ) ;
#33 = VERTEX_POINT ( 'NONE', #70 ) ;
#34 = VECTOR ( 'NONE', #180, 1000.000000000000000 ) ;
#35 = EDGE_LOOP ( 'NONE', ( #12, #191, #82, #117 ) ) ;
#36 = FACE_OUTER_BOUND ( 'NONE', #190, .T. ) ;
#37 = VERTEX_POINT ( 'NONE', #144 ) ;
#38 = UNCERTAINTY_MEASURE_WITH_UNIT (LENGTH_MEASURE( 1.000000000000000100E-005 ), #138, 'distance_accuracy_value', 'NONE');
#39 = LINE ( 'NONE', #41, #34 ) ;
#40 = EDGE_CURVE ( 'NONE', #20, #156, #187, .T. ) ;
#41 = CARTESIAN_POINT ( 'NONE',  ( 0.0000000000000000000, 700.0000000000000000, 4.000000000000000000 ) ) ;
#42 = PRESENTATION_LAYER_ASSIGNMENT (  '', '', ( #161 ) ) ;
#43 = DIRECTION ( 'NONE',  ( -0.0000000000000000000, -0.0000000000000000000, -1.000000000000000000 ) ) ;
#44 = PRESENTATION_STYLE_ASSIGNMENT (( #25 ) ) ;
#45 = CARTESIAN_POINT ( 'NONE',  ( -1200.000000000000000, 699.9999999999998900, 0.0000000000000000000 ) ) ;
#46 = DIRECTION ( 'NONE',  ( 0.0000000000000000000, 1.000000000000000000, -0.0000000000000000000 ) ) ;
#47 = DIRECTION ( 'NONE',  ( -1.000000000000000000, 0.0000000000000000000, 0.0000000000000000000 ) ) ;
#48 = LINE ( 'NONE', #150, #171 ) ;
#49 = MANIFOLD_SOLID_BREP ( 'Boss.-Extru.1', #88 ) ;
#50 = EDGE_LOOP ( 'NONE', ( #98, #19, #108, #160 ) ) ;
#51 = ORIENTED_EDGE ( 'NONE', *, *, #4, .F. ) ;
#52 = CARTESIAN_POINT ( 'NONE',  ( -1200.000000000000000, 0.0000000000000000000, 4.000000000000000000 ) ) ;
#53 = LINE ( 'NONE', #133, #174 ) ;
#54 = VERTEX_POINT ( 'NONE', #67 ) ;
#55 = CARTESIAN_POINT ( 'NONE',  ( 0.0000000000000000000, 0.0000000000000000000, 0.0000000000000000000 ) ) ;
#56 = DIRECTION ( 'NONE',  ( 0.0000000000000000000, 1.000000000000000000, 0.0000000000000000000 ) ) ;
#57 = ORIENTED_EDGE ( 'NONE', *, *, #99, .T. ) ;
#58 = PLANE ( 'NONE',  #142 ) ;
#59 = ORIENTED_EDGE ( 'NONE', *, *, #176, .F. ) ;
#60 = DIRECTION ( 'NONE',  ( 0.0000000000000000000, 0.0000000000000000000, 1.000000000000000000 ) ) ;
#61 =( GEOMETRIC_REPRESENTATION_CONTEXT ( 3 ) GLOBAL_UNCERTAINTY_ASSIGNED_CONTEXT ( ( #38 ) ) GLOBAL_UNIT_ASSIGNED_CONTEXT ( ( #138, #78, #31 ) ) REPRESENTATION_CONTEXT ( 'NONE', 'WORKASPACE' ) );
#62 = PLANE ( 'NONE',  #73 ) ;
#63 = COLOUR_RGB ( '',0.7921568627450980000, 0.8196078431372548800, 0.9333333333333333500 ) ;
#64 = DIRECTION ( 'NONE',  ( 1.000000000000000000, -0.0000000000000000000, -0.0000000000000000000 ) ) ;
#65 = ORIENTED_EDGE ( 'NONE', *, *, #68, .F. ) ;
#66 = ORIENTED_EDGE ( 'NONE', *, *, #120, .T. ) ;
#67 = CARTESIAN_POINT ( 'NONE',  ( 0.0000000000000000000, 0.0000000000000000000, 0.0000000000000000000 ) ) ;
#68 = EDGE_CURVE ( 'NONE', #20, #148, #119, .T. ) ;
#69 = LINE ( 'NONE', #193, #168 ) ;
#70 = CARTESIAN_POINT ( 'NONE',  ( -1200.000000000000000, 0.0000000000000000000, 0.0000000000000000000 ) ) ;
#71 = LINE ( 'NONE', #104, #29 ) ;
#72 = CARTESIAN_POINT ( 'NONE',  ( 0.0000000000000000000, 0.0000000000000000000, 4.000000000000000000 ) ) ;
#73 = AXIS2_PLACEMENT_3D ( 'NONE', #26, #111, #199 ) ;
#74 = CARTESIAN_POINT ( 'NONE',  ( 0.0000000000000000000, 0.0000000000000000000, 4.000000000000000000 ) ) ;
#75 = AXIS2_PLACEMENT_3D ( 'NONE', #137, #46, #189 ) ;
#76 = DIRECTION ( 'NONE',  ( 0.0000000000000000000, 0.0000000000000000000, 1.000000000000000000 ) ) ;
#77 = FILL_AREA_STYLE ('',( #170 ) ) ;
#78 =( NAMED_UNIT ( * ) PLANE_ANGLE_UNIT ( ) SI_UNIT ( $, .RADIAN. ) );
#79 = EDGE_CURVE ( 'NONE', #54, #114, #129, .T. ) ;
#80 = DIRECTION ( 'NONE',  ( 1.000000000000000000, 0.0000000000000000000, -0.0000000000000000000 ) ) ;
#81 = LINE ( 'NONE', #55, #154 ) ;
#82 = ORIENTED_EDGE ( 'NONE', *, *, #110, .F. ) ;
#83 = STYLED_ITEM ( 'NONE', ( #143 ), #49 ) ;
#84 = LINE ( 'NONE', #121, #124 ) ;
#85 = DIRECTION ( 'NONE',  ( -0.0000000000000000000, -1.000000000000000000, -0.0000000000000000000 ) ) ;
#86 = ADVANCED_BREP_SHAPE_REPRESENTATION ( 'Plaque inox', ( #49, #87 ), #106 ) ;
#87 = AXIS2_PLACEMENT_3D ( 'NONE', #167, #76, #202 ) ;
#88 = CLOSED_SHELL ( 'NONE', ( #146, #198, #164, #181, #123, #166 ) ) ;
#89 = DIRECTION ( 'NONE',  ( 0.0000000000000000000, 1.000000000000000000, 0.0000000000000000000 ) ) ;
#90 = SURFACE_STYLE_FILL_AREA ( #77 ) ;
#91 =( NAMED_UNIT ( * ) SI_UNIT ( $, .STERADIAN. ) SOLID_ANGLE_UNIT ( ) );
#92 = ORIENTED_EDGE ( 'NONE', *, *, #110, .T. ) ;
#93 = CARTESIAN_POINT ( 'NONE',  ( 0.0000000000000000000, 0.0000000000000000000, 4.000000000000000000 ) ) ;
#94 =( GEOMETRIC_REPRESENTATION_CONTEXT ( 3 ) GLOBAL_UNCERTAINTY_ASSIGNED_CONTEXT ( ( #185 ) ) GLOBAL_UNIT_ASSIGNED_CONTEXT ( ( #178, #102, #8 ) ) REPRESENTATION_CONTEXT ( 'NONE', 'WORKASPACE' ) );
#95 =( NAMED_UNIT ( * ) PLANE_ANGLE_UNIT ( ) SI_UNIT ( $, .RADIAN. ) );
#96 = ORIENTED_EDGE ( 'NONE', *, *, #176, .T. ) ;
#97 = ORIENTED_EDGE ( 'NONE', *, *, #132, .F. ) ;
#98 = ORIENTED_EDGE ( 'NONE', *, *, #79, .F. ) ;
#99 = EDGE_CURVE ( 'NONE', #114, #148, #53, .T. ) ;
#100 = FACE_OUTER_BOUND ( 'NONE', #201, .T. ) ;
#101 = DIRECTION ( 'NONE',  ( -0.0000000000000000000, -0.0000000000000000000, -1.000000000000000000 ) ) ;
#102 =( NAMED_UNIT ( * ) PLANE_ANGLE_UNIT ( ) SI_UNIT ( $, .RADIAN. ) );
#103 = DIRECTION ( 'NONE',  ( -0.0000000000000000000, -0.0000000000000000000, -1.000000000000000000 ) ) ;
#104 = CARTESIAN_POINT ( 'NONE',  ( -1200.000000000000000, 0.0000000000000000000, 0.0000000000000000000 ) ) ;
#105 = DIRECTION ( 'NONE',  ( -1.000000000000000000, -9.251858538542971600E-017, 0.0000000000000000000 ) ) ;
#106 =( GEOMETRIC_REPRESENTATION_CONTEXT ( 3 ) GLOBAL_UNCERTAINTY_ASSIGNED_CONTEXT ( ( #192 ) ) GLOBAL_UNIT_ASSIGNED_CONTEXT ( ( #197, #95, #91 ) ) REPRESENTATION_CONTEXT ( 'NONE', 'WORKASPACE' ) );
#107 = DIRECTION ( 'NONE',  ( -0.0000000000000000000, -0.0000000000000000000, -1.000000000000000000 ) ) ;
#108 = ORIENTED_EDGE ( 'NONE', *, *, #145, .F. ) ;
#109 = MECHANICAL_DESIGN_GEOMETRIC_PRESENTATION_REPRESENTATION (  '', ( #83 ), #94 ) ;
#110 = EDGE_CURVE ( 'NONE', #155, #37, #3, .T. ) ;
#111 = DIRECTION ( 'NONE',  ( 1.000000000000000000, 0.0000000000000000000, 0.0000000000000000000 ) ) ;
#112 = EDGE_LOOP ( 'NONE', ( #57, #65, #9, #179 ) ) ;
#113 = EDGE_CURVE ( 'NONE', #37, #114, #84, .T. ) ;
#114 = VERTEX_POINT ( 'NONE', #23 ) ;
#115 = VECTOR ( 'NONE', #195, 1000.000000000000000 ) ;
#116 = PRODUCT_RELATED_PRODUCT_CATEGORY ( 'part', '', ( #184 ) ) ;
#117 = ORIENTED_EDGE ( 'NONE', *, *, #4, .T. ) ;
#118 = FILL_AREA_STYLE_COLOUR ( '', #24 ) ;
#119 = LINE ( 'NONE', #5, #22 ) ;
#120 = EDGE_CURVE ( 'NONE', #37, #20, #39, .T. ) ;
#121 = CARTESIAN_POINT ( 'NONE',  ( 0.0000000000000000000, 700.0000000000000000, 4.000000000000000000 ) ) ;
#122 = SURFACE_SIDE_STYLE ('',( #90 ) ) ;
#123 = ADVANCED_FACE ( 'NONE', ( #200 ), #162, .T. ) ;
#124 = VECTOR ( 'NONE', #43, 1000.000000000000000 ) ;
#125 = EDGE_CURVE ( 'NONE', #33, #54, #81, .T. ) ;
#126 = APPLICATION_PROTOCOL_DEFINITION ( 'draft international standard', 'automotive_design', 1998, #14 ) ;
#127 = DIRECTION ( 'NONE',  ( 0.0000000000000000000, -0.0000000000000000000, 1.000000000000000000 ) ) ;
#128 = SHAPE_DEFINITION_REPRESENTATION ( #141, #86 ) ;
#129 = LINE ( 'NONE', #10, #13 ) ;
#130 = FACE_OUTER_BOUND ( 'NONE', #112, .T. ) ;
#131 = ORIENTED_EDGE ( 'NONE', *, *, #68, .T. ) ;
#132 = EDGE_CURVE ( 'NONE', #156, #155, #194, .T. ) ;
#133 = CARTESIAN_POINT ( 'NONE',  ( 0.0000000000000000000, 700.0000000000000000, 0.0000000000000000000 ) ) ;
#134 = ORIENTED_EDGE ( 'NONE', *, *, #40, .F. ) ;
#135 = CARTESIAN_POINT ( 'NONE',  ( 0.0000000000000000000, 0.0000000000000000000, 4.000000000000000000 ) ) ;
#136 = AXIS2_PLACEMENT_3D ( 'NONE', #172, #127, #80 ) ;
#137 = CARTESIAN_POINT ( 'NONE',  ( 0.0000000000000000000, 0.0000000000000000000, 4.000000000000000000 ) ) ;
#138 =( LENGTH_UNIT ( ) NAMED_UNIT ( * ) SI_UNIT ( .MILLI., .METRE. ) );
#139 = APPLICATION_CONTEXT ( 'automotive_design' ) ;
#140 = PLANE ( 'NONE',  #27 ) ;
#141 = PRODUCT_DEFINITION_SHAPE ( 'NONE', 'NONE',  #11 ) ;
#142 = AXIS2_PLACEMENT_3D ( 'NONE', #16, #47, #60 ) ;
#143 = PRESENTATION_STYLE_ASSIGNMENT (( #157 ) ) ;
#144 = CARTESIAN_POINT ( 'NONE',  ( 0.0000000000000000000, 700.0000000000000000, 4.000000000000000000 ) ) ;
#145 = EDGE_CURVE ( 'NONE', #148, #33, #71, .T. ) ;
#146 = ADVANCED_FACE ( 'NONE', ( #163 ), #58, .F. ) ;
#147 = FACE_OUTER_BOUND ( 'NONE', #50, .T. ) ;
#148 = VERTEX_POINT ( 'NONE', #45 ) ;
#149 = CARTESIAN_POINT ( 'NONE',  ( 0.0000000000000000000, 700.0000000000000000, 4.000000000000000000 ) ) ;
#150 = CARTESIAN_POINT ( 'NONE',  ( -1200.000000000000000, 0.0000000000000000000, 4.000000000000000000 ) ) ;
#151 = PLANE ( 'NONE',  #75 ) ;
#152 = CARTESIAN_POINT ( 'NONE',  ( -1200.000000000000000, 0.0000000000000000000, 4.000000000000000000 ) ) ;
#153 = ORIENTED_EDGE ( 'NONE', *, *, #125, .T. ) ;
#154 = VECTOR ( 'NONE', #64, 1000.000000000000000 ) ;
#155 = VERTEX_POINT ( 'NONE', #93 ) ;
#156 = VERTEX_POINT ( 'NONE', #152 ) ;
#157 = SURFACE_STYLE_USAGE ( .BOTH. , #21 ) ;
#158 = CARTESIAN_POINT ( 'NONE',  ( -1200.000000000000000, 699.9999999999998900, 4.000000000000000000 ) ) ;
#159 = VECTOR ( 'NONE', #56, 1000.000000000000000 ) ;
#160 = ORIENTED_EDGE ( 'NONE', *, *, #99, .F. ) ;
#161 = STYLED_ITEM ( 'NONE', ( #44 ), #86 ) ;
#162 = PLANE ( 'NONE',  #18 ) ;
#163 = FACE_OUTER_BOUND ( 'NONE', #35, .T. ) ;
#164 = ADVANCED_FACE ( 'NONE', ( #36 ), #62, .F. ) ;
#165 = DIRECTION ( 'NONE',  ( 1.000000000000000000, 0.0000000000000000000, -0.0000000000000000000 ) ) ;
#166 = ADVANCED_FACE ( 'NONE', ( #147 ), #169, .F. ) ;
#167 = CARTESIAN_POINT ( 'NONE',  ( 0.0000000000000000000, 0.0000000000000000000, 0.0000000000000000000 ) ) ;
#168 = VECTOR ( 'NONE', #103, 1000.000000000000000 ) ;
#169 = PLANE ( 'NONE',  #136 ) ;
#170 = FILL_AREA_STYLE_COLOUR ( '', #63 ) ;
#171 = VECTOR ( 'NONE', #107, 1000.000000000000000 ) ;
#172 = CARTESIAN_POINT ( 'NONE',  ( 0.0000000000000000000, 0.0000000000000000000, 0.0000000000000000000 ) ) ;
#173 = ORIENTED_EDGE ( 'NONE', *, *, #40, .T. ) ;
#174 = VECTOR ( 'NONE', #105, 1000.000000000000000 ) ;
#175 = MECHANICAL_DESIGN_GEOMETRIC_PRESENTATION_REPRESENTATION (  '', ( #161 ), #61 ) ;
#176 = EDGE_CURVE ( 'NONE', #156, #33, #48, .T. ) ;
#177 = VECTOR ( 'NONE', #85, 1000.000000000000000 ) ;
#178 =( LENGTH_UNIT ( ) NAMED_UNIT ( * ) SI_UNIT ( .MILLI., .METRE. ) );
#179 = ORIENTED_EDGE ( 'NONE', *, *, #113, .T. ) ;
#180 = DIRECTION ( 'NONE',  ( -1.000000000000000000, -9.251858538542971600E-017, 0.0000000000000000000 ) ) ;
#181 = ADVANCED_FACE ( 'NONE', ( #100 ), #151, .F. ) ;
#182 = DIRECTION ( 'NONE',  ( 0.0000000000000000000, -0.0000000000000000000, 1.000000000000000000 ) ) ;
#183 = APPLICATION_PROTOCOL_DEFINITION ( 'draft international standard', 'automotive_design', 1998, #139 ) ;
#184 = PRODUCT ( 'Plaque inox', 'Plaque inox', '', ( #30 ) ) ;
#185 = UNCERTAINTY_MEASURE_WITH_UNIT (LENGTH_MEASURE( 1.000000000000000100E-005 ), #178, 'distance_accuracy_value', 'NONE');
#186 = DIRECTION ( 'NONE',  ( 9.251858538542971600E-017, -1.000000000000000000, 0.0000000000000000000 ) ) ;
#187 = LINE ( 'NONE', #52, #177 ) ;
#188 = PRODUCT_DEFINITION_FORMATION_WITH_SPECIFIED_SOURCE ( 'ANY', '', #184, .NOT_KNOWN. ) ;
#189 = DIRECTION ( 'NONE',  ( 0.0000000000000000000, 0.0000000000000000000, 1.000000000000000000 ) ) ;
#190 = EDGE_LOOP ( 'NONE', ( #2, #59, #134, #131 ) ) ;
#191 = ORIENTED_EDGE ( 'NONE', *, *, #113, .F. ) ;
#192 = UNCERTAINTY_MEASURE_WITH_UNIT (LENGTH_MEASURE( 1.000000000000000100E-005 ), #197, 'distance_accuracy_value', 'NONE');
#193 = CARTESIAN_POINT ( 'NONE',  ( 0.0000000000000000000, 0.0000000000000000000, 4.000000000000000000 ) ) ;
#194 = LINE ( 'NONE', #74, #115 ) ;
#195 = DIRECTION ( 'NONE',  ( 1.000000000000000000, -0.0000000000000000000, -0.0000000000000000000 ) ) ;
#196 = EDGE_LOOP ( 'NONE', ( #92, #66, #173, #15 ) ) ;
#197 =( LENGTH_UNIT ( ) NAMED_UNIT ( * ) SI_UNIT ( .MILLI., .METRE. ) );
#198 = ADVANCED_FACE ( 'NONE', ( #130 ), #140, .F. ) ;
#199 = DIRECTION ( 'NONE',  ( 0.0000000000000000000, 0.0000000000000000000, -1.000000000000000000 ) ) ;
#200 = FACE_OUTER_BOUND ( 'NONE', #196, .T. ) ;
#201 = EDGE_LOOP ( 'NONE', ( #153, #51, #97, #96 ) ) ;
#202 = DIRECTION ( 'NONE',  ( 1.000000000000000000, 0.0000000000000000000, 0.0000000000000000000 ) ) ;
ENDSEC;
END-ISO-10303-21;
