ISO-10303-21;
HEADER;
/* Generated by software containing ST-Developer
 * from STEP Tools, Inc. (www.steptools.com) 
 */

FILE_DESCRIPTION(
/* description */ (''),
/* implementation_level */ '2;1');

FILE_NAME(
/* name */ '/Users/romainfabre/Desktop/moyeu.step',
/* time_stamp */ '2020-10-02T18:56:19+02:00',
/* author */ (''),
/* organization */ (''),
/* preprocessor_version */ 'ST-DEVELOPER v18.1',
/* originating_system */ 'Autodesk Translation Framework v9.3.0.1241',
/* authorisation */ '');

FILE_SCHEMA (('AUTOMOTIVE_DESIGN { 1 0 10303 214 3 1 1 }'));
ENDSEC;

DATA;
#10=MECHANICAL_DESIGN_GEOMETRIC_PRESENTATION_REPRESENTATION('',(#13),#287);
#11=SHAPE_REPRESENTATION_RELATIONSHIP('SRR','None',#294,#12);
#12=ADVANCED_BREP_SHAPE_REPRESENTATION('',(#14),#286);
#13=STYLED_ITEM('',(#303),#14);
#14=MANIFOLD_SOLID_BREP('Corps1',#159);
#15=FACE_BOUND('',#38,.T.);
#16=FACE_BOUND('',#45,.T.);
#17=FACE_BOUND('',#46,.T.);
#18=FACE_BOUND('',#47,.T.);
#19=FACE_BOUND('',#48,.T.);
#20=FACE_BOUND('',#50,.T.);
#21=FACE_BOUND('',#51,.T.);
#22=FACE_BOUND('',#52,.T.);
#23=FACE_BOUND('',#53,.T.);
#24=PLANE('',#176);
#25=PLANE('',#192);
#26=PLANE('',#193);
#27=FACE_OUTER_BOUND('',#36,.T.);
#28=FACE_OUTER_BOUND('',#37,.T.);
#29=FACE_OUTER_BOUND('',#39,.T.);
#30=FACE_OUTER_BOUND('',#40,.T.);
#31=FACE_OUTER_BOUND('',#41,.T.);
#32=FACE_OUTER_BOUND('',#42,.T.);
#33=FACE_OUTER_BOUND('',#43,.T.);
#34=FACE_OUTER_BOUND('',#44,.T.);
#35=FACE_OUTER_BOUND('',#49,.T.);
#36=EDGE_LOOP('',(#108,#109,#110,#111));
#37=EDGE_LOOP('',(#112));
#38=EDGE_LOOP('',(#113));
#39=EDGE_LOOP('',(#114,#115,#116,#117));
#40=EDGE_LOOP('',(#118,#119,#120,#121));
#41=EDGE_LOOP('',(#122,#123,#124,#125));
#42=EDGE_LOOP('',(#126,#127,#128,#129));
#43=EDGE_LOOP('',(#130,#131,#132,#133));
#44=EDGE_LOOP('',(#134));
#45=EDGE_LOOP('',(#135));
#46=EDGE_LOOP('',(#136));
#47=EDGE_LOOP('',(#137));
#48=EDGE_LOOP('',(#138));
#49=EDGE_LOOP('',(#139));
#50=EDGE_LOOP('',(#140));
#51=EDGE_LOOP('',(#141));
#52=EDGE_LOOP('',(#142));
#53=EDGE_LOOP('',(#143));
#54=LINE('',#249,#60);
#55=LINE('',#258,#61);
#56=LINE('',#264,#62);
#57=LINE('',#269,#63);
#58=LINE('',#274,#64);
#59=LINE('',#280,#65);
#60=VECTOR('',#200,15.);
#61=VECTOR('',#211,4.5);
#62=VECTOR('',#218,4.5);
#63=VECTOR('',#225,10.);
#64=VECTOR('',#230,4.5);
#65=VECTOR('',#237,52.5);
#66=CIRCLE('',#174,15.);
#67=CIRCLE('',#175,15.);
#68=CIRCLE('',#177,10.);
#69=CIRCLE('',#179,4.5);
#70=CIRCLE('',#180,4.5);
#71=CIRCLE('',#182,4.5);
#72=CIRCLE('',#183,4.5);
#73=CIRCLE('',#185,10.);
#74=CIRCLE('',#187,4.5);
#75=CIRCLE('',#188,4.5);
#76=CIRCLE('',#190,52.5);
#77=CIRCLE('',#191,52.5);
#78=VERTEX_POINT('',#246);
#79=VERTEX_POINT('',#248);
#80=VERTEX_POINT('',#252);
#81=VERTEX_POINT('',#255);
#82=VERTEX_POINT('',#257);
#83=VERTEX_POINT('',#261);
#84=VERTEX_POINT('',#263);
#85=VERTEX_POINT('',#267);
#86=VERTEX_POINT('',#271);
#87=VERTEX_POINT('',#273);
#88=VERTEX_POINT('',#277);
#89=VERTEX_POINT('',#279);
#90=EDGE_CURVE('',#78,#78,#66,.T.);
#91=EDGE_CURVE('',#78,#79,#54,.T.);
#92=EDGE_CURVE('',#79,#79,#67,.T.);
#93=EDGE_CURVE('',#80,#80,#68,.T.);
#94=EDGE_CURVE('',#81,#81,#69,.T.);
#95=EDGE_CURVE('',#81,#82,#55,.T.);
#96=EDGE_CURVE('',#82,#82,#70,.T.);
#97=EDGE_CURVE('',#83,#83,#71,.T.);
#98=EDGE_CURVE('',#83,#84,#56,.T.);
#99=EDGE_CURVE('',#84,#84,#72,.T.);
#100=EDGE_CURVE('',#85,#85,#73,.T.);
#101=EDGE_CURVE('',#85,#80,#57,.T.);
#102=EDGE_CURVE('',#86,#86,#74,.T.);
#103=EDGE_CURVE('',#86,#87,#58,.T.);
#104=EDGE_CURVE('',#87,#87,#75,.T.);
#105=EDGE_CURVE('',#88,#88,#76,.T.);
#106=EDGE_CURVE('',#88,#89,#59,.T.);
#107=EDGE_CURVE('',#89,#89,#77,.T.);
#108=ORIENTED_EDGE('',*,*,#90,.F.);
#109=ORIENTED_EDGE('',*,*,#91,.T.);
#110=ORIENTED_EDGE('',*,*,#92,.F.);
#111=ORIENTED_EDGE('',*,*,#91,.F.);
#112=ORIENTED_EDGE('',*,*,#90,.T.);
#113=ORIENTED_EDGE('',*,*,#93,.T.);
#114=ORIENTED_EDGE('',*,*,#94,.F.);
#115=ORIENTED_EDGE('',*,*,#95,.T.);
#116=ORIENTED_EDGE('',*,*,#96,.T.);
#117=ORIENTED_EDGE('',*,*,#95,.F.);
#118=ORIENTED_EDGE('',*,*,#97,.F.);
#119=ORIENTED_EDGE('',*,*,#98,.T.);
#120=ORIENTED_EDGE('',*,*,#99,.T.);
#121=ORIENTED_EDGE('',*,*,#98,.F.);
#122=ORIENTED_EDGE('',*,*,#100,.F.);
#123=ORIENTED_EDGE('',*,*,#101,.T.);
#124=ORIENTED_EDGE('',*,*,#93,.F.);
#125=ORIENTED_EDGE('',*,*,#101,.F.);
#126=ORIENTED_EDGE('',*,*,#102,.F.);
#127=ORIENTED_EDGE('',*,*,#103,.T.);
#128=ORIENTED_EDGE('',*,*,#104,.T.);
#129=ORIENTED_EDGE('',*,*,#103,.F.);
#130=ORIENTED_EDGE('',*,*,#105,.F.);
#131=ORIENTED_EDGE('',*,*,#106,.T.);
#132=ORIENTED_EDGE('',*,*,#107,.T.);
#133=ORIENTED_EDGE('',*,*,#106,.F.);
#134=ORIENTED_EDGE('',*,*,#105,.T.);
#135=ORIENTED_EDGE('',*,*,#102,.T.);
#136=ORIENTED_EDGE('',*,*,#100,.T.);
#137=ORIENTED_EDGE('',*,*,#97,.T.);
#138=ORIENTED_EDGE('',*,*,#94,.T.);
#139=ORIENTED_EDGE('',*,*,#107,.F.);
#140=ORIENTED_EDGE('',*,*,#92,.T.);
#141=ORIENTED_EDGE('',*,*,#104,.F.);
#142=ORIENTED_EDGE('',*,*,#99,.F.);
#143=ORIENTED_EDGE('',*,*,#96,.F.);
#144=CYLINDRICAL_SURFACE('',#173,15.);
#145=CYLINDRICAL_SURFACE('',#178,4.5);
#146=CYLINDRICAL_SURFACE('',#181,4.5);
#147=CYLINDRICAL_SURFACE('',#184,10.);
#148=CYLINDRICAL_SURFACE('',#186,4.5);
#149=CYLINDRICAL_SURFACE('',#189,52.5);
#150=ADVANCED_FACE('',(#27),#144,.T.);
#151=ADVANCED_FACE('',(#28,#15),#24,.F.);
#152=ADVANCED_FACE('',(#29),#145,.F.);
#153=ADVANCED_FACE('',(#30),#146,.F.);
#154=ADVANCED_FACE('',(#31),#147,.F.);
#155=ADVANCED_FACE('',(#32),#148,.F.);
#156=ADVANCED_FACE('',(#33),#149,.T.);
#157=ADVANCED_FACE('',(#34,#16,#17,#18,#19),#25,.T.);
#158=ADVANCED_FACE('',(#35,#20,#21,#22,#23),#26,.F.);
#159=CLOSED_SHELL('',(#150,#151,#152,#153,#154,#155,#156,#157,#158));
#160=DERIVED_UNIT_ELEMENT(#162,1.);
#161=DERIVED_UNIT_ELEMENT(#289,3.);
#162=(
MASS_UNIT()
NAMED_UNIT(*)
SI_UNIT(.KILO.,.GRAM.)
);
#163=DERIVED_UNIT((#160,#161));
#164=MEASURE_REPRESENTATION_ITEM('density measure',
POSITIVE_RATIO_MEASURE(7850.),#163);
#165=PROPERTY_DEFINITION_REPRESENTATION(#170,#167);
#166=PROPERTY_DEFINITION_REPRESENTATION(#171,#168);
#167=REPRESENTATION('material name',(#169),#286);
#168=REPRESENTATION('density',(#164),#286);
#169=DESCRIPTIVE_REPRESENTATION_ITEM('Acier','Acier');
#170=PROPERTY_DEFINITION('material property','material name',#296);
#171=PROPERTY_DEFINITION('material property','density of part',#296);
#172=AXIS2_PLACEMENT_3D('placement',#244,#194,#195);
#173=AXIS2_PLACEMENT_3D('',#245,#196,#197);
#174=AXIS2_PLACEMENT_3D('',#247,#198,#199);
#175=AXIS2_PLACEMENT_3D('',#250,#201,#202);
#176=AXIS2_PLACEMENT_3D('',#251,#203,#204);
#177=AXIS2_PLACEMENT_3D('',#253,#205,#206);
#178=AXIS2_PLACEMENT_3D('',#254,#207,#208);
#179=AXIS2_PLACEMENT_3D('',#256,#209,#210);
#180=AXIS2_PLACEMENT_3D('',#259,#212,#213);
#181=AXIS2_PLACEMENT_3D('',#260,#214,#215);
#182=AXIS2_PLACEMENT_3D('',#262,#216,#217);
#183=AXIS2_PLACEMENT_3D('',#265,#219,#220);
#184=AXIS2_PLACEMENT_3D('',#266,#221,#222);
#185=AXIS2_PLACEMENT_3D('',#268,#223,#224);
#186=AXIS2_PLACEMENT_3D('',#270,#226,#227);
#187=AXIS2_PLACEMENT_3D('',#272,#228,#229);
#188=AXIS2_PLACEMENT_3D('',#275,#231,#232);
#189=AXIS2_PLACEMENT_3D('',#276,#233,#234);
#190=AXIS2_PLACEMENT_3D('',#278,#235,#236);
#191=AXIS2_PLACEMENT_3D('',#281,#238,#239);
#192=AXIS2_PLACEMENT_3D('',#282,#240,#241);
#193=AXIS2_PLACEMENT_3D('',#283,#242,#243);
#194=DIRECTION('axis',(0.,0.,1.));
#195=DIRECTION('refdir',(1.,0.,0.));
#196=DIRECTION('center_axis',(0.,0.,-1.));
#197=DIRECTION('ref_axis',(1.,0.,0.));
#198=DIRECTION('center_axis',(0.,0.,-1.));
#199=DIRECTION('ref_axis',(1.,0.,0.));
#200=DIRECTION('',(0.,0.,1.));
#201=DIRECTION('center_axis',(0.,0.,1.));
#202=DIRECTION('ref_axis',(1.,0.,0.));
#203=DIRECTION('center_axis',(0.,0.,1.));
#204=DIRECTION('ref_axis',(1.,0.,0.));
#205=DIRECTION('center_axis',(0.,0.,1.));
#206=DIRECTION('ref_axis',(1.,0.,0.));
#207=DIRECTION('center_axis',(0.,0.,1.));
#208=DIRECTION('ref_axis',(1.,0.,0.));
#209=DIRECTION('center_axis',(0.,0.,-1.));
#210=DIRECTION('ref_axis',(1.,0.,0.));
#211=DIRECTION('',(0.,0.,-1.));
#212=DIRECTION('center_axis',(0.,0.,-1.));
#213=DIRECTION('ref_axis',(1.,0.,0.));
#214=DIRECTION('center_axis',(0.,0.,1.));
#215=DIRECTION('ref_axis',(1.,0.,0.));
#216=DIRECTION('center_axis',(0.,0.,-1.));
#217=DIRECTION('ref_axis',(1.,0.,0.));
#218=DIRECTION('',(0.,0.,-1.));
#219=DIRECTION('center_axis',(0.,0.,-1.));
#220=DIRECTION('ref_axis',(1.,0.,0.));
#221=DIRECTION('center_axis',(0.,0.,1.));
#222=DIRECTION('ref_axis',(1.,0.,0.));
#223=DIRECTION('center_axis',(0.,0.,-1.));
#224=DIRECTION('ref_axis',(1.,0.,0.));
#225=DIRECTION('',(0.,0.,-1.));
#226=DIRECTION('center_axis',(0.,0.,1.));
#227=DIRECTION('ref_axis',(1.,0.,0.));
#228=DIRECTION('center_axis',(0.,0.,-1.));
#229=DIRECTION('ref_axis',(1.,0.,0.));
#230=DIRECTION('',(0.,0.,-1.));
#231=DIRECTION('center_axis',(0.,0.,-1.));
#232=DIRECTION('ref_axis',(1.,0.,0.));
#233=DIRECTION('center_axis',(0.,0.,1.));
#234=DIRECTION('ref_axis',(1.,0.,0.));
#235=DIRECTION('center_axis',(0.,0.,1.));
#236=DIRECTION('ref_axis',(1.,0.,0.));
#237=DIRECTION('',(0.,0.,-1.));
#238=DIRECTION('center_axis',(0.,0.,1.));
#239=DIRECTION('ref_axis',(1.,0.,0.));
#240=DIRECTION('center_axis',(0.,0.,1.));
#241=DIRECTION('ref_axis',(1.,0.,0.));
#242=DIRECTION('center_axis',(0.,0.,1.));
#243=DIRECTION('ref_axis',(1.,0.,0.));
#244=CARTESIAN_POINT('',(0.,0.,0.));
#245=CARTESIAN_POINT('Origin',(0.,0.,0.));
#246=CARTESIAN_POINT('',(-15.,-1.83697019872103E-15,-10.));
#247=CARTESIAN_POINT('Origin',(0.,0.,-10.));
#248=CARTESIAN_POINT('',(-15.,-1.83697019872103E-15,0.));
#249=CARTESIAN_POINT('',(-15.,1.83697019872103E-15,0.));
#250=CARTESIAN_POINT('Origin',(0.,0.,0.));
#251=CARTESIAN_POINT('Origin',(0.,0.,-10.));
#252=CARTESIAN_POINT('',(-10.,-1.22464679914735E-15,-10.));
#253=CARTESIAN_POINT('Origin',(0.,0.,-10.));
#254=CARTESIAN_POINT('Origin',(-44.3494444589671,7.82072561000866,0.));
#255=CARTESIAN_POINT('',(-48.8494444589671,7.82072561000866,7.));
#256=CARTESIAN_POINT('Origin',(-44.3494444589671,7.82072561000866,7.));
#257=CARTESIAN_POINT('',(-48.8494444589671,7.82072561000866,0.));
#258=CARTESIAN_POINT('',(-48.8494444589671,7.82072561000866,0.));
#259=CARTESIAN_POINT('Origin',(-44.3494444589671,7.82072561000866,0.));
#260=CARTESIAN_POINT('Origin',(28.9476692837786,34.4973827401882,0.));
#261=CARTESIAN_POINT('',(24.4476692837786,34.4973827401882,7.));
#262=CARTESIAN_POINT('Origin',(28.9476692837786,34.4973827401882,7.));
#263=CARTESIAN_POINT('',(24.4476692837786,34.4973827401882,0.));
#264=CARTESIAN_POINT('',(24.4476692837786,34.4973827401882,0.));
#265=CARTESIAN_POINT('Origin',(28.9476692837786,34.4973827401882,0.));
#266=CARTESIAN_POINT('Origin',(0.,0.,0.));
#267=CARTESIAN_POINT('',(-10.,0.,7.));
#268=CARTESIAN_POINT('Origin',(0.,0.,7.));
#269=CARTESIAN_POINT('',(-10.,-1.22464679914735E-15,0.));
#270=CARTESIAN_POINT('Origin',(15.4020221043132,-42.3167079455414,0.));
#271=CARTESIAN_POINT('',(10.9020221043132,-42.3167079455414,7.));
#272=CARTESIAN_POINT('Origin',(15.4020221043132,-42.3167079455414,7.));
#273=CARTESIAN_POINT('',(10.9020221043132,-42.3167079455414,0.));
#274=CARTESIAN_POINT('',(10.9020221043132,-42.3167079455414,0.));
#275=CARTESIAN_POINT('Origin',(15.4020221043132,-42.3167079455414,0.));
#276=CARTESIAN_POINT('Origin',(0.,0.,0.));
#277=CARTESIAN_POINT('',(-52.5,-8.88178419700125E-15,7.));
#278=CARTESIAN_POINT('Origin',(0.,0.,7.));
#279=CARTESIAN_POINT('',(-52.5,-6.4293956955236E-15,0.));
#280=CARTESIAN_POINT('',(-52.5,-6.4293956955236E-15,0.));
#281=CARTESIAN_POINT('Origin',(0.,0.,0.));
#282=CARTESIAN_POINT('Origin',(0.,0.,7.));
#283=CARTESIAN_POINT('Origin',(0.,0.,0.));
#284=UNCERTAINTY_MEASURE_WITH_UNIT(LENGTH_MEASURE(0.01),#288,
'DISTANCE_ACCURACY_VALUE',
'Maximum model space distance between geometric entities at asserted c
onnectivities');
#285=UNCERTAINTY_MEASURE_WITH_UNIT(LENGTH_MEASURE(0.01),#288,
'DISTANCE_ACCURACY_VALUE',
'Maximum model space distance between geometric entities at asserted c
onnectivities');
#286=(
GEOMETRIC_REPRESENTATION_CONTEXT(3)
GLOBAL_UNCERTAINTY_ASSIGNED_CONTEXT((#284))
GLOBAL_UNIT_ASSIGNED_CONTEXT((#288,#290,#291))
REPRESENTATION_CONTEXT('','3D')
);
#287=(
GEOMETRIC_REPRESENTATION_CONTEXT(3)
GLOBAL_UNCERTAINTY_ASSIGNED_CONTEXT((#285))
GLOBAL_UNIT_ASSIGNED_CONTEXT((#288,#290,#291))
REPRESENTATION_CONTEXT('','3D')
);
#288=(
LENGTH_UNIT()
NAMED_UNIT(*)
SI_UNIT(.MILLI.,.METRE.)
);
#289=(
LENGTH_UNIT()
NAMED_UNIT(*)
SI_UNIT($,.METRE.)
);
#290=(
NAMED_UNIT(*)
PLANE_ANGLE_UNIT()
SI_UNIT($,.RADIAN.)
);
#291=(
NAMED_UNIT(*)
SI_UNIT($,.STERADIAN.)
SOLID_ANGLE_UNIT()
);
#292=SHAPE_DEFINITION_REPRESENTATION(#293,#294);
#293=PRODUCT_DEFINITION_SHAPE('',$,#296);
#294=SHAPE_REPRESENTATION('',(#172),#286);
#295=PRODUCT_DEFINITION_CONTEXT('part definition',#300,'design');
#296=PRODUCT_DEFINITION('moyeu','moyeu v1',#297,#295);
#297=PRODUCT_DEFINITION_FORMATION('',$,#302);
#298=PRODUCT_RELATED_PRODUCT_CATEGORY('moyeu v1','moyeu v1',(#302));
#299=APPLICATION_PROTOCOL_DEFINITION('international standard',
'automotive_design',2009,#300);
#300=APPLICATION_CONTEXT(
'Core Data for Automotive Mechanical Design Process');
#301=PRODUCT_CONTEXT('part definition',#300,'mechanical');
#302=PRODUCT('moyeu','moyeu v1',$,(#301));
#303=PRESENTATION_STYLE_ASSIGNMENT((#304));
#304=SURFACE_STYLE_USAGE(.BOTH.,#305);
#305=SURFACE_SIDE_STYLE('',(#306));
#306=SURFACE_STYLE_FILL_AREA(#307);
#307=FILL_AREA_STYLE('Acier - Satin\X\E9',(#308));
#308=FILL_AREA_STYLE_COLOUR('Acier - Satin\X\E9',#309);
#309=COLOUR_RGB('Acier - Satin\X\E9',0.627450980392157,0.627450980392157,
0.627450980392157);
ENDSEC;
END-ISO-10303-21;
