ISO-10303-21;
HEADER;
FILE_DESCRIPTION (( 'STEP AP203' ),
    '1' );
FILE_NAME ('alu.STEP',
    '2020-10-01T16:41:29',
    ( '' ),
    ( '' ),
    'SwSTEP 2.0',
    'SolidWorks 2020',
    '' );
FILE_SCHEMA (( 'CONFIG_CONTROL_DESIGN' ));
ENDSEC;

DATA;
#1 = ORIENTED_EDGE ( 'NONE', *, *, #68, .T. ) ;
#2 = LOCAL_TIME ( 18, 41, 29.00000000000000000, #16 ) ;
#3 = APPROVAL_DATE_TIME ( #135, #173 ) ;
#4 = APPROVAL_ROLE ( '' ) ;
#5 = DATE_TIME_ROLE ( 'classification_date' ) ;
#6 = AXIS2_PLACEMENT_3D ( 'NONE', #67, #86, #102 ) ;
#7 = CALENDAR_DATE ( 2020, 1, 10 ) ;
#8 = EDGE_LOOP ( 'NONE', ( #84, #42, #191, #227 ) ) ;
#9 = DIRECTION ( 'NONE',  ( 1.000000000000000000, 0.0000000000000000000, 0.0000000000000000000 ) ) ;
#10 = DIRECTION ( 'NONE',  ( 0.0000000000000000000, 0.0000000000000000000, -1.000000000000000000 ) ) ;
#11 = LOCAL_TIME ( 18, 41, 29.00000000000000000, #95 ) ;
#12 = CARTESIAN_POINT ( 'NONE',  ( -3.000000000000000444, 0.0000000000000000000, 0.0000000000000000000 ) ) ;
#13 = DIRECTION ( 'NONE',  ( 0.0000000000000000000, 0.0000000000000000000, 1.000000000000000000 ) ) ;
#14 = DATE_TIME_ROLE ( 'creation_date' ) ;
#15 = CARTESIAN_POINT ( 'NONE',  ( -8.000000000000000000, 0.0000000000000000000, 3.500000000000000000 ) ) ;
#16 = COORDINATED_UNIVERSAL_TIME_OFFSET ( 1, 0, .AHEAD. ) ;
#17 = EDGE_CURVE ( 'NONE', #98, #39, #103, .T. ) ;
#18 = VECTOR ( 'NONE', #89, 1000.000000000000000 ) ;
#19 = LINE ( 'NONE', #171, #18 ) ;
#20 = AXIS2_PLACEMENT_3D ( 'NONE', #238, #195, #101 ) ;
#21 = PRODUCT_DEFINITION ( 'UNKNOWN', '', #38, #232 ) ;
#22 = EDGE_CURVE ( 'NONE', #134, #35, #170, .T. ) ;
#23 = PERSON_AND_ORGANIZATION ( #132, #189 ) ;
#24 = EDGE_LOOP ( 'NONE', ( #236, #94, #118, #175 ) ) ;
#25 = EDGE_LOOP ( 'NONE', ( #208, #193 ) ) ;
#26 = CYLINDRICAL_SURFACE ( 'NONE', #125, 8.000000000000000000 ) ;
#27 = DIRECTION ( 'NONE',  ( 1.000000000000000000, 0.0000000000000000000, 0.0000000000000000000 ) ) ;
#28 = PLANE ( 'NONE',  #34 ) ;
#29 = DATE_AND_TIME ( #52, #210 ) ;
#30 = FACE_OUTER_BOUND ( 'NONE', #155, .T. ) ;
#31 = CYLINDRICAL_SURFACE ( 'NONE', #133, 8.000000000000000000 ) ;
#32 = APPROVAL_STATUS ( 'not_yet_approved' ) ;
#33 =( NAMED_UNIT ( * ) PLANE_ANGLE_UNIT ( ) SI_UNIT ( $, .RADIAN. ) );
#34 = AXIS2_PLACEMENT_3D ( 'NONE', #71, #214, #219 ) ;
#35 = VERTEX_POINT ( 'NONE', #146 ) ;
#36 = CC_DESIGN_DATE_AND_TIME_ASSIGNMENT ( #83, #14, ( #21 ) ) ;
#37 = VERTEX_POINT ( 'NONE', #88 ) ;
#38 = PRODUCT_DEFINITION_FORMATION_WITH_SPECIFIED_SOURCE ( 'ANY', '', #113, .NOT_KNOWN. ) ;
#39 = VERTEX_POINT ( 'NONE', #44 ) ;
#40 = CALENDAR_DATE ( 2020, 1, 10 ) ;
#41 = APPLICATION_PROTOCOL_DEFINITION ( 'international standard', 'config_control_design', 1994, #158 ) ;
#42 = ORIENTED_EDGE ( 'NONE', *, *, #247, .T. ) ;
#43 = APPLICATION_PROTOCOL_DEFINITION ( 'international standard', 'config_control_design', 1994, #136 ) ;
#44 = CARTESIAN_POINT ( 'NONE',  ( -8.000000000000000000, 0.0000000000000000000, 0.0000000000000000000 ) ) ;
#45 = DIRECTION ( 'NONE',  ( 0.0000000000000000000, 0.0000000000000000000, 1.000000000000000000 ) ) ;
#46 = PRODUCT_RELATED_PRODUCT_CATEGORY ( 'detail', '', ( #113 ) ) ;
#47 = DIRECTION ( 'NONE',  ( 1.000000000000000000, 0.0000000000000000000, 0.0000000000000000000 ) ) ;
#48 = ADVANCED_FACE ( 'NONE', ( #180 ), #26, .T. ) ;
#49 = CARTESIAN_POINT ( 'NONE',  ( 0.0000000000000000000, 0.0000000000000000000, 0.0000000000000000000 ) ) ;
#50 = PERSON_AND_ORGANIZATION_ROLE ( 'design_supplier' ) ;
#51 = DIRECTION ( 'NONE',  ( -1.000000000000000000, 0.0000000000000000000, 0.0000000000000000000 ) ) ;
#52 = CALENDAR_DATE ( 2020, 1, 10 ) ;
#53 = SECURITY_CLASSIFICATION ( '', '', #72 ) ;
#54 = EDGE_CURVE ( 'NONE', #37, #120, #233, .T. ) ;
#55 = FACE_OUTER_BOUND ( 'NONE', #8, .T. ) ;
#56 = CALENDAR_DATE ( 2020, 1, 10 ) ;
#57 = CYLINDRICAL_SURFACE ( 'NONE', #154, 3.000000000000000444 ) ;
#58 = EDGE_LOOP ( 'NONE', ( #70, #1 ) ) ;
#59 = AXIS2_PLACEMENT_3D ( 'NONE', #85, #161, #27 ) ;
#60 = APPROVAL ( #32, 'UNSPECIFIED' ) ;
#61 = ORIENTED_EDGE ( 'NONE', *, *, #112, .F. ) ;
#62 = ORIENTED_EDGE ( 'NONE', *, *, #17, .T. ) ;
#63 = PERSON_AND_ORGANIZATION ( #132, #189 ) ;
#64 = PERSON_AND_ORGANIZATION_ROLE ( 'design_owner' ) ;
#65 = ORIENTED_EDGE ( 'NONE', *, *, #69, .F. ) ;
#66 = DIRECTION ( 'NONE',  ( -0.0000000000000000000, -0.0000000000000000000, -1.000000000000000000 ) ) ;
#67 = CARTESIAN_POINT ( 'NONE',  ( 0.0000000000000000000, 0.0000000000000000000, 3.500000000000000000 ) ) ;
#68 = EDGE_CURVE ( 'NONE', #35, #134, #188, .T. ) ;
#69 = EDGE_CURVE ( 'NONE', #235, #39, #220, .T. ) ;
#70 = ORIENTED_EDGE ( 'NONE', *, *, #22, .T. ) ;
#71 = CARTESIAN_POINT ( 'NONE',  ( 0.0000000000000000000, 0.0000000000000000000, 0.0000000000000000000 ) ) ;
#72 = SECURITY_CLASSIFICATION_LEVEL ( 'unclassified' ) ;
#73 = DIRECTION ( 'NONE',  ( -0.0000000000000000000, -0.0000000000000000000, -1.000000000000000000 ) ) ;
#74 = AXIS2_PLACEMENT_3D ( 'NONE', #240, #45, #47 ) ;
#75 = CLOSED_SHELL ( 'NONE', ( #246, #77, #48, #225, #199, #129 ) ) ;
#76 = APPROVAL_PERSON_ORGANIZATION ( #63, #215, #4 ) ;
#77 = ADVANCED_FACE ( 'NONE', ( #30 ), #31, .T. ) ;
#78 = UNCERTAINTY_MEASURE_WITH_UNIT (LENGTH_MEASURE( 1.000000000000000082E-05 ), #151, 'distance_accuracy_value', 'NONE');
#79 = DIRECTION ( 'NONE',  ( -1.000000000000000000, 0.0000000000000000000, 0.0000000000000000000 ) ) ;
#80 = ORIENTED_EDGE ( 'NONE', *, *, #139, .T. ) ;
#81 = PERSON_AND_ORGANIZATION ( #132, #189 ) ;
#82 = EDGE_LOOP ( 'NONE', ( #230, #172 ) ) ;
#83 = DATE_AND_TIME ( #7, #11 ) ;
#84 = ORIENTED_EDGE ( 'NONE', *, *, #54, .T. ) ;
#85 = CARTESIAN_POINT ( 'NONE',  ( 0.0000000000000000000, 0.0000000000000000000, 0.0000000000000000000 ) ) ;
#86 = DIRECTION ( 'NONE',  ( 0.0000000000000000000, 0.0000000000000000000, 1.000000000000000000 ) ) ;
#87 = CARTESIAN_POINT ( 'NONE',  ( -3.000000000000000444, 0.0000000000000000000, 3.500000000000000000 ) ) ;
#88 = CARTESIAN_POINT ( 'NONE',  ( -3.000000000000000444, 0.0000000000000000000, 3.500000000000000000 ) ) ;
#89 = DIRECTION ( 'NONE',  ( 0.0000000000000000000, 0.0000000000000000000, -1.000000000000000000 ) ) ;
#90 = CIRCLE ( 'NONE', #229, 8.000000000000000000 ) ;
#91 = CC_DESIGN_APPROVAL ( #173, ( #53 ) ) ;
#92 = CC_DESIGN_DATE_AND_TIME_ASSIGNMENT ( #176, #5, ( #53 ) ) ;
#93 = DIRECTION ( 'NONE',  ( 1.000000000000000000, 0.0000000000000000000, -0.0000000000000000000 ) ) ;
#94 = ORIENTED_EDGE ( 'NONE', *, *, #243, .F. ) ;
#95 = COORDINATED_UNIVERSAL_TIME_OFFSET ( 1, 0, .AHEAD. ) ;
#96 = ORIENTED_EDGE ( 'NONE', *, *, #100, .F. ) ;
#97 = DATE_AND_TIME ( #192, #224 ) ;
#98 = VERTEX_POINT ( 'NONE', #166 ) ;
#99 = VECTOR ( 'NONE', #10, 1000.000000000000000 ) ;
#100 = EDGE_CURVE ( 'NONE', #39, #98, #168, .T. ) ;
#101 = DIRECTION ( 'NONE',  ( 1.000000000000000000, 0.0000000000000000000, 0.0000000000000000000 ) ) ;
#102 = DIRECTION ( 'NONE',  ( 1.000000000000000000, 0.0000000000000000000, 0.0000000000000000000 ) ) ;
#103 = CIRCLE ( 'NONE', #248, 8.000000000000000000 ) ;
#104 = CC_DESIGN_APPROVAL ( #60, ( #38 ) ) ;
#105 = CARTESIAN_POINT ( 'NONE',  ( 3.000000000000000444, 3.673940397442060361E-16, 3.500000000000000000 ) ) ;
#106 = PERSON_AND_ORGANIZATION ( #132, #189 ) ;
#107 = PLANE ( 'NONE',  #194 ) ;
#108 = FACE_BOUND ( 'NONE', #82, .T. ) ;
#109 = DIRECTION ( 'NONE',  ( 0.0000000000000000000, 0.0000000000000000000, 1.000000000000000000 ) ) ;
#110 = AXIS2_PLACEMENT_3D ( 'NONE', #127, #181, #184 ) ;
#111 = CC_DESIGN_PERSON_AND_ORGANIZATION_ASSIGNMENT ( #142, #64, ( #113 ) ) ;
#112 = EDGE_CURVE ( 'NONE', #174, #235, #115, .T. ) ;
#113 = PRODUCT ( 'alu', 'alu', '', ( #234 ) ) ;
#114 = DIRECTION ( 'NONE',  ( 0.0000000000000000000, 0.0000000000000000000, 1.000000000000000000 ) ) ;
#115 = CIRCLE ( 'NONE', #6, 8.000000000000000000 ) ;
#116 = SHAPE_DEFINITION_REPRESENTATION ( #130, #211 ) ;
#117 = ORIENTED_EDGE ( 'NONE', *, *, #17, .F. ) ;
#118 = ORIENTED_EDGE ( 'NONE', *, *, #69, .T. ) ;
#119 = AXIS2_PLACEMENT_3D ( 'NONE', #206, #114, #213 ) ;
#120 = VERTEX_POINT ( 'NONE', #105 ) ;
#121 = APPROVAL_STATUS ( 'not_yet_approved' ) ;
#122 = DIRECTION ( 'NONE',  ( -0.0000000000000000000, -0.0000000000000000000, -1.000000000000000000 ) ) ;
#123 = DIRECTION ( 'NONE',  ( 1.000000000000000000, 0.0000000000000000000, 0.0000000000000000000 ) ) ;
#124 = FACE_OUTER_BOUND ( 'NONE', #212, .T. ) ;
#125 = AXIS2_PLACEMENT_3D ( 'NONE', #185, #122, #197 ) ;
#126 = FACE_OUTER_BOUND ( 'NONE', #25, .T. ) ;
#127 = CARTESIAN_POINT ( 'NONE',  ( 0.0000000000000000000, 0.0000000000000000000, 3.500000000000000000 ) ) ;
#128 = PERSON_AND_ORGANIZATION_ROLE ( 'creator' ) ;
#129 = ADVANCED_FACE ( 'NONE', ( #202 ), #242, .F. ) ;
#130 = PRODUCT_DEFINITION_SHAPE ( 'NONE', 'NONE',  #21 ) ;
#131 = APPROVAL_ROLE ( '' ) ;
#132 = PERSON ( 'UNSPECIFIED', 'UNSPECIFIED', 'UNSPECIFIED', ('UNSPECIFIED'), ('UNSPECIFIED'), ('UNSPECIFIED') ) ;
#133 = AXIS2_PLACEMENT_3D ( 'NONE', #162, #66, #51 ) ;
#134 = VERTEX_POINT ( 'NONE', #12 ) ;
#135 = DATE_AND_TIME ( #56, #198 ) ;
#136 = APPLICATION_CONTEXT ( 'configuration controlled 3d designs of mechanical parts and assemblies' ) ;
#137 = CC_DESIGN_PERSON_AND_ORGANIZATION_ASSIGNMENT ( #147, #50, ( #38 ) ) ;
#138 = ORIENTED_EDGE ( 'NONE', *, *, #68, .F. ) ;
#139 = EDGE_CURVE ( 'NONE', #37, #134, #143, .T. ) ;
#140 = COORDINATED_UNIVERSAL_TIME_OFFSET ( 1, 0, .AHEAD. ) ;
#141 = ORIENTED_EDGE ( 'NONE', *, *, #247, .F. ) ;
#142 = PERSON_AND_ORGANIZATION ( #132, #189 ) ;
#143 = LINE ( 'NONE', #87, #99 ) ;
#144 = DIRECTION ( 'NONE',  ( 0.0000000000000000000, 0.0000000000000000000, 1.000000000000000000 ) ) ;
#145 = CARTESIAN_POINT ( 'NONE',  ( 0.0000000000000000000, 0.0000000000000000000, 0.0000000000000000000 ) ) ;
#146 = CARTESIAN_POINT ( 'NONE',  ( 3.000000000000000444, 3.673940397442060361E-16, 0.0000000000000000000 ) ) ;
#147 = PERSON_AND_ORGANIZATION ( #132, #189 ) ;
#148 = CARTESIAN_POINT ( 'NONE',  ( 0.0000000000000000000, 0.0000000000000000000, 0.0000000000000000000 ) ) ;
#149 = CC_DESIGN_APPROVAL ( #215, ( #21 ) ) ;
#150 = CARTESIAN_POINT ( 'NONE',  ( 0.0000000000000000000, 0.0000000000000000000, 3.500000000000000000 ) ) ;
#151 =( LENGTH_UNIT ( ) NAMED_UNIT ( * ) SI_UNIT ( .MILLI., .METRE. ) );
#152 = MANIFOLD_SOLID_BREP ( 'Enlèv. mat.-Extru.1', #75 ) ;
#153 = COORDINATED_UNIVERSAL_TIME_OFFSET ( 1, 0, .AHEAD. ) ;
#154 = AXIS2_PLACEMENT_3D ( 'NONE', #169, #167, #79 ) ;
#155 = EDGE_LOOP ( 'NONE', ( #61, #209, #62, #65 ) ) ;
#156 = CC_DESIGN_PERSON_AND_ORGANIZATION_ASSIGNMENT ( #241, #128, ( #38 ) ) ;
#157 = CC_DESIGN_SECURITY_CLASSIFICATION ( #53, ( #38 ) ) ;
#158 = APPLICATION_CONTEXT ( 'configuration controlled 3d designs of mechanical parts and assemblies' ) ;
#159 = APPROVAL_DATE_TIME ( #97, #215 ) ;
#160 = CARTESIAN_POINT ( 'NONE',  ( 0.0000000000000000000, 0.0000000000000000000, 3.500000000000000000 ) ) ;
#161 = DIRECTION ( 'NONE',  ( 0.0000000000000000000, 0.0000000000000000000, 1.000000000000000000 ) ) ;
#162 = CARTESIAN_POINT ( 'NONE',  ( 0.0000000000000000000, 0.0000000000000000000, 3.500000000000000000 ) ) ;
#163 = EDGE_CURVE ( 'NONE', #174, #98, #237, .T. ) ;
#164 = DIRECTION ( 'NONE',  ( 1.000000000000000000, 0.0000000000000000000, 0.0000000000000000000 ) ) ;
#165 = APPROVAL_ROLE ( '' ) ;
#166 = CARTESIAN_POINT ( 'NONE',  ( 8.000000000000000000, 9.797174393178825657E-16, 0.0000000000000000000 ) ) ;
#167 = DIRECTION ( 'NONE',  ( 0.0000000000000000000, 0.0000000000000000000, -1.000000000000000000 ) ) ;
#168 = CIRCLE ( 'NONE', #59, 8.000000000000000000 ) ;
#169 = CARTESIAN_POINT ( 'NONE',  ( 0.0000000000000000000, 0.0000000000000000000, 3.500000000000000000 ) ) ;
#170 = CIRCLE ( 'NONE', #201, 3.000000000000000444 ) ;
#171 = CARTESIAN_POINT ( 'NONE',  ( 3.000000000000000444, 3.673940397442060361E-16, 3.500000000000000000 ) ) ;
#172 = ORIENTED_EDGE ( 'NONE', *, *, #196, .F. ) ;
#173 = APPROVAL ( #228, 'UNSPECIFIED' ) ;
#174 = VERTEX_POINT ( 'NONE', #218 ) ;
#175 = ORIENTED_EDGE ( 'NONE', *, *, #100, .T. ) ;
#176 = DATE_AND_TIME ( #40, #2 ) ;
#177 = PERSON_AND_ORGANIZATION_ROLE ( 'creator' ) ;
#178 = VECTOR ( 'NONE', #217, 1000.000000000000000 ) ;
#179 = EDGE_LOOP ( 'NONE', ( #141, #190, #80, #138 ) ) ;
#180 = FACE_OUTER_BOUND ( 'NONE', #24, .T. ) ;
#181 = DIRECTION ( 'NONE',  ( 0.0000000000000000000, 0.0000000000000000000, -1.000000000000000000 ) ) ;
#182 = CC_DESIGN_PERSON_AND_ORGANIZATION_ASSIGNMENT ( #205, #186, ( #53 ) ) ;
#183 = APPROVAL_PERSON_ORGANIZATION ( #106, #60, #165 ) ;
#184 = DIRECTION ( 'NONE',  ( -1.000000000000000000, 0.0000000000000000000, 0.0000000000000000000 ) ) ;
#185 = CARTESIAN_POINT ( 'NONE',  ( 0.0000000000000000000, 0.0000000000000000000, 3.500000000000000000 ) ) ;
#186 = PERSON_AND_ORGANIZATION_ROLE ( 'classification_officer' ) ;
#187 = AXIS2_PLACEMENT_3D ( 'NONE', #145, #13, #9 ) ;
#188 = CIRCLE ( 'NONE', #187, 3.000000000000000444 ) ;
#189 = ORGANIZATION ( 'UNSPECIFIED', 'UNSPECIFIED', '' ) ;
#190 = ORIENTED_EDGE ( 'NONE', *, *, #196, .T. ) ;
#191 = ORIENTED_EDGE ( 'NONE', *, *, #22, .F. ) ;
#192 = CALENDAR_DATE ( 2020, 1, 10 ) ;
#193 = ORIENTED_EDGE ( 'NONE', *, *, #112, .T. ) ;
#194 = AXIS2_PLACEMENT_3D ( 'NONE', #160, #222, #93 ) ;
#195 = DIRECTION ( 'NONE',  ( 0.0000000000000000000, 0.0000000000000000000, 1.000000000000000000 ) ) ;
#196 = EDGE_CURVE ( 'NONE', #120, #37, #207, .T. ) ;
#197 = DIRECTION ( 'NONE',  ( -1.000000000000000000, 0.0000000000000000000, 0.0000000000000000000 ) ) ;
#198 = LOCAL_TIME ( 18, 41, 29.00000000000000000, #153 ) ;
#199 = ADVANCED_FACE ( 'NONE', ( #204, #124 ), #28, .F. ) ;
#200 = DIRECTION ( 'NONE',  ( 0.0000000000000000000, 0.0000000000000000000, 1.000000000000000000 ) ) ;
#201 = AXIS2_PLACEMENT_3D ( 'NONE', #148, #144, #164 ) ;
#202 = FACE_OUTER_BOUND ( 'NONE', #179, .T. ) ;
#203 = APPROVAL_DATE_TIME ( #29, #60 ) ;
#204 = FACE_BOUND ( 'NONE', #58, .T. ) ;
#205 = PERSON_AND_ORGANIZATION ( #132, #189 ) ;
#206 = CARTESIAN_POINT ( 'NONE',  ( 0.0000000000000000000, 0.0000000000000000000, 0.0000000000000000000 ) ) ;
#207 = CIRCLE ( 'NONE', #74, 3.000000000000000444 ) ;
#208 = ORIENTED_EDGE ( 'NONE', *, *, #243, .T. ) ;
#209 = ORIENTED_EDGE ( 'NONE', *, *, #163, .T. ) ;
#210 = LOCAL_TIME ( 18, 41, 29.00000000000000000, #221 ) ;
#211 = ADVANCED_BREP_SHAPE_REPRESENTATION ( 'alu', ( #152, #119 ), #216 ) ;
#212 = EDGE_LOOP ( 'NONE', ( #96, #117 ) ) ;
#213 = DIRECTION ( 'NONE',  ( 1.000000000000000000, 0.0000000000000000000, 0.0000000000000000000 ) ) ;
#214 = DIRECTION ( 'NONE',  ( 0.0000000000000000000, 0.0000000000000000000, 1.000000000000000000 ) ) ;
#215 = APPROVAL ( #121, 'UNSPECIFIED' ) ;
#216 =( GEOMETRIC_REPRESENTATION_CONTEXT ( 3 ) GLOBAL_UNCERTAINTY_ASSIGNED_CONTEXT ( ( #78 ) ) GLOBAL_UNIT_ASSIGNED_CONTEXT ( ( #151, #33, #249 ) ) REPRESENTATION_CONTEXT ( 'NONE', 'WORKASPACE' ) );
#217 = DIRECTION ( 'NONE',  ( -0.0000000000000000000, -0.0000000000000000000, -1.000000000000000000 ) ) ;
#218 = CARTESIAN_POINT ( 'NONE',  ( 8.000000000000000000, 9.797174393178825657E-16, 3.500000000000000000 ) ) ;
#219 = DIRECTION ( 'NONE',  ( 1.000000000000000000, 0.0000000000000000000, -0.0000000000000000000 ) ) ;
#220 = LINE ( 'NONE', #15, #245 ) ;
#221 = COORDINATED_UNIVERSAL_TIME_OFFSET ( 1, 0, .AHEAD. ) ;
#222 = DIRECTION ( 'NONE',  ( 0.0000000000000000000, 0.0000000000000000000, 1.000000000000000000 ) ) ;
#223 = CC_DESIGN_PERSON_AND_ORGANIZATION_ASSIGNMENT ( #23, #177, ( #21 ) ) ;
#224 = LOCAL_TIME ( 18, 41, 29.00000000000000000, #140 ) ;
#225 = ADVANCED_FACE ( 'NONE', ( #108, #126 ), #107, .T. ) ;
#226 = DIRECTION ( 'NONE',  ( 1.000000000000000000, 0.0000000000000000000, 0.0000000000000000000 ) ) ;
#227 = ORIENTED_EDGE ( 'NONE', *, *, #139, .F. ) ;
#228 = APPROVAL_STATUS ( 'not_yet_approved' ) ;
#229 = AXIS2_PLACEMENT_3D ( 'NONE', #150, #109, #226 ) ;
#230 = ORIENTED_EDGE ( 'NONE', *, *, #54, .F. ) ;
#231 = APPROVAL_PERSON_ORGANIZATION ( #81, #173, #131 ) ;
#232 = DESIGN_CONTEXT ( 'detailed design', #158, 'design' ) ;
#233 = CIRCLE ( 'NONE', #20, 3.000000000000000444 ) ;
#234 = MECHANICAL_CONTEXT ( 'NONE', #136, 'mechanical' ) ;
#235 = VERTEX_POINT ( 'NONE', #244 ) ;
#236 = ORIENTED_EDGE ( 'NONE', *, *, #163, .F. ) ;
#237 = LINE ( 'NONE', #239, #178 ) ;
#238 = CARTESIAN_POINT ( 'NONE',  ( 0.0000000000000000000, 0.0000000000000000000, 3.500000000000000000 ) ) ;
#239 = CARTESIAN_POINT ( 'NONE',  ( 8.000000000000000000, 9.797174393178825657E-16, 3.500000000000000000 ) ) ;
#240 = CARTESIAN_POINT ( 'NONE',  ( 0.0000000000000000000, 0.0000000000000000000, 3.500000000000000000 ) ) ;
#241 = PERSON_AND_ORGANIZATION ( #132, #189 ) ;
#242 = CYLINDRICAL_SURFACE ( 'NONE', #110, 3.000000000000000444 ) ;
#243 = EDGE_CURVE ( 'NONE', #235, #174, #90, .T. ) ;
#244 = CARTESIAN_POINT ( 'NONE',  ( -8.000000000000000000, 0.0000000000000000000, 3.500000000000000000 ) ) ;
#245 = VECTOR ( 'NONE', #73, 1000.000000000000000 ) ;
#246 = ADVANCED_FACE ( 'NONE', ( #55 ), #57, .F. ) ;
#247 = EDGE_CURVE ( 'NONE', #120, #35, #19, .T. ) ;
#248 = AXIS2_PLACEMENT_3D ( 'NONE', #49, #200, #123 ) ;
#249 =( NAMED_UNIT ( * ) SI_UNIT ( $, .STERADIAN. ) SOLID_ANGLE_UNIT ( ) );
ENDSEC;
END-ISO-10303-21;
