ISO-10303-21;
HEADER;
/* Generated by software containing ST-Developer
 * from STEP Tools, Inc. (www.steptools.com) 
 */

FILE_DESCRIPTION(
/* description */ (''),
/* implementation_level */ '2;1');

FILE_NAME(
/* name */ '/Users/romainfabre/Desktop/Arbre.step',
/* time_stamp */ '2020-09-30T22:04:30+02:00',
/* author */ (''),
/* organization */ (''),
/* preprocessor_version */ 'ST-DEVELOPER v18.1',
/* originating_system */ 'Autodesk Translation Framework v9.3.0.1241',
/* authorisation */ '');

FILE_SCHEMA (('AUTOMOTIVE_DESIGN { 1 0 10303 214 3 1 1 }'));
ENDSEC;

DATA;
#10=MECHANICAL_DESIGN_GEOMETRIC_PRESENTATION_REPRESENTATION('',(#13),#494);
#11=SHAPE_REPRESENTATION_RELATIONSHIP('SRR','None',#501,#12);
#12=ADVANCED_BREP_SHAPE_REPRESENTATION('',(#14),#493);
#13=STYLED_ITEM('',(#510),#14);
#14=MANIFOLD_SOLID_BREP('Corps1',#278);
#15=FACE_BOUND('',#59,.T.);
#16=FACE_BOUND('',#60,.T.);
#17=FACE_BOUND('',#61,.T.);
#18=FACE_BOUND('',#62,.T.);
#19=FACE_BOUND('',#63,.T.);
#20=FACE_BOUND('',#65,.T.);
#21=FACE_BOUND('',#66,.T.);
#22=FACE_BOUND('',#67,.T.);
#23=FACE_BOUND('',#68,.T.);
#24=FACE_BOUND('',#69,.T.);
#25=FACE_BOUND('',#78,.T.);
#26=FACE_BOUND('',#79,.T.);
#27=FACE_BOUND('',#80,.T.);
#28=FACE_BOUND('',#82,.T.);
#29=FACE_BOUND('',#83,.T.);
#30=FACE_BOUND('',#84,.T.);
#31=FACE_BOUND('',#85,.T.);
#32=PLANE('',#307);
#33=PLANE('',#309);
#34=PLANE('',#313);
#35=PLANE('',#328);
#36=PLANE('',#329);
#37=FACE_OUTER_BOUND('',#53,.T.);
#38=FACE_OUTER_BOUND('',#54,.T.);
#39=FACE_OUTER_BOUND('',#55,.T.);
#40=FACE_OUTER_BOUND('',#56,.T.);
#41=FACE_OUTER_BOUND('',#57,.T.);
#42=FACE_OUTER_BOUND('',#58,.T.);
#43=FACE_OUTER_BOUND('',#64,.T.);
#44=FACE_OUTER_BOUND('',#70,.T.);
#45=FACE_OUTER_BOUND('',#71,.T.);
#46=FACE_OUTER_BOUND('',#72,.T.);
#47=FACE_OUTER_BOUND('',#73,.T.);
#48=FACE_OUTER_BOUND('',#74,.T.);
#49=FACE_OUTER_BOUND('',#75,.T.);
#50=FACE_OUTER_BOUND('',#76,.T.);
#51=FACE_OUTER_BOUND('',#77,.T.);
#52=FACE_OUTER_BOUND('',#81,.T.);
#53=EDGE_LOOP('',(#185,#186,#187,#188));
#54=EDGE_LOOP('',(#189,#190,#191,#192));
#55=EDGE_LOOP('',(#193,#194,#195,#196));
#56=EDGE_LOOP('',(#197,#198,#199,#200));
#57=EDGE_LOOP('',(#201,#202,#203,#204));
#58=EDGE_LOOP('',(#205));
#59=EDGE_LOOP('',(#206));
#60=EDGE_LOOP('',(#207));
#61=EDGE_LOOP('',(#208));
#62=EDGE_LOOP('',(#209));
#63=EDGE_LOOP('',(#210));
#64=EDGE_LOOP('',(#211));
#65=EDGE_LOOP('',(#212));
#66=EDGE_LOOP('',(#213));
#67=EDGE_LOOP('',(#214));
#68=EDGE_LOOP('',(#215));
#69=EDGE_LOOP('',(#216));
#70=EDGE_LOOP('',(#217,#218,#219,#220));
#71=EDGE_LOOP('',(#221));
#72=EDGE_LOOP('',(#222,#223,#224,#225));
#73=EDGE_LOOP('',(#226,#227,#228,#229));
#74=EDGE_LOOP('',(#230,#231,#232,#233));
#75=EDGE_LOOP('',(#234,#235,#236,#237));
#76=EDGE_LOOP('',(#238,#239,#240,#241));
#77=EDGE_LOOP('',(#242));
#78=EDGE_LOOP('',(#243));
#79=EDGE_LOOP('',(#244));
#80=EDGE_LOOP('',(#245));
#81=EDGE_LOOP('',(#246));
#82=EDGE_LOOP('',(#247));
#83=EDGE_LOOP('',(#248));
#84=EDGE_LOOP('',(#249));
#85=EDGE_LOOP('',(#250));
#86=LINE('',#424,#97);
#87=LINE('',#430,#98);
#88=LINE('',#436,#99);
#89=LINE('',#442,#100);
#90=LINE('',#448,#101);
#91=LINE('',#458,#102);
#92=LINE('',#464,#103);
#93=LINE('',#469,#104);
#94=LINE('',#475,#105);
#95=LINE('',#481,#106);
#96=LINE('',#487,#107);
#97=VECTOR('',#336,4.);
#98=VECTOR('',#343,4.);
#99=VECTOR('',#350,4.);
#100=VECTOR('',#357,4.);
#101=VECTOR('',#364,30.);
#102=VECTOR('',#377,10.);
#103=VECTOR('',#386,10.);
#104=VECTOR('',#391,4.5);
#105=VECTOR('',#398,4.5);
#106=VECTOR('',#405,4.5);
#107=VECTOR('',#412,52.5);
#108=CIRCLE('',#293,4.);
#109=CIRCLE('',#294,4.);
#110=CIRCLE('',#296,4.);
#111=CIRCLE('',#297,4.);
#112=CIRCLE('',#299,4.);
#113=CIRCLE('',#300,4.);
#114=CIRCLE('',#302,4.);
#115=CIRCLE('',#303,4.);
#116=CIRCLE('',#305,30.);
#117=CIRCLE('',#306,30.);
#118=CIRCLE('',#308,10.);
#119=CIRCLE('',#310,10.);
#120=CIRCLE('',#312,10.);
#121=CIRCLE('',#314,10.);
#122=CIRCLE('',#317,4.5);
#123=CIRCLE('',#318,4.5);
#124=CIRCLE('',#320,4.5);
#125=CIRCLE('',#321,4.5);
#126=CIRCLE('',#323,4.5);
#127=CIRCLE('',#324,4.5);
#128=CIRCLE('',#326,52.5);
#129=CIRCLE('',#327,52.5);
#130=VERTEX_POINT('',#421);
#131=VERTEX_POINT('',#423);
#132=VERTEX_POINT('',#427);
#133=VERTEX_POINT('',#429);
#134=VERTEX_POINT('',#433);
#135=VERTEX_POINT('',#435);
#136=VERTEX_POINT('',#439);
#137=VERTEX_POINT('',#441);
#138=VERTEX_POINT('',#445);
#139=VERTEX_POINT('',#447);
#140=VERTEX_POINT('',#451);
#141=VERTEX_POINT('',#454);
#142=VERTEX_POINT('',#457);
#143=VERTEX_POINT('',#461);
#144=VERTEX_POINT('',#466);
#145=VERTEX_POINT('',#468);
#146=VERTEX_POINT('',#472);
#147=VERTEX_POINT('',#474);
#148=VERTEX_POINT('',#478);
#149=VERTEX_POINT('',#480);
#150=VERTEX_POINT('',#484);
#151=VERTEX_POINT('',#486);
#152=EDGE_CURVE('',#130,#130,#108,.T.);
#153=EDGE_CURVE('',#130,#131,#86,.T.);
#154=EDGE_CURVE('',#131,#131,#109,.T.);
#155=EDGE_CURVE('',#132,#132,#110,.T.);
#156=EDGE_CURVE('',#132,#133,#87,.T.);
#157=EDGE_CURVE('',#133,#133,#111,.T.);
#158=EDGE_CURVE('',#134,#134,#112,.T.);
#159=EDGE_CURVE('',#134,#135,#88,.T.);
#160=EDGE_CURVE('',#135,#135,#113,.T.);
#161=EDGE_CURVE('',#136,#136,#114,.T.);
#162=EDGE_CURVE('',#136,#137,#89,.T.);
#163=EDGE_CURVE('',#137,#137,#115,.T.);
#164=EDGE_CURVE('',#138,#138,#116,.T.);
#165=EDGE_CURVE('',#138,#139,#90,.T.);
#166=EDGE_CURVE('',#139,#139,#117,.T.);
#167=EDGE_CURVE('',#140,#140,#118,.T.);
#168=EDGE_CURVE('',#141,#141,#119,.T.);
#169=EDGE_CURVE('',#141,#142,#91,.T.);
#170=EDGE_CURVE('',#142,#142,#120,.T.);
#171=EDGE_CURVE('',#143,#143,#121,.T.);
#172=EDGE_CURVE('',#143,#140,#92,.T.);
#173=EDGE_CURVE('',#144,#144,#122,.T.);
#174=EDGE_CURVE('',#144,#145,#93,.T.);
#175=EDGE_CURVE('',#145,#145,#123,.T.);
#176=EDGE_CURVE('',#146,#146,#124,.T.);
#177=EDGE_CURVE('',#146,#147,#94,.T.);
#178=EDGE_CURVE('',#147,#147,#125,.T.);
#179=EDGE_CURVE('',#148,#148,#126,.T.);
#180=EDGE_CURVE('',#148,#149,#95,.T.);
#181=EDGE_CURVE('',#149,#149,#127,.T.);
#182=EDGE_CURVE('',#150,#150,#128,.T.);
#183=EDGE_CURVE('',#150,#151,#96,.T.);
#184=EDGE_CURVE('',#151,#151,#129,.T.);
#185=ORIENTED_EDGE('',*,*,#152,.F.);
#186=ORIENTED_EDGE('',*,*,#153,.T.);
#187=ORIENTED_EDGE('',*,*,#154,.T.);
#188=ORIENTED_EDGE('',*,*,#153,.F.);
#189=ORIENTED_EDGE('',*,*,#155,.F.);
#190=ORIENTED_EDGE('',*,*,#156,.T.);
#191=ORIENTED_EDGE('',*,*,#157,.T.);
#192=ORIENTED_EDGE('',*,*,#156,.F.);
#193=ORIENTED_EDGE('',*,*,#158,.F.);
#194=ORIENTED_EDGE('',*,*,#159,.T.);
#195=ORIENTED_EDGE('',*,*,#160,.T.);
#196=ORIENTED_EDGE('',*,*,#159,.F.);
#197=ORIENTED_EDGE('',*,*,#161,.F.);
#198=ORIENTED_EDGE('',*,*,#162,.T.);
#199=ORIENTED_EDGE('',*,*,#163,.T.);
#200=ORIENTED_EDGE('',*,*,#162,.F.);
#201=ORIENTED_EDGE('',*,*,#164,.F.);
#202=ORIENTED_EDGE('',*,*,#165,.T.);
#203=ORIENTED_EDGE('',*,*,#166,.T.);
#204=ORIENTED_EDGE('',*,*,#165,.F.);
#205=ORIENTED_EDGE('',*,*,#164,.T.);
#206=ORIENTED_EDGE('',*,*,#161,.T.);
#207=ORIENTED_EDGE('',*,*,#158,.T.);
#208=ORIENTED_EDGE('',*,*,#155,.T.);
#209=ORIENTED_EDGE('',*,*,#167,.F.);
#210=ORIENTED_EDGE('',*,*,#152,.T.);
#211=ORIENTED_EDGE('',*,*,#166,.F.);
#212=ORIENTED_EDGE('',*,*,#163,.F.);
#213=ORIENTED_EDGE('',*,*,#160,.F.);
#214=ORIENTED_EDGE('',*,*,#157,.F.);
#215=ORIENTED_EDGE('',*,*,#168,.F.);
#216=ORIENTED_EDGE('',*,*,#154,.F.);
#217=ORIENTED_EDGE('',*,*,#168,.T.);
#218=ORIENTED_EDGE('',*,*,#169,.T.);
#219=ORIENTED_EDGE('',*,*,#170,.F.);
#220=ORIENTED_EDGE('',*,*,#169,.F.);
#221=ORIENTED_EDGE('',*,*,#171,.T.);
#222=ORIENTED_EDGE('',*,*,#171,.F.);
#223=ORIENTED_EDGE('',*,*,#172,.T.);
#224=ORIENTED_EDGE('',*,*,#167,.T.);
#225=ORIENTED_EDGE('',*,*,#172,.F.);
#226=ORIENTED_EDGE('',*,*,#173,.F.);
#227=ORIENTED_EDGE('',*,*,#174,.T.);
#228=ORIENTED_EDGE('',*,*,#175,.T.);
#229=ORIENTED_EDGE('',*,*,#174,.F.);
#230=ORIENTED_EDGE('',*,*,#176,.F.);
#231=ORIENTED_EDGE('',*,*,#177,.T.);
#232=ORIENTED_EDGE('',*,*,#178,.T.);
#233=ORIENTED_EDGE('',*,*,#177,.F.);
#234=ORIENTED_EDGE('',*,*,#179,.F.);
#235=ORIENTED_EDGE('',*,*,#180,.T.);
#236=ORIENTED_EDGE('',*,*,#181,.T.);
#237=ORIENTED_EDGE('',*,*,#180,.F.);
#238=ORIENTED_EDGE('',*,*,#182,.F.);
#239=ORIENTED_EDGE('',*,*,#183,.T.);
#240=ORIENTED_EDGE('',*,*,#184,.T.);
#241=ORIENTED_EDGE('',*,*,#183,.F.);
#242=ORIENTED_EDGE('',*,*,#182,.T.);
#243=ORIENTED_EDGE('',*,*,#179,.T.);
#244=ORIENTED_EDGE('',*,*,#176,.T.);
#245=ORIENTED_EDGE('',*,*,#173,.T.);
#246=ORIENTED_EDGE('',*,*,#184,.F.);
#247=ORIENTED_EDGE('',*,*,#170,.T.);
#248=ORIENTED_EDGE('',*,*,#181,.F.);
#249=ORIENTED_EDGE('',*,*,#178,.F.);
#250=ORIENTED_EDGE('',*,*,#175,.F.);
#251=CYLINDRICAL_SURFACE('',#292,4.);
#252=CYLINDRICAL_SURFACE('',#295,4.);
#253=CYLINDRICAL_SURFACE('',#298,4.);
#254=CYLINDRICAL_SURFACE('',#301,4.);
#255=CYLINDRICAL_SURFACE('',#304,30.);
#256=CYLINDRICAL_SURFACE('',#311,10.);
#257=CYLINDRICAL_SURFACE('',#315,10.);
#258=CYLINDRICAL_SURFACE('',#316,4.5);
#259=CYLINDRICAL_SURFACE('',#319,4.5);
#260=CYLINDRICAL_SURFACE('',#322,4.5);
#261=CYLINDRICAL_SURFACE('',#325,52.5);
#262=ADVANCED_FACE('',(#37),#251,.F.);
#263=ADVANCED_FACE('',(#38),#252,.F.);
#264=ADVANCED_FACE('',(#39),#253,.F.);
#265=ADVANCED_FACE('',(#40),#254,.F.);
#266=ADVANCED_FACE('',(#41),#255,.T.);
#267=ADVANCED_FACE('',(#42,#15,#16,#17,#18,#19),#32,.T.);
#268=ADVANCED_FACE('',(#43,#20,#21,#22,#23,#24),#33,.F.);
#269=ADVANCED_FACE('',(#44),#256,.T.);
#270=ADVANCED_FACE('',(#45),#34,.F.);
#271=ADVANCED_FACE('',(#46),#257,.T.);
#272=ADVANCED_FACE('',(#47),#258,.F.);
#273=ADVANCED_FACE('',(#48),#259,.F.);
#274=ADVANCED_FACE('',(#49),#260,.F.);
#275=ADVANCED_FACE('',(#50),#261,.T.);
#276=ADVANCED_FACE('',(#51,#25,#26,#27),#35,.T.);
#277=ADVANCED_FACE('',(#52,#28,#29,#30,#31),#36,.F.);
#278=CLOSED_SHELL('',(#262,#263,#264,#265,#266,#267,#268,#269,#270,#271,
#272,#273,#274,#275,#276,#277));
#279=DERIVED_UNIT_ELEMENT(#281,1.);
#280=DERIVED_UNIT_ELEMENT(#496,3.);
#281=(
MASS_UNIT()
NAMED_UNIT(*)
SI_UNIT(.KILO.,.GRAM.)
);
#282=DERIVED_UNIT((#279,#280));
#283=MEASURE_REPRESENTATION_ITEM('density measure',
POSITIVE_RATIO_MEASURE(7850.),#282);
#284=PROPERTY_DEFINITION_REPRESENTATION(#289,#286);
#285=PROPERTY_DEFINITION_REPRESENTATION(#290,#287);
#286=REPRESENTATION('material name',(#288),#493);
#287=REPRESENTATION('density',(#283),#493);
#288=DESCRIPTIVE_REPRESENTATION_ITEM('Acier','Acier');
#289=PROPERTY_DEFINITION('material property','material name',#503);
#290=PROPERTY_DEFINITION('material property','density of part',#503);
#291=AXIS2_PLACEMENT_3D('placement',#419,#330,#331);
#292=AXIS2_PLACEMENT_3D('',#420,#332,#333);
#293=AXIS2_PLACEMENT_3D('',#422,#334,#335);
#294=AXIS2_PLACEMENT_3D('',#425,#337,#338);
#295=AXIS2_PLACEMENT_3D('',#426,#339,#340);
#296=AXIS2_PLACEMENT_3D('',#428,#341,#342);
#297=AXIS2_PLACEMENT_3D('',#431,#344,#345);
#298=AXIS2_PLACEMENT_3D('',#432,#346,#347);
#299=AXIS2_PLACEMENT_3D('',#434,#348,#349);
#300=AXIS2_PLACEMENT_3D('',#437,#351,#352);
#301=AXIS2_PLACEMENT_3D('',#438,#353,#354);
#302=AXIS2_PLACEMENT_3D('',#440,#355,#356);
#303=AXIS2_PLACEMENT_3D('',#443,#358,#359);
#304=AXIS2_PLACEMENT_3D('',#444,#360,#361);
#305=AXIS2_PLACEMENT_3D('',#446,#362,#363);
#306=AXIS2_PLACEMENT_3D('',#449,#365,#366);
#307=AXIS2_PLACEMENT_3D('',#450,#367,#368);
#308=AXIS2_PLACEMENT_3D('',#452,#369,#370);
#309=AXIS2_PLACEMENT_3D('',#453,#371,#372);
#310=AXIS2_PLACEMENT_3D('',#455,#373,#374);
#311=AXIS2_PLACEMENT_3D('',#456,#375,#376);
#312=AXIS2_PLACEMENT_3D('',#459,#378,#379);
#313=AXIS2_PLACEMENT_3D('',#460,#380,#381);
#314=AXIS2_PLACEMENT_3D('',#462,#382,#383);
#315=AXIS2_PLACEMENT_3D('',#463,#384,#385);
#316=AXIS2_PLACEMENT_3D('',#465,#387,#388);
#317=AXIS2_PLACEMENT_3D('',#467,#389,#390);
#318=AXIS2_PLACEMENT_3D('',#470,#392,#393);
#319=AXIS2_PLACEMENT_3D('',#471,#394,#395);
#320=AXIS2_PLACEMENT_3D('',#473,#396,#397);
#321=AXIS2_PLACEMENT_3D('',#476,#399,#400);
#322=AXIS2_PLACEMENT_3D('',#477,#401,#402);
#323=AXIS2_PLACEMENT_3D('',#479,#403,#404);
#324=AXIS2_PLACEMENT_3D('',#482,#406,#407);
#325=AXIS2_PLACEMENT_3D('',#483,#408,#409);
#326=AXIS2_PLACEMENT_3D('',#485,#410,#411);
#327=AXIS2_PLACEMENT_3D('',#488,#413,#414);
#328=AXIS2_PLACEMENT_3D('',#489,#415,#416);
#329=AXIS2_PLACEMENT_3D('',#490,#417,#418);
#330=DIRECTION('axis',(0.,0.,1.));
#331=DIRECTION('refdir',(1.,0.,0.));
#332=DIRECTION('center_axis',(-1.,0.,0.));
#333=DIRECTION('ref_axis',(0.,-1.,0.));
#334=DIRECTION('center_axis',(1.,0.,0.));
#335=DIRECTION('ref_axis',(0.,-1.,0.));
#336=DIRECTION('',(1.,0.,0.));
#337=DIRECTION('center_axis',(1.,0.,0.));
#338=DIRECTION('ref_axis',(0.,-1.,0.));
#339=DIRECTION('center_axis',(-1.,0.,0.));
#340=DIRECTION('ref_axis',(0.,-1.,0.));
#341=DIRECTION('center_axis',(1.,0.,0.));
#342=DIRECTION('ref_axis',(0.,-1.,0.));
#343=DIRECTION('',(1.,0.,0.));
#344=DIRECTION('center_axis',(1.,0.,0.));
#345=DIRECTION('ref_axis',(0.,-1.,0.));
#346=DIRECTION('center_axis',(-1.,0.,0.));
#347=DIRECTION('ref_axis',(0.,-1.,0.));
#348=DIRECTION('center_axis',(1.,0.,0.));
#349=DIRECTION('ref_axis',(0.,-1.,0.));
#350=DIRECTION('',(1.,0.,0.));
#351=DIRECTION('center_axis',(1.,0.,0.));
#352=DIRECTION('ref_axis',(0.,-1.,0.));
#353=DIRECTION('center_axis',(-1.,0.,0.));
#354=DIRECTION('ref_axis',(0.,-1.,0.));
#355=DIRECTION('center_axis',(1.,0.,0.));
#356=DIRECTION('ref_axis',(0.,-1.,0.));
#357=DIRECTION('',(1.,0.,0.));
#358=DIRECTION('center_axis',(1.,0.,0.));
#359=DIRECTION('ref_axis',(0.,-1.,0.));
#360=DIRECTION('center_axis',(-1.,0.,0.));
#361=DIRECTION('ref_axis',(0.,-1.,0.));
#362=DIRECTION('center_axis',(-1.,0.,0.));
#363=DIRECTION('ref_axis',(0.,-1.,0.));
#364=DIRECTION('',(1.,0.,0.));
#365=DIRECTION('center_axis',(-1.,0.,0.));
#366=DIRECTION('ref_axis',(0.,-1.,0.));
#367=DIRECTION('center_axis',(-1.,0.,0.));
#368=DIRECTION('ref_axis',(0.,-1.,0.));
#369=DIRECTION('center_axis',(-1.,0.,0.));
#370=DIRECTION('ref_axis',(0.,1.,0.));
#371=DIRECTION('center_axis',(-1.,0.,0.));
#372=DIRECTION('ref_axis',(0.,-1.,0.));
#373=DIRECTION('center_axis',(1.,0.,0.));
#374=DIRECTION('ref_axis',(0.,1.,0.));
#375=DIRECTION('center_axis',(-1.,0.,0.));
#376=DIRECTION('ref_axis',(0.,1.,0.));
#377=DIRECTION('',(1.,0.,0.));
#378=DIRECTION('center_axis',(1.,0.,0.));
#379=DIRECTION('ref_axis',(0.,1.,0.));
#380=DIRECTION('center_axis',(1.,0.,0.));
#381=DIRECTION('ref_axis',(0.,1.,0.));
#382=DIRECTION('center_axis',(-1.,0.,0.));
#383=DIRECTION('ref_axis',(0.,1.,0.));
#384=DIRECTION('center_axis',(-1.,0.,0.));
#385=DIRECTION('ref_axis',(0.,1.,0.));
#386=DIRECTION('',(1.,0.,0.));
#387=DIRECTION('center_axis',(1.,0.,0.));
#388=DIRECTION('ref_axis',(0.,1.,0.));
#389=DIRECTION('center_axis',(-1.,0.,0.));
#390=DIRECTION('ref_axis',(0.,1.,0.));
#391=DIRECTION('',(-1.,0.,0.));
#392=DIRECTION('center_axis',(-1.,0.,0.));
#393=DIRECTION('ref_axis',(0.,1.,0.));
#394=DIRECTION('center_axis',(1.,0.,0.));
#395=DIRECTION('ref_axis',(0.,1.,0.));
#396=DIRECTION('center_axis',(-1.,0.,0.));
#397=DIRECTION('ref_axis',(0.,1.,0.));
#398=DIRECTION('',(-1.,0.,0.));
#399=DIRECTION('center_axis',(-1.,0.,0.));
#400=DIRECTION('ref_axis',(0.,1.,0.));
#401=DIRECTION('center_axis',(1.,0.,0.));
#402=DIRECTION('ref_axis',(0.,1.,0.));
#403=DIRECTION('center_axis',(-1.,0.,0.));
#404=DIRECTION('ref_axis',(0.,1.,0.));
#405=DIRECTION('',(-1.,0.,0.));
#406=DIRECTION('center_axis',(-1.,0.,0.));
#407=DIRECTION('ref_axis',(0.,1.,0.));
#408=DIRECTION('center_axis',(1.,0.,0.));
#409=DIRECTION('ref_axis',(0.,1.,0.));
#410=DIRECTION('center_axis',(1.,0.,0.));
#411=DIRECTION('ref_axis',(0.,1.,0.));
#412=DIRECTION('',(-1.,0.,0.));
#413=DIRECTION('center_axis',(1.,0.,0.));
#414=DIRECTION('ref_axis',(0.,1.,0.));
#415=DIRECTION('center_axis',(1.,0.,0.));
#416=DIRECTION('ref_axis',(0.,1.,0.));
#417=DIRECTION('center_axis',(1.,0.,0.));
#418=DIRECTION('ref_axis',(0.,1.,0.));
#419=CARTESIAN_POINT('',(0.,0.,0.));
#420=CARTESIAN_POINT('Origin',(-80.,-22.5,0.));
#421=CARTESIAN_POINT('',(-87.,-18.5,-4.89858719658941E-16));
#422=CARTESIAN_POINT('Origin',(-87.,-22.5,0.));
#423=CARTESIAN_POINT('',(-80.,-18.5,-4.89858719658941E-16));
#424=CARTESIAN_POINT('',(-80.,-18.5,-4.89858719658941E-16));
#425=CARTESIAN_POINT('Origin',(-80.,-22.5,0.));
#426=CARTESIAN_POINT('Origin',(-80.,0.,-22.5));
#427=CARTESIAN_POINT('',(-87.,4.,-22.5));
#428=CARTESIAN_POINT('Origin',(-87.,0.,-22.5));
#429=CARTESIAN_POINT('',(-80.,4.,-22.5));
#430=CARTESIAN_POINT('',(-80.,4.,-22.5));
#431=CARTESIAN_POINT('Origin',(-80.,0.,-22.5));
#432=CARTESIAN_POINT('Origin',(-80.,0.,22.5));
#433=CARTESIAN_POINT('',(-87.,4.,22.5));
#434=CARTESIAN_POINT('Origin',(-87.,0.,22.5));
#435=CARTESIAN_POINT('',(-80.,4.,22.5));
#436=CARTESIAN_POINT('',(-80.,4.,22.5));
#437=CARTESIAN_POINT('Origin',(-80.,0.,22.5));
#438=CARTESIAN_POINT('Origin',(-80.,22.5,0.));
#439=CARTESIAN_POINT('',(-87.,26.5,-4.89858719658941E-16));
#440=CARTESIAN_POINT('Origin',(-87.,22.5,0.));
#441=CARTESIAN_POINT('',(-80.,26.5,-4.89858719658941E-16));
#442=CARTESIAN_POINT('',(-80.,26.5,-4.89858719658941E-16));
#443=CARTESIAN_POINT('Origin',(-80.,22.5,0.));
#444=CARTESIAN_POINT('Origin',(-80.,0.,0.));
#445=CARTESIAN_POINT('',(-87.,30.,-3.67394039744206E-15));
#446=CARTESIAN_POINT('Origin',(-87.,0.,0.));
#447=CARTESIAN_POINT('',(-80.,30.,-3.67394039744206E-15));
#448=CARTESIAN_POINT('',(-80.,30.,-3.67394039744206E-15));
#449=CARTESIAN_POINT('Origin',(-80.,0.,0.));
#450=CARTESIAN_POINT('Origin',(-87.,0.,0.));
#451=CARTESIAN_POINT('',(-87.,-10.,1.22464679914735E-15));
#452=CARTESIAN_POINT('Origin',(-87.,0.,0.));
#453=CARTESIAN_POINT('Origin',(-80.,0.,0.));
#454=CARTESIAN_POINT('',(-80.,-10.,1.22464679914735E-15));
#455=CARTESIAN_POINT('Origin',(-80.,0.,0.));
#456=CARTESIAN_POINT('Origin',(0.,0.,0.));
#457=CARTESIAN_POINT('',(0.,-10.,-1.22464679914735E-15));
#458=CARTESIAN_POINT('',(0.,-10.,1.22464679914735E-15));
#459=CARTESIAN_POINT('Origin',(0.,0.,0.));
#460=CARTESIAN_POINT('Origin',(-500.,0.,0.));
#461=CARTESIAN_POINT('',(-500.,-10.,-1.22464679914735E-15));
#462=CARTESIAN_POINT('Origin',(-500.,0.,0.));
#463=CARTESIAN_POINT('Origin',(0.,0.,0.));
#464=CARTESIAN_POINT('',(0.,-10.,1.22464679914735E-15));
#465=CARTESIAN_POINT('Origin',(0.,-39.0004650584339,-22.5162129914397));
#466=CARTESIAN_POINT('',(7.,-43.5004650584339,-22.5162129914397));
#467=CARTESIAN_POINT('Origin',(7.,-39.0004650584339,-22.5162129914397));
#468=CARTESIAN_POINT('',(0.,-43.5004650584339,-22.5162129914397));
#469=CARTESIAN_POINT('',(0.,-43.5004650584339,-22.5162129914397));
#470=CARTESIAN_POINT('Origin',(0.,-39.0004650584339,-22.5162129914397));
#471=CARTESIAN_POINT('Origin',(0.,38.9995349249292,-22.5178240043133));
#472=CARTESIAN_POINT('',(7.,34.4995349249292,-22.5178240043133));
#473=CARTESIAN_POINT('Origin',(7.,38.9995349249292,-22.5178240043133));
#474=CARTESIAN_POINT('',(0.,34.4995349249292,-22.5178240043133));
#475=CARTESIAN_POINT('',(0.,34.4995349249292,-22.5178240043133));
#476=CARTESIAN_POINT('Origin',(0.,38.9995349249292,-22.5178240043133));
#477=CARTESIAN_POINT('Origin',(0.,0.,45.0335));
#478=CARTESIAN_POINT('',(7.,-4.5,45.0335));
#479=CARTESIAN_POINT('Origin',(7.,0.,45.0335));
#480=CARTESIAN_POINT('',(0.,-4.5,45.0335));
#481=CARTESIAN_POINT('',(0.,-4.5,45.0335));
#482=CARTESIAN_POINT('Origin',(0.,0.,45.0335));
#483=CARTESIAN_POINT('Origin',(0.,0.,0.));
#484=CARTESIAN_POINT('',(7.,-52.5,-8.88178419700125E-15));
#485=CARTESIAN_POINT('Origin',(7.,0.,0.));
#486=CARTESIAN_POINT('',(0.,-52.5,-6.4293956955236E-15));
#487=CARTESIAN_POINT('',(0.,-52.5,-6.4293956955236E-15));
#488=CARTESIAN_POINT('Origin',(0.,0.,0.));
#489=CARTESIAN_POINT('Origin',(7.,0.,0.));
#490=CARTESIAN_POINT('Origin',(0.,0.,0.));
#491=UNCERTAINTY_MEASURE_WITH_UNIT(LENGTH_MEASURE(0.01),#495,
'DISTANCE_ACCURACY_VALUE',
'Maximum model space distance between geometric entities at asserted c
onnectivities');
#492=UNCERTAINTY_MEASURE_WITH_UNIT(LENGTH_MEASURE(0.01),#495,
'DISTANCE_ACCURACY_VALUE',
'Maximum model space distance between geometric entities at asserted c
onnectivities');
#493=(
GEOMETRIC_REPRESENTATION_CONTEXT(3)
GLOBAL_UNCERTAINTY_ASSIGNED_CONTEXT((#491))
GLOBAL_UNIT_ASSIGNED_CONTEXT((#495,#497,#498))
REPRESENTATION_CONTEXT('','3D')
);
#494=(
GEOMETRIC_REPRESENTATION_CONTEXT(3)
GLOBAL_UNCERTAINTY_ASSIGNED_CONTEXT((#492))
GLOBAL_UNIT_ASSIGNED_CONTEXT((#495,#497,#498))
REPRESENTATION_CONTEXT('','3D')
);
#495=(
LENGTH_UNIT()
NAMED_UNIT(*)
SI_UNIT(.MILLI.,.METRE.)
);
#496=(
LENGTH_UNIT()
NAMED_UNIT(*)
SI_UNIT($,.METRE.)
);
#497=(
NAMED_UNIT(*)
PLANE_ANGLE_UNIT()
SI_UNIT($,.RADIAN.)
);
#498=(
NAMED_UNIT(*)
SI_UNIT($,.STERADIAN.)
SOLID_ANGLE_UNIT()
);
#499=SHAPE_DEFINITION_REPRESENTATION(#500,#501);
#500=PRODUCT_DEFINITION_SHAPE('',$,#503);
#501=SHAPE_REPRESENTATION('',(#291),#493);
#502=PRODUCT_DEFINITION_CONTEXT('part definition',#507,'design');
#503=PRODUCT_DEFINITION('Arbre','Arbre v1',#504,#502);
#504=PRODUCT_DEFINITION_FORMATION('',$,#509);
#505=PRODUCT_RELATED_PRODUCT_CATEGORY('Arbre v1','Arbre v1',(#509));
#506=APPLICATION_PROTOCOL_DEFINITION('international standard',
'automotive_design',2009,#507);
#507=APPLICATION_CONTEXT(
'Core Data for Automotive Mechanical Design Process');
#508=PRODUCT_CONTEXT('part definition',#507,'mechanical');
#509=PRODUCT('Arbre','Arbre v1',$,(#508));
#510=PRESENTATION_STYLE_ASSIGNMENT((#511));
#511=SURFACE_STYLE_USAGE(.BOTH.,#512);
#512=SURFACE_SIDE_STYLE('',(#513));
#513=SURFACE_STYLE_FILL_AREA(#514);
#514=FILL_AREA_STYLE('Acier - Satin\X\E9',(#515));
#515=FILL_AREA_STYLE_COLOUR('Acier - Satin\X\E9',#516);
#516=COLOUR_RGB('Acier - Satin\X\E9',0.627450980392157,0.627450980392157,
0.627450980392157);
ENDSEC;
END-ISO-10303-21;
