ISO-10303-21;
HEADER;
FILE_DESCRIPTION(('CATIA V5 STEP Exchange'),'2;1');

FILE_NAME('D:\\CONCEPTION\\poulie.stp','2020-09-20T14:22:27+00:00',('none'),('none'),'CATIA Version 5 Release 20 GA (IN-10)','CATIA V5 STEP AP203','none');

FILE_SCHEMA(('CONFIG_CONTROL_DESIGN'));

ENDSEC;
/* file written by CATIA V5R20 */
DATA;
#5=PRODUCT('Part1','','',(#2)) ;
#1=APPLICATION_CONTEXT('configuration controlled 3D design of mechanical parts and assemblies') ;
#14=PRODUCT_DEFINITION('',' ',#6,#3) ;
#16=SECURITY_CLASSIFICATION(' ',' ',#15) ;
#15=SECURITY_CLASSIFICATION_LEVEL('unclassified') ;
#47=CARTESIAN_POINT(' ',(0.,0.,0.)) ;
#52=CARTESIAN_POINT('Axis2P3D Location',(0.,21.1600000002,0.)) ;
#57=CARTESIAN_POINT('Axis2P3D Location',(0.,41.,0.)) ;
#61=CARTESIAN_POINT('Vertex',(3.,41.,9.01387818866)) ;
#63=CARTESIAN_POINT('Vertex',(-9.5,41.,0.)) ;
#66=CARTESIAN_POINT('Line Origine',(-9.5,21.1600000002,-2.32675207226E-015)) ;
#70=CARTESIAN_POINT('Vertex',(-9.5,0.,0.)) ;
#73=CARTESIAN_POINT('Axis2P3D Location',(0.,0.,0.)) ;
#77=CARTESIAN_POINT('Vertex',(3.,0.,9.01387818866)) ;
#80=CARTESIAN_POINT('Line Origine',(3.,21.1600000002,9.01387818866)) ;
#92=CARTESIAN_POINT('Axis2P3D Location',(3.,0.,12.3)) ;
#97=CARTESIAN_POINT('Line Origine',(3.,41.,10.6569390943)) ;
#101=CARTESIAN_POINT('Vertex',(3.,41.,12.3)) ;
#104=CARTESIAN_POINT('Line Origine',(3.,0.,10.6569390943)) ;
#108=CARTESIAN_POINT('Vertex',(3.,0.,12.3)) ;
#111=CARTESIAN_POINT('Line Origine',(3.,20.5,12.3)) ;
#123=CARTESIAN_POINT('Axis2P3D Location',(0.,41.,-7.1054273576E-015)) ;
#128=CARTESIAN_POINT('Axis2P3D Location',(0.,41.,0.)) ;
#132=CARTESIAN_POINT('Vertex',(28.7655323163,41.,52.6549537134)) ;
#134=CARTESIAN_POINT('Vertex',(-28.7655323163,41.,-52.6549537134)) ;
#137=CARTESIAN_POINT('Axis2P3D Location',(0.,41.,0.)) ;
#146=CARTESIAN_POINT('Line Origine',(0.,41.,12.3)) ;
#150=CARTESIAN_POINT('Vertex',(-3.,41.,12.3)) ;
#153=CARTESIAN_POINT('Line Origine',(-3.,41.,10.6569390943)) ;
#157=CARTESIAN_POINT('Vertex',(-3.,41.,9.01387818866)) ;
#160=CARTESIAN_POINT('Axis2P3D Location',(-7.1054273576E-015,41.,2.6645352591E-015)) ;
#173=CARTESIAN_POINT('Axis2P3D Location',(3.,0.,12.3)) ;
#178=CARTESIAN_POINT('Line Origine',(0.,0.,12.3)) ;
#182=CARTESIAN_POINT('Vertex',(-3.,0.,12.3)) ;
#185=CARTESIAN_POINT('Line Origine',(-3.,20.5,12.3)) ;
#197=CARTESIAN_POINT('Axis2P3D Location',(0.,20.5,0.)) ;
#202=CARTESIAN_POINT('Line Origine',(28.7655323163,38.,52.6549537134)) ;
#206=CARTESIAN_POINT('Vertex',(28.7655323163,35.,52.6549537134)) ;
#209=CARTESIAN_POINT('Axis2P3D Location',(0.,35.,0.)) ;
#213=CARTESIAN_POINT('Vertex',(-28.7655323163,35.,-52.6549537134)) ;
#216=CARTESIAN_POINT('Line Origine',(-28.7655323163,38.,-52.6549537134)) ;
#228=CARTESIAN_POINT('Axis2P3D Location',(0.,35.,0.)) ;
#240=CARTESIAN_POINT('Axis2P3D Location',(0.,35.,60.)) ;
#249=CARTESIAN_POINT('Axis2P3D Location',(0.,35.,0.)) ;
#253=CARTESIAN_POINT('Vertex',(-23.9712769302,35.,-43.8791280945)) ;
#255=CARTESIAN_POINT('Vertex',(23.9712769302,35.,43.8791280945)) ;
#258=CARTESIAN_POINT('Axis2P3D Location',(0.,35.,0.)) ;
#269=CARTESIAN_POINT('Control Point',(0.,35.,50.)) ;
#270=CARTESIAN_POINT('Control Point',(0.,26.3354635739,51.4963426394)) ;
#271=CARTESIAN_POINT('Control Point',(0.,17.5,52.0048756159)) ;
#272=CARTESIAN_POINT('Control Point',(0.,8.66453642606,51.4963426394)) ;
#273=CARTESIAN_POINT('Control Point',(0.,-2.48689957516E-014,50.)) ;
#274=CARTESIAN_POINT('Axis1P Location',(0.,20.5,0.)) ;
#279=CARTESIAN_POINT('Control Point',(23.9712769302,35.,43.8791280945)) ;
#280=CARTESIAN_POINT('Control Point',(24.688661806,26.3354635739,45.1922923014)) ;
#281=CARTESIAN_POINT('Control Point',(24.9324655022,17.5,45.6385719738)) ;
#282=CARTESIAN_POINT('Control Point',(24.688661806,8.66453642606,45.1922923014)) ;
#283=CARTESIAN_POINT('Control Point',(23.9712769302,-2.48689957516E-014,43.8791280945)) ;
#284=CARTESIAN_POINT('Vertex',(23.9712769302,-2.48689957516E-014,43.8791280945)) ;
#287=CARTESIAN_POINT('Axis2P3D Location',(0.,-2.48689957516E-014,0.)) ;
#291=CARTESIAN_POINT('Vertex',(-23.9712769302,-2.48689957516E-014,-43.8791280945)) ;
#295=CARTESIAN_POINT('Control Point',(-23.9712769302,35.,-43.8791280945)) ;
#296=CARTESIAN_POINT('Control Point',(-24.688661806,26.3354635739,-45.1922923014)) ;
#297=CARTESIAN_POINT('Control Point',(-24.9324655022,17.5,-45.6385719738)) ;
#298=CARTESIAN_POINT('Control Point',(-24.688661806,8.66453642606,-45.1922923014)) ;
#299=CARTESIAN_POINT('Control Point',(-23.9712769302,-2.48689957516E-014,-43.8791280945)) ;
#309=CARTESIAN_POINT('Control Point',(0.,35.,50.)) ;
#310=CARTESIAN_POINT('Control Point',(0.,26.3354635739,51.4963426394)) ;
#311=CARTESIAN_POINT('Control Point',(0.,17.5,52.0048756159)) ;
#312=CARTESIAN_POINT('Control Point',(0.,8.66453642606,51.4963426394)) ;
#313=CARTESIAN_POINT('Control Point',(0.,-2.48689957516E-014,50.)) ;
#314=CARTESIAN_POINT('Axis1P Location',(0.,20.5,0.)) ;
#318=CARTESIAN_POINT('Axis2P3D Location',(0.,-2.48689957516E-014,0.)) ;
#330=CARTESIAN_POINT('Axis2P3D Location',(-3.,0.,9.01387818866)) ;
#335=CARTESIAN_POINT('Line Origine',(-3.,0.,10.6569390943)) ;
#339=CARTESIAN_POINT('Vertex',(-3.,0.,9.01387818866)) ;
#342=CARTESIAN_POINT('Line Origine',(-3.,20.5,9.01387818866)) ;
#354=CARTESIAN_POINT('Axis2P3D Location',(0.,21.1600000002,0.)) ;
#359=CARTESIAN_POINT('Axis2P3D Location',(0.,0.,0.)) ;
#371=CARTESIAN_POINT('Axis2P3D Location',(0.,0.,0.)) ;
#53=DIRECTION('Axis2P3D Direction',(0.,1.,0.)) ;
#54=DIRECTION('Axis2P3D XDirection',(0.315789473684,-0.,0.948829283017)) ;
#58=DIRECTION('Axis2P3D Direction',(0.,1.,0.)) ;
#67=DIRECTION('Vector Direction',(0.,1.,0.)) ;
#74=DIRECTION('Axis2P3D Direction',(0.,1.,0.)) ;
#81=DIRECTION('Vector Direction',(0.,1.,0.)) ;
#93=DIRECTION('Axis2P3D Direction',(1.,0.,-0.)) ;
#94=DIRECTION('Axis2P3D XDirection',(-0.,0.,-1.)) ;
#98=DIRECTION('Vector Direction',(0.,0.,-1.)) ;
#105=DIRECTION('Vector Direction',(0.,0.,-1.)) ;
#112=DIRECTION('Vector Direction',(0.,1.,0.)) ;
#124=DIRECTION('Axis2P3D Direction',(0.,1.,0.)) ;
#125=DIRECTION('Axis2P3D XDirection',(1.,-0.,0.)) ;
#129=DIRECTION('Axis2P3D Direction',(0.,1.,0.)) ;
#138=DIRECTION('Axis2P3D Direction',(0.,1.,0.)) ;
#147=DIRECTION('Vector Direction',(-1.,0.,0.)) ;
#154=DIRECTION('Vector Direction',(0.,0.,1.)) ;
#161=DIRECTION('Axis2P3D Direction',(0.,1.,0.)) ;
#174=DIRECTION('Axis2P3D Direction',(0.,0.,-1.)) ;
#175=DIRECTION('Axis2P3D XDirection',(-1.,0.,0.)) ;
#179=DIRECTION('Vector Direction',(-1.,0.,0.)) ;
#186=DIRECTION('Vector Direction',(0.,1.,0.)) ;
#198=DIRECTION('Axis2P3D Direction',(0.,1.,0.)) ;
#199=DIRECTION('Axis2P3D XDirection',(0.479425538604,-0.,0.87758256189)) ;
#203=DIRECTION('Vector Direction',(0.,1.,0.)) ;
#210=DIRECTION('Axis2P3D Direction',(0.,1.,0.)) ;
#217=DIRECTION('Vector Direction',(0.,1.,0.)) ;
#229=DIRECTION('Axis2P3D Direction',(0.,1.,0.)) ;
#241=DIRECTION('Axis2P3D Direction',(0.,1.,0.)) ;
#242=DIRECTION('Axis2P3D XDirection',(1.,-0.,0.)) ;
#250=DIRECTION('Axis2P3D Direction',(0.,1.,0.)) ;
#259=DIRECTION('Axis2P3D Direction',(0.,1.,0.)) ;
#275=DIRECTION('Axis1P Direction',(0.,1.,0.)) ;
#288=DIRECTION('Axis2P3D Direction',(0.,1.,0.)) ;
#315=DIRECTION('Axis1P Direction',(0.,1.,0.)) ;
#319=DIRECTION('Axis2P3D Direction',(0.,1.,0.)) ;
#331=DIRECTION('Axis2P3D Direction',(-1.,0.,0.)) ;
#332=DIRECTION('Axis2P3D XDirection',(0.,0.,1.)) ;
#336=DIRECTION('Vector Direction',(0.,0.,1.)) ;
#343=DIRECTION('Vector Direction',(0.,1.,0.)) ;
#355=DIRECTION('Axis2P3D Direction',(0.,1.,0.)) ;
#356=DIRECTION('Axis2P3D XDirection',(-1.,0.,0.)) ;
#360=DIRECTION('Axis2P3D Direction',(0.,1.,0.)) ;
#372=DIRECTION('Axis2P3D Direction',(0.,1.,0.)) ;
#373=DIRECTION('Axis2P3D XDirection',(1.,-0.,0.)) ;
#48=AXIS2_PLACEMENT_3D(' ',#47,$,$) ;
#55=AXIS2_PLACEMENT_3D('Cylinder Axis2P3D',#52,#53,#54) ;
#59=AXIS2_PLACEMENT_3D('Circle Axis2P3D',#57,#58,$) ;
#75=AXIS2_PLACEMENT_3D('Circle Axis2P3D',#73,#74,$) ;
#95=AXIS2_PLACEMENT_3D('Plane Axis2P3D',#92,#93,#94) ;
#126=AXIS2_PLACEMENT_3D('Plane Axis2P3D',#123,#124,#125) ;
#130=AXIS2_PLACEMENT_3D('Circle Axis2P3D',#128,#129,$) ;
#139=AXIS2_PLACEMENT_3D('Circle Axis2P3D',#137,#138,$) ;
#162=AXIS2_PLACEMENT_3D('Circle Axis2P3D',#160,#161,$) ;
#176=AXIS2_PLACEMENT_3D('Plane Axis2P3D',#173,#174,#175) ;
#200=AXIS2_PLACEMENT_3D('Cylinder Axis2P3D',#197,#198,#199) ;
#211=AXIS2_PLACEMENT_3D('Circle Axis2P3D',#209,#210,$) ;
#230=AXIS2_PLACEMENT_3D('Circle Axis2P3D',#228,#229,$) ;
#243=AXIS2_PLACEMENT_3D('Plane Axis2P3D',#240,#241,#242) ;
#251=AXIS2_PLACEMENT_3D('Circle Axis2P3D',#249,#250,$) ;
#260=AXIS2_PLACEMENT_3D('Circle Axis2P3D',#258,#259,$) ;
#289=AXIS2_PLACEMENT_3D('Circle Axis2P3D',#287,#288,$) ;
#320=AXIS2_PLACEMENT_3D('Circle Axis2P3D',#318,#319,$) ;
#333=AXIS2_PLACEMENT_3D('Plane Axis2P3D',#330,#331,#332) ;
#357=AXIS2_PLACEMENT_3D('Cylinder Axis2P3D',#354,#355,#356) ;
#361=AXIS2_PLACEMENT_3D('Circle Axis2P3D',#359,#360,$) ;
#374=AXIS2_PLACEMENT_3D('Plane Axis2P3D',#371,#372,#373) ;
#40=PRODUCT_DEFINITION_SHAPE(' ',' ',#14) ;
#31=APPROVAL_PERSON_ORGANIZATION(#25,#21,#19) ;
#25=PERSON_AND_ORGANIZATION(#22,#23) ;
#22=PERSON(' ',' ',' ',$,$,$) ;
#23=ORGANIZATION(' ',' ',' ') ;
#21=APPROVAL(#20,' ') ;
#20=APPROVAL_STATUS('not_yet_approved') ;
#19=APPROVAL_ROLE('APPROVER') ;
#13=DATE_AND_TIME(#11,#12) ;
#12=LOCAL_TIME(16,22,27.,#10) ;
#10=COORDINATED_UNIVERSAL_TIME_OFFSET(0,0,.AHEAD.) ;
#86=ORIENTED_EDGE('',*,*,#65,.T.) ;
#87=ORIENTED_EDGE('',*,*,#72,.F.) ;
#88=ORIENTED_EDGE('',*,*,#79,.F.) ;
#89=ORIENTED_EDGE('',*,*,#84,.T.) ;
#117=ORIENTED_EDGE('',*,*,#103,.T.) ;
#118=ORIENTED_EDGE('',*,*,#84,.F.) ;
#119=ORIENTED_EDGE('',*,*,#110,.F.) ;
#120=ORIENTED_EDGE('',*,*,#115,.T.) ;
#143=ORIENTED_EDGE('',*,*,#136,.T.) ;
#144=ORIENTED_EDGE('',*,*,#141,.T.) ;
#166=ORIENTED_EDGE('',*,*,#103,.F.) ;
#167=ORIENTED_EDGE('',*,*,#152,.T.) ;
#168=ORIENTED_EDGE('',*,*,#159,.F.) ;
#169=ORIENTED_EDGE('',*,*,#164,.F.) ;
#170=ORIENTED_EDGE('',*,*,#65,.F.) ;
#191=ORIENTED_EDGE('',*,*,#115,.F.) ;
#192=ORIENTED_EDGE('',*,*,#184,.F.) ;
#193=ORIENTED_EDGE('',*,*,#189,.T.) ;
#194=ORIENTED_EDGE('',*,*,#152,.F.) ;
#222=ORIENTED_EDGE('',*,*,#136,.F.) ;
#223=ORIENTED_EDGE('',*,*,#208,.T.) ;
#224=ORIENTED_EDGE('',*,*,#215,.T.) ;
#225=ORIENTED_EDGE('',*,*,#220,.F.) ;
#234=ORIENTED_EDGE('',*,*,#141,.F.) ;
#235=ORIENTED_EDGE('',*,*,#220,.T.) ;
#236=ORIENTED_EDGE('',*,*,#232,.T.) ;
#237=ORIENTED_EDGE('',*,*,#208,.F.) ;
#246=ORIENTED_EDGE('',*,*,#215,.F.) ;
#247=ORIENTED_EDGE('',*,*,#232,.F.) ;
#264=ORIENTED_EDGE('',*,*,#257,.T.) ;
#265=ORIENTED_EDGE('',*,*,#262,.T.) ;
#302=ORIENTED_EDGE('',*,*,#262,.F.) ;
#303=ORIENTED_EDGE('',*,*,#286,.T.) ;
#304=ORIENTED_EDGE('',*,*,#293,.T.) ;
#305=ORIENTED_EDGE('',*,*,#300,.F.) ;
#324=ORIENTED_EDGE('',*,*,#257,.F.) ;
#325=ORIENTED_EDGE('',*,*,#300,.T.) ;
#326=ORIENTED_EDGE('',*,*,#322,.T.) ;
#327=ORIENTED_EDGE('',*,*,#286,.F.) ;
#348=ORIENTED_EDGE('',*,*,#159,.T.) ;
#349=ORIENTED_EDGE('',*,*,#189,.F.) ;
#350=ORIENTED_EDGE('',*,*,#341,.F.) ;
#351=ORIENTED_EDGE('',*,*,#346,.T.) ;
#365=ORIENTED_EDGE('',*,*,#164,.T.) ;
#366=ORIENTED_EDGE('',*,*,#346,.F.) ;
#367=ORIENTED_EDGE('',*,*,#363,.F.) ;
#368=ORIENTED_EDGE('',*,*,#72,.T.) ;
#377=ORIENTED_EDGE('',*,*,#293,.F.) ;
#378=ORIENTED_EDGE('',*,*,#322,.F.) ;
#381=ORIENTED_EDGE('',*,*,#79,.T.) ;
#382=ORIENTED_EDGE('',*,*,#363,.T.) ;
#383=ORIENTED_EDGE('',*,*,#341,.T.) ;
#384=ORIENTED_EDGE('',*,*,#184,.T.) ;
#385=ORIENTED_EDGE('',*,*,#110,.T.) ;
#171=FACE_BOUND('',#165,.T.) ;
#266=FACE_BOUND('',#263,.T.) ;
#386=FACE_BOUND('',#380,.T.) ;
#51=CLOSED_SHELL('Closed Shell',(#91,#122,#172,#196,#227,#239,#267,#307,#329,#353,#370,#387)) ;
#68=VECTOR('Line Direction',#67,1.) ;
#82=VECTOR('Line Direction',#81,1.) ;
#99=VECTOR('Line Direction',#98,1.) ;
#106=VECTOR('Line Direction',#105,1.) ;
#113=VECTOR('Line Direction',#112,1.) ;
#148=VECTOR('Line Direction',#147,1.) ;
#155=VECTOR('Line Direction',#154,1.) ;
#180=VECTOR('Line Direction',#179,1.) ;
#187=VECTOR('Line Direction',#186,1.) ;
#204=VECTOR('Line Direction',#203,1.) ;
#218=VECTOR('Line Direction',#217,1.) ;
#337=VECTOR('Line Direction',#336,1.) ;
#344=VECTOR('Line Direction',#343,1.) ;
#389=ADVANCED_BREP_SHAPE_REPRESENTATION('NONE',(#388),#46) ;
#49=SHAPE_REPRESENTATION(' ',(#48),#46) ;
#91=ADVANCED_FACE('Corps principal',(#90),#56,.F.) ;
#122=ADVANCED_FACE('Corps principal',(#121),#96,.F.) ;
#172=ADVANCED_FACE('Corps principal',(#145,#171),#127,.T.) ;
#196=ADVANCED_FACE('Corps principal',(#195),#177,.T.) ;
#227=ADVANCED_FACE('Corps principal',(#226),#201,.T.) ;
#239=ADVANCED_FACE('Corps principal',(#238),#201,.T.) ;
#267=ADVANCED_FACE('Corps principal',(#248,#266),#244,.F.) ;
#307=ADVANCED_FACE('Corps principal',(#306),#277,.F.) ;
#329=ADVANCED_FACE('Corps principal',(#328),#317,.F.) ;
#353=ADVANCED_FACE('Corps principal',(#352),#334,.F.) ;
#370=ADVANCED_FACE('Corps principal',(#369),#358,.F.) ;
#387=ADVANCED_FACE('Corps principal',(#379,#386),#375,.F.) ;
#4=APPLICATION_PROTOCOL_DEFINITION('international standard','config_control_design',1994,#1) ;
#32=APPROVAL_DATE_TIME(#13,#21) ;
#276=AXIS1_PLACEMENT('Revolution Surface Axis1P',#274,#275) ;
#316=AXIS1_PLACEMENT('Revolution Surface Axis1P',#314,#315) ;
#268=B_SPLINE_CURVE_WITH_KNOTS('',4,(#269,#270,#271,#272,#273),.UNSPECIFIED.,.F.,.U.,(5,5),(143.944633539,179.115811005),.UNSPECIFIED.) ;
#278=B_SPLINE_CURVE_WITH_KNOTS('',4,(#279,#280,#281,#282,#283),.UNSPECIFIED.,.F.,.U.,(5,5),(143.944633539,179.115811005),.UNSPECIFIED.) ;
#294=B_SPLINE_CURVE_WITH_KNOTS('',4,(#295,#296,#297,#298,#299),.UNSPECIFIED.,.F.,.U.,(5,5),(143.944633539,179.115811005),.UNSPECIFIED.) ;
#308=B_SPLINE_CURVE_WITH_KNOTS('',4,(#309,#310,#311,#312,#313),.UNSPECIFIED.,.F.,.U.,(5,5),(143.944633539,179.115811005),.UNSPECIFIED.) ;
#388=MANIFOLD_SOLID_BREP('Corps principal',#51) ;
#11=CALENDAR_DATE(2020,20,9) ;
#30=CC_DESIGN_APPROVAL(#21,(#16,#6,#14)) ;
#18=CC_DESIGN_DATE_AND_TIME_ASSIGNMENT(#13,#17,(#16)) ;
#29=CC_DESIGN_DATE_AND_TIME_ASSIGNMENT(#13,#28,(#14)) ;
#17=DATE_TIME_ROLE('classification_date') ;
#28=DATE_TIME_ROLE('creation_date') ;
#27=CC_DESIGN_PERSON_AND_ORGANIZATION_ASSIGNMENT(#25,#26,(#16)) ;
#33=CC_DESIGN_PERSON_AND_ORGANIZATION_ASSIGNMENT(#25,#34,(#6)) ;
#35=CC_DESIGN_PERSON_AND_ORGANIZATION_ASSIGNMENT(#25,#36,(#6,#14)) ;
#37=CC_DESIGN_PERSON_AND_ORGANIZATION_ASSIGNMENT(#25,#38,(#5)) ;
#26=PERSON_AND_ORGANIZATION_ROLE('classification_officer') ;
#34=PERSON_AND_ORGANIZATION_ROLE('design_supplier') ;
#36=PERSON_AND_ORGANIZATION_ROLE('creator') ;
#38=PERSON_AND_ORGANIZATION_ROLE('design_owner') ;
#39=CC_DESIGN_SECURITY_CLASSIFICATION(#16,(#6)) ;
#60=CIRCLE('generated circle',#59,9.5) ;
#76=CIRCLE('generated circle',#75,9.5) ;
#131=CIRCLE('generated circle',#130,60.) ;
#140=CIRCLE('generated circle',#139,60.) ;
#163=CIRCLE('generated circle',#162,9.5) ;
#212=CIRCLE('generated circle',#211,60.) ;
#231=CIRCLE('generated circle',#230,60.) ;
#252=CIRCLE('generated circle',#251,50.) ;
#261=CIRCLE('generated circle',#260,50.) ;
#290=CIRCLE('generated circle',#289,50.) ;
#321=CIRCLE('generated circle',#320,50.) ;
#362=CIRCLE('generated circle',#361,9.5) ;
#390=SHAPE_REPRESENTATION_RELATIONSHIP(' ',' ',#49,#389) ;
#56=CYLINDRICAL_SURFACE('generated cylinder',#55,9.5) ;
#201=CYLINDRICAL_SURFACE('generated cylinder',#200,60.) ;
#358=CYLINDRICAL_SURFACE('generated cylinder',#357,9.5) ;
#3=DESIGN_CONTEXT(' ',#1,'design') ;
#65=EDGE_CURVE('',#62,#64,#60,.T.) ;
#72=EDGE_CURVE('',#71,#64,#69,.T.) ;
#79=EDGE_CURVE('',#78,#71,#76,.T.) ;
#84=EDGE_CURVE('',#78,#62,#83,.T.) ;
#103=EDGE_CURVE('',#102,#62,#100,.T.) ;
#110=EDGE_CURVE('',#109,#78,#107,.T.) ;
#115=EDGE_CURVE('',#109,#102,#114,.T.) ;
#136=EDGE_CURVE('',#133,#135,#131,.T.) ;
#141=EDGE_CURVE('',#135,#133,#140,.T.) ;
#152=EDGE_CURVE('',#102,#151,#149,.T.) ;
#159=EDGE_CURVE('',#158,#151,#156,.T.) ;
#164=EDGE_CURVE('',#64,#158,#163,.T.) ;
#184=EDGE_CURVE('',#183,#109,#181,.F.) ;
#189=EDGE_CURVE('',#183,#151,#188,.T.) ;
#208=EDGE_CURVE('',#133,#207,#205,.F.) ;
#215=EDGE_CURVE('',#207,#214,#212,.T.) ;
#220=EDGE_CURVE('',#135,#214,#219,.F.) ;
#232=EDGE_CURVE('',#214,#207,#231,.T.) ;
#257=EDGE_CURVE('',#254,#256,#252,.T.) ;
#262=EDGE_CURVE('',#256,#254,#261,.T.) ;
#286=EDGE_CURVE('',#256,#285,#278,.T.) ;
#293=EDGE_CURVE('',#285,#292,#290,.T.) ;
#300=EDGE_CURVE('',#254,#292,#294,.T.) ;
#322=EDGE_CURVE('',#292,#285,#321,.T.) ;
#341=EDGE_CURVE('',#340,#183,#338,.T.) ;
#346=EDGE_CURVE('',#340,#158,#345,.T.) ;
#363=EDGE_CURVE('',#71,#340,#362,.T.) ;
#85=EDGE_LOOP('',(#86,#87,#88,#89)) ;
#116=EDGE_LOOP('',(#117,#118,#119,#120)) ;
#142=EDGE_LOOP('',(#143,#144)) ;
#165=EDGE_LOOP('',(#166,#167,#168,#169,#170)) ;
#190=EDGE_LOOP('',(#191,#192,#193,#194)) ;
#221=EDGE_LOOP('',(#222,#223,#224,#225)) ;
#233=EDGE_LOOP('',(#234,#235,#236,#237)) ;
#245=EDGE_LOOP('',(#246,#247)) ;
#263=EDGE_LOOP('',(#264,#265)) ;
#301=EDGE_LOOP('',(#302,#303,#304,#305)) ;
#323=EDGE_LOOP('',(#324,#325,#326,#327)) ;
#347=EDGE_LOOP('',(#348,#349,#350,#351)) ;
#364=EDGE_LOOP('',(#365,#366,#367,#368)) ;
#376=EDGE_LOOP('',(#377,#378)) ;
#380=EDGE_LOOP('',(#381,#382,#383,#384,#385)) ;
#90=FACE_OUTER_BOUND('',#85,.T.) ;
#121=FACE_OUTER_BOUND('',#116,.T.) ;
#145=FACE_OUTER_BOUND('',#142,.T.) ;
#195=FACE_OUTER_BOUND('',#190,.T.) ;
#226=FACE_OUTER_BOUND('',#221,.T.) ;
#238=FACE_OUTER_BOUND('',#233,.T.) ;
#248=FACE_OUTER_BOUND('',#245,.T.) ;
#306=FACE_OUTER_BOUND('',#301,.T.) ;
#328=FACE_OUTER_BOUND('',#323,.T.) ;
#352=FACE_OUTER_BOUND('',#347,.T.) ;
#369=FACE_OUTER_BOUND('',#364,.T.) ;
#379=FACE_OUTER_BOUND('',#376,.T.) ;
#45=UNCERTAINTY_MEASURE_WITH_UNIT(LENGTH_MEASURE(0.005),#41,'distance_accuracy_value','CONFUSED CURVE UNCERTAINTY') ;
#69=LINE('Line',#66,#68) ;
#83=LINE('Line',#80,#82) ;
#100=LINE('Line',#97,#99) ;
#107=LINE('Line',#104,#106) ;
#114=LINE('Line',#111,#113) ;
#149=LINE('Line',#146,#148) ;
#156=LINE('Line',#153,#155) ;
#181=LINE('Line',#178,#180) ;
#188=LINE('Line',#185,#187) ;
#205=LINE('Line',#202,#204) ;
#219=LINE('Line',#216,#218) ;
#338=LINE('Line',#335,#337) ;
#345=LINE('Line',#342,#344) ;
#2=MECHANICAL_CONTEXT(' ',#1,'mechanical') ;
#24=PERSONAL_ADDRESS(' ',' ',' ',' ',' ',' ',' ',' ',' ',' ',' ',' ',(#22),' ') ;
#96=PLANE('Plane',#95) ;
#127=PLANE('Plane',#126) ;
#177=PLANE('Plane',#176) ;
#244=PLANE('Plane',#243) ;
#334=PLANE('Plane',#333) ;
#375=PLANE('Plane',#374) ;
#43=PLANE_ANGLE_MEASURE_WITH_UNIT(PLANE_ANGLE_MEASURE(0.0174532925199),#42) ;
#7=PRODUCT_CATEGORY('part',$) ;
#9=PRODUCT_CATEGORY_RELATIONSHIP(' ',' ',#7,#8) ;
#6=PRODUCT_DEFINITION_FORMATION_WITH_SPECIFIED_SOURCE('',' ',#5,.NOT_KNOWN.) ;
#8=PRODUCT_RELATED_PRODUCT_CATEGORY('detail',$,(#5)) ;
#50=SHAPE_DEFINITION_REPRESENTATION(#40,#49) ;
#277=SURFACE_OF_REVOLUTION('Surface of Revolution',#268,#276) ;
#317=SURFACE_OF_REVOLUTION('Surface of Revolution',#308,#316) ;
#62=VERTEX_POINT('',#61) ;
#64=VERTEX_POINT('',#63) ;
#71=VERTEX_POINT('',#70) ;
#78=VERTEX_POINT('',#77) ;
#102=VERTEX_POINT('',#101) ;
#109=VERTEX_POINT('',#108) ;
#133=VERTEX_POINT('',#132) ;
#135=VERTEX_POINT('',#134) ;
#151=VERTEX_POINT('',#150) ;
#158=VERTEX_POINT('',#157) ;
#183=VERTEX_POINT('',#182) ;
#207=VERTEX_POINT('',#206) ;
#214=VERTEX_POINT('',#213) ;
#254=VERTEX_POINT('',#253) ;
#256=VERTEX_POINT('',#255) ;
#285=VERTEX_POINT('',#284) ;
#292=VERTEX_POINT('',#291) ;
#340=VERTEX_POINT('',#339) ;
#41=(LENGTH_UNIT()NAMED_UNIT(*)SI_UNIT(.MILLI.,.METRE.)) ;
#42=(NAMED_UNIT(*)PLANE_ANGLE_UNIT()SI_UNIT($,.RADIAN.)) ;
#44=(NAMED_UNIT(*)SI_UNIT($,.STERADIAN.)SOLID_ANGLE_UNIT()) ;
#46=(GEOMETRIC_REPRESENTATION_CONTEXT(3)GLOBAL_UNCERTAINTY_ASSIGNED_CONTEXT((#45))GLOBAL_UNIT_ASSIGNED_CONTEXT((#41,#42,#44))REPRESENTATION_CONTEXT(' ',' ')) ;
ENDSEC;
END-ISO-10303-21;
