ISO-10303-21;
HEADER;
FILE_DESCRIPTION (( 'STEP AP214' ),
    '1' );
FILE_NAME ('000048_02B_Entretoise.STEP',
    '2020-09-08T20:42:03',
    ( '' ),
    ( '' ),
    'SwSTEP 2.0',
    'SolidWorks 2014',
    '' );
FILE_SCHEMA (( 'AUTOMOTIVE_DESIGN' ));
ENDSEC;

DATA;
#1 = APPLICATION_PROTOCOL_DEFINITION ( 'draft international standard', 'automotive_design', 1998, #47 ) ;
#2 = FACE_OUTER_BOUND ( 'NONE', #49, .T. ) ;
#3 = ADVANCED_FACE ( 'NONE', ( #63 ), #185, .T. ) ;
#4 = CIRCLE ( 'NONE', #227, 9.500000000000008900 ) ;
#5 = EDGE_CURVE ( 'NONE', #312, #296, #237, .T. ) ;
#6 = ADVANCED_FACE ( 'NONE', ( #232 ), #36, .F. ) ;
#7 = VECTOR ( 'NONE', #46, 1000.000000000000000 ) ;
#8 = EDGE_CURVE ( 'NONE', #280, #105, #218, .T. ) ;
#9 = DIRECTION ( 'NONE',  ( 0.0000000000000000000, 0.0000000000000000000, 1.000000000000000000 ) ) ;
#10 = EDGE_CURVE ( 'NONE', #105, #280, #4, .T. ) ;
#11 = PRODUCT_DEFINITION_SHAPE ( 'NONE', 'NONE',  #74 ) ;
#12 = EDGE_LOOP ( 'NONE', ( #288, #110 ) ) ;
#13 = EDGE_CURVE ( 'NONE', #285, #281, #104, .T. ) ;
#14 = DIRECTION ( 'NONE',  ( 1.000000000000000000, 0.0000000000000000000, 0.0000000000000000000 ) ) ;
#15 = VECTOR ( 'NONE', #114, 1000.000000000000100 ) ;
#16 = ORIENTED_EDGE ( 'NONE', *, *, #204, .F. ) ;
#17 = ORIENTED_EDGE ( 'NONE', *, *, #41, .F. ) ;
#18 = SURFACE_SIDE_STYLE ('',( #123 ) ) ;
#19 = ORIENTED_EDGE ( 'NONE', *, *, #5, .F. ) ;
#20 = ADVANCED_FACE ( 'NONE', ( #252 ), #149, .F. ) ;
#21 = SURFACE_STYLE_USAGE ( .BOTH. , #18 ) ;
#22 = ORIENTED_EDGE ( 'NONE', *, *, #295, .F. ) ;
#23 =( NAMED_UNIT ( * ) SI_UNIT ( $, .STERADIAN. ) SOLID_ANGLE_UNIT ( ) );
#24 = FACE_OUTER_BOUND ( 'NONE', #276, .T. ) ;
#25 = ORIENTED_EDGE ( 'NONE', *, *, #292, .F. ) ;
#26 = ORIENTED_EDGE ( 'NONE', *, *, #274, .F. ) ;
#27 = ADVANCED_FACE ( 'NONE', ( #287 ), #306, .T. ) ;
#28 = VECTOR ( 'NONE', #148, 1000.000000000000100 ) ;
#29 =( NAMED_UNIT ( * ) PLANE_ANGLE_UNIT ( ) SI_UNIT ( $, .RADIAN. ) );
#30 =( LENGTH_UNIT ( ) NAMED_UNIT ( * ) SI_UNIT ( .MILLI., .METRE. ) );
#31 = FILL_AREA_STYLE ('',( #33 ) ) ;
#32 = LINE ( 'NONE', #77, #243 ) ;
#33 = FILL_AREA_STYLE_COLOUR ( '', #69 ) ;
#34 = EDGE_CURVE ( 'NONE', #284, #97, #264, .T. ) ;
#35 = CARTESIAN_POINT ( 'NONE',  ( 1.102182119232617700E-015, 6.619260951922789200, -9.000000000000000000 ) ) ;
#36 = CYLINDRICAL_SURFACE ( 'NONE', #167, 9.000000000000000000 ) ;
#37 = CARTESIAN_POINT ( 'NONE',  ( 0.0000000000000000000, 6.699999999999994000, 9.000000000000000000 ) ) ;
#38 = CARTESIAN_POINT ( 'NONE',  ( 0.0000000000000000000, 0.0000000000000000000, 0.0000000000000000000 ) ) ;
#39 = ORIENTED_EDGE ( 'NONE', *, *, #8, .T. ) ;
#40 =( GEOMETRIC_REPRESENTATION_CONTEXT ( 3 ) GLOBAL_UNCERTAINTY_ASSIGNED_CONTEXT ( ( #169 ) ) GLOBAL_UNIT_ASSIGNED_CONTEXT ( ( #55, #42, #44 ) ) REPRESENTATION_CONTEXT ( 'NONE', 'WORKASPACE' ) );
#41 = EDGE_CURVE ( 'NONE', #296, #312, #130, .T. ) ;
#42 =( NAMED_UNIT ( * ) PLANE_ANGLE_UNIT ( ) SI_UNIT ( $, .RADIAN. ) );
#43 = FACE_OUTER_BOUND ( 'NONE', #119, .T. ) ;
#44 =( NAMED_UNIT ( * ) SI_UNIT ( $, .STERADIAN. ) SOLID_ANGLE_UNIT ( ) );
#45 = APPLICATION_PROTOCOL_DEFINITION ( 'draft international standard', 'automotive_design', 1998, #48 ) ;
#46 = DIRECTION ( 'NONE',  ( -0.0000000000000000000, 1.000000000000000000, -0.0000000000000000000 ) ) ;
#47 = APPLICATION_CONTEXT ( 'automotive_design' ) ;
#48 = APPLICATION_CONTEXT ( 'automotive_design' ) ;
#49 = EDGE_LOOP ( 'NONE', ( #17, #294, #251, #279 ) ) ;
#50 = CARTESIAN_POINT ( 'NONE',  ( 0.0000000000000000000, -8.673617379884035500E-016, 15.00000000000000000 ) ) ;
#51 = PRODUCT_RELATED_PRODUCT_CATEGORY ( 'part', '', ( #144 ) ) ;
#52 = CARTESIAN_POINT ( 'NONE',  ( 0.0000000000000000000, 0.5000000000000091000, 0.0000000000000000000 ) ) ;
#53 = DIRECTION ( 'NONE',  ( -0.0000000000000000000, -1.000000000000000000, -0.0000000000000000000 ) ) ;
#54 = EDGE_CURVE ( 'NONE', #312, #285, #192, .T. ) ;
#55 =( LENGTH_UNIT ( ) NAMED_UNIT ( * ) SI_UNIT ( .MILLI., .METRE. ) );
#56 = PRESENTATION_LAYER_ASSIGNMENT (  '', '', ( #72 ) ) ;
#57 = FACE_BOUND ( 'NONE', #275, .T. ) ;
#58 = CARTESIAN_POINT ( 'NONE',  ( 0.0000000000000000000, 6.699999999999994000, 0.0000000000000000000 ) ) ;
#59 = DIRECTION ( 'NONE',  ( 0.0000000000000000000, 0.0000000000000000000, -1.000000000000000000 ) ) ;
#60 = DIRECTION ( 'NONE',  ( 0.0000000000000000000, 0.0000000000000000000, 1.000000000000000000 ) ) ;
#61 = DIRECTION ( 'NONE',  ( 0.0000000000000000000, 1.000000000000000000, 0.0000000000000000000 ) ) ;
#62 = CARTESIAN_POINT ( 'NONE',  ( 0.0000000000000000000, -8.673617379884035500E-016, 0.0000000000000000000 ) ) ;
#63 = FACE_OUTER_BOUND ( 'NONE', #244, .T. ) ;
#64 = DIRECTION ( 'NONE',  ( -0.0000000000000000000, 1.000000000000000000, -0.0000000000000000000 ) ) ;
#65 = AXIS2_PLACEMENT_3D ( 'NONE', #189, #190, #191 ) ;
#66 = DIRECTION ( 'NONE',  ( 0.0000000000000000000, 0.0000000000000000000, 1.000000000000000000 ) ) ;
#67 = DIRECTION ( 'NONE',  ( 0.0000000000000000000, 0.0000000000000000000, 1.000000000000000000 ) ) ;
#68 = AXIS2_PLACEMENT_3D ( 'NONE', #209, #236, #235 ) ;
#69 = COLOUR_RGB ( '',0.5294117647058823600, 0.5490196078431373000, 0.5490196078431373000 ) ;
#70 = UNCERTAINTY_MEASURE_WITH_UNIT (LENGTH_MEASURE( 1.000000000000000100E-005 ), #175, 'distance_accuracy_value', 'NONE');
#71 = CARTESIAN_POINT ( 'NONE',  ( 1.102182119232617700E-015, 6.699999999999994000, -9.000000000000000000 ) ) ;
#72 = STYLED_ITEM ( 'NONE', ( #141 ), #139 ) ;
#73 = ORIENTED_EDGE ( 'NONE', *, *, #206, .F. ) ;
#74 = PRODUCT_DEFINITION ( 'UNKNOWN', '', #297, #156 ) ;
#75 = CIRCLE ( 'NONE', #133, 9.000000000000000000 ) ;
#76 = AXIS2_PLACEMENT_3D ( 'NONE', #138, #147, #143 ) ;
#77 = CARTESIAN_POINT ( 'NONE',  ( 0.0000000000000000000, 6.619260951922789200, 15.00000000000000000 ) ) ;
#78 = ORIENTED_EDGE ( 'NONE', *, *, #212, .T. ) ;
#79 = DIRECTION ( 'NONE',  ( 0.0000000000000000000, 1.000000000000000000, 0.0000000000000000000 ) ) ;
#80 = DIRECTION ( 'NONE',  ( -0.0000000000000000000, 1.000000000000000000, -0.0000000000000000000 ) ) ;
#81 = CARTESIAN_POINT ( 'NONE',  ( 0.0000000000000000000, 7.200000000000000200, 9.500000000000005300 ) ) ;
#82 = CYLINDRICAL_SURFACE ( 'NONE', #108, 9.000000000000000000 ) ;
#83 = CARTESIAN_POINT ( 'NONE',  ( 0.0000000000000000000, 0.5000000000000091000, 0.0000000000000000000 ) ) ;
#84 = DIRECTION ( 'NONE',  ( -0.0000000000000000000, -1.000000000000000000, -0.0000000000000000000 ) ) ;
#85 = DIRECTION ( 'NONE',  ( 0.0000000000000000000, 0.0000000000000000000, -1.000000000000000000 ) ) ;
#86 = AXIS2_PLACEMENT_3D ( 'NONE', #154, #155, #157 ) ;
#87 = LINE ( 'NONE', #137, #128 ) ;
#88 = LINE ( 'NONE', #161, #180 ) ;
#89 = CARTESIAN_POINT ( 'NONE',  ( 1.836970198721029600E-015, 7.199999999999999300, -15.00000000000000000 ) ) ;
#90 = AXIS2_PLACEMENT_3D ( 'NONE', #62, #64, #66 ) ;
#91 = DIRECTION ( 'NONE',  ( -0.0000000000000000000, 1.000000000000000000, -0.0000000000000000000 ) ) ;
#92 = CARTESIAN_POINT ( 'NONE',  ( 0.0000000000000000000, -8.673617379884035500E-016, 0.0000000000000000000 ) ) ;
#93 = PRESENTATION_STYLE_ASSIGNMENT (( #21 ) ) ;
#94 = DIRECTION ( 'NONE',  ( -0.0000000000000000000, 1.000000000000000000, -0.0000000000000000000 ) ) ;
#95 = DIRECTION ( 'NONE',  ( 0.0000000000000000000, 0.0000000000000000000, 1.000000000000000000 ) ) ;
#96 = DIRECTION ( 'NONE',  ( 0.0000000000000000000, 0.0000000000000000000, -1.000000000000000000 ) ) ;
#97 = VERTEX_POINT ( 'NONE', #202 ) ;
#98 = ORIENTED_EDGE ( 'NONE', *, *, #204, .T. ) ;
#99 = AXIS2_PLACEMENT_3D ( 'NONE', #92, #94, #95 ) ;
#100 = PLANE ( 'NONE',  #121 ) ;
#101 = MECHANICAL_DESIGN_GEOMETRIC_PRESENTATION_REPRESENTATION (  '', ( #72 ), #102 ) ;
#102 =( GEOMETRIC_REPRESENTATION_CONTEXT ( 3 ) GLOBAL_UNCERTAINTY_ASSIGNED_CONTEXT ( ( #70 ) ) GLOBAL_UNIT_ASSIGNED_CONTEXT ( ( #175, #176, #177 ) ) REPRESENTATION_CONTEXT ( 'NONE', 'WORKASPACE' ) );
#103 = DIRECTION ( 'NONE',  ( 0.0000000000000000000, -1.000000000000000000, 0.0000000000000000000 ) ) ;
#104 = CIRCLE ( 'NONE', #160, 9.500000000000005300 ) ;
#105 = VERTEX_POINT ( 'NONE', #188 ) ;
#106 = DIRECTION ( 'NONE',  ( 0.0000000000000000000, -0.0000000000000000000, -1.000000000000000000 ) ) ;
#107 = CARTESIAN_POINT ( 'NONE',  ( 0.0000000000000000000, 6.699999999999994000, 0.0000000000000000000 ) ) ;
#108 = AXIS2_PLACEMENT_3D ( 'NONE', #193, #205, #207 ) ;
#109 = AXIS2_PLACEMENT_3D ( 'NONE', #182, #168, #171 ) ;
#110 = ORIENTED_EDGE ( 'NONE', *, *, #254, .F. ) ;
#111 = CARTESIAN_POINT ( 'NONE',  ( 0.0000000000000000000, 6.619260951922789200, 9.000000000000000000 ) ) ;
#112 = CLOSED_SHELL ( 'NONE', ( #301, #145, #27, #115, #6, #152, #3, #260, #20, #290 ) ) ;
#113 = CARTESIAN_POINT ( 'NONE',  ( 1.102182119232617700E-015, 6.699999999999994000, -9.000000000000000000 ) ) ;
#114 = DIRECTION ( 'NONE',  ( 8.659560562354932900E-017, 0.7071067811865474600, -0.7071067811865474600 ) ) ;
#115 = ADVANCED_FACE ( 'NONE', ( #43 ), #82, .F. ) ;
#116 = CARTESIAN_POINT ( 'NONE',  ( 1.102182119232617700E-015, 0.5000000000000091000, -9.000000000000000000 ) ) ;
#117 = EDGE_LOOP ( 'NONE', ( #257, #78, #305, #234 ) ) ;
#118 = EDGE_LOOP ( 'NONE', ( #22, #98, #293, #271 ) ) ;
#119 = EDGE_LOOP ( 'NONE', ( #124, #211, #308, #26 ) ) ;
#120 = ORIENTED_EDGE ( 'NONE', *, *, #208, .T. ) ;
#121 = AXIS2_PLACEMENT_3D ( 'NONE', #277, #103, #106 ) ;
#122 = DIRECTION ( 'NONE',  ( -0.0000000000000000000, 1.000000000000000000, -0.0000000000000000000 ) ) ;
#123 = SURFACE_STYLE_FILL_AREA ( #31 ) ;
#124 = ORIENTED_EDGE ( 'NONE', *, *, #295, .T. ) ;
#125 = CARTESIAN_POINT ( 'NONE',  ( 0.0000000000000000000, 0.5000000000000091000, 9.000000000000000000 ) ) ;
#126 = CARTESIAN_POINT ( 'NONE',  ( 0.0000000000000000000, -3.980102097228897700E-016, -9.500000000000008900 ) ) ;
#127 = AXIS2_PLACEMENT_3D ( 'NONE', #107, #79, #67 ) ;
#128 = VECTOR ( 'NONE', #91, 1000.000000000000000 ) ;
#129 = CARTESIAN_POINT ( 'NONE',  ( 1.163414459189986100E-015, 7.200000000000000200, -9.500000000000005300 ) ) ;
#130 = CIRCLE ( 'NONE', #146, 9.000000000000000000 ) ;
#131 = ORIENTED_EDGE ( 'NONE', *, *, #150, .T. ) ;
#132 = CARTESIAN_POINT ( 'NONE',  ( 0.0000000000000000000, 0.0000000000000000000, -9.500000000000008900 ) ) ;
#133 = AXIS2_PLACEMENT_3D ( 'NONE', #83, #84, #85 ) ;
#134 = AXIS2_PLACEMENT_3D ( 'NONE', #52, #53, #59 ) ;
#135 = LINE ( 'NONE', #113, #15 ) ;
#136 = ORIENTED_EDGE ( 'NONE', *, *, #259, .T. ) ;
#137 = CARTESIAN_POINT ( 'NONE',  ( 1.836970198721029600E-015, 6.619260951922789200, -15.00000000000000000 ) ) ;
#138 = CARTESIAN_POINT ( 'NONE',  ( 0.0000000000000000000, 7.200000000000000200, 0.0000000000000000000 ) ) ;
#139 = MANIFOLD_SOLID_BREP ( 'Chanfrein1', #112 ) ;
#140 = PRODUCT_CONTEXT ( 'NONE', #48, 'mechanical' ) ;
#141 = PRESENTATION_STYLE_ASSIGNMENT (( #174 ) ) ;
#142 = AXIS2_PLACEMENT_3D ( 'NONE', #153, #163, #162 ) ;
#143 = DIRECTION ( 'NONE',  ( 0.0000000000000000000, 0.0000000000000000000, 1.000000000000000000 ) ) ;
#144 = PRODUCT ( '000048_02B_Entretoise', '000048_02B_Entretoise', '', ( #140 ) ) ;
#145 = ADVANCED_FACE ( 'NONE', ( #166 ), #159, .F. ) ;
#146 = AXIS2_PLACEMENT_3D ( 'NONE', #198, #199, #200 ) ;
#147 = DIRECTION ( 'NONE',  ( 0.0000000000000000000, -1.000000000000000000, 0.0000000000000000000 ) ) ;
#148 = DIRECTION ( 'NONE',  ( 0.0000000000000000000, -0.7071067811865474600, -0.7071067811865474600 ) ) ;
#149 = CONICAL_SURFACE ( 'NONE', #151, 9.500000000000008900, 0.7853981633974482800 ) ;
#150 = EDGE_CURVE ( 'NONE', #97, #284, #210, .T. ) ;
#151 = AXIS2_PLACEMENT_3D ( 'NONE', #219, #228, #220 ) ;
#152 = ADVANCED_FACE ( 'NONE', ( #57, #223 ), #269, .T. ) ;
#153 = CARTESIAN_POINT ( 'NONE',  ( -9.000000000000000000, 7.200000000000000200, 0.0000000000000000000 ) ) ;
#154 = CARTESIAN_POINT ( 'NONE',  ( 0.0000000000000000000, 7.199999999999999300, 0.0000000000000000000 ) ) ;
#155 = DIRECTION ( 'NONE',  ( -0.0000000000000000000, 1.000000000000000000, -0.0000000000000000000 ) ) ;
#156 = PRODUCT_DEFINITION_CONTEXT ( 'detailed design', #47, 'design' ) ;
#157 = DIRECTION ( 'NONE',  ( 0.0000000000000000000, 0.0000000000000000000, 1.000000000000000000 ) ) ;
#158 = VERTEX_POINT ( 'NONE', #165 ) ;
#159 = CONICAL_SURFACE ( 'NONE', #109, 9.500000000000008900, 0.7853981633974482800 ) ;
#160 = AXIS2_PLACEMENT_3D ( 'NONE', #229, #230, #233 ) ;
#161 = CARTESIAN_POINT ( 'NONE',  ( 1.163414459189986700E-015, 0.0000000000000000000, 9.500000000000008900 ) ) ;
#162 = DIRECTION ( 'NONE',  ( 0.0000000000000000000, 0.0000000000000000000, 1.000000000000000000 ) ) ;
#163 = DIRECTION ( 'NONE',  ( -0.0000000000000000000, 1.000000000000000000, 0.0000000000000000000 ) ) ;
#164 = AXIS2_PLACEMENT_3D ( 'NONE', #58, #61, #60 ) ;
#165 = CARTESIAN_POINT ( 'NONE',  ( 1.836970198721029600E-015, -8.673617379884035500E-016, -15.00000000000000000 ) ) ;
#166 = FACE_OUTER_BOUND ( 'NONE', #118, .T. ) ;
#167 = AXIS2_PLACEMENT_3D ( 'NONE', #253, #263, #258 ) ;
#168 = DIRECTION ( 'NONE',  ( -0.0000000000000000000, -1.000000000000000000, -0.0000000000000000000 ) ) ;
#169 = UNCERTAINTY_MEASURE_WITH_UNIT (LENGTH_MEASURE( 1.000000000000000100E-005 ), #55, 'distance_accuracy_value', 'NONE');
#170 = STYLED_ITEM ( 'NONE', ( #93 ), #291 ) ;
#171 = DIRECTION ( 'NONE',  ( 0.0000000000000000000, 0.0000000000000000000, -1.000000000000000000 ) ) ;
#172 = FACE_BOUND ( 'NONE', #238, .T. ) ;
#173 = SURFACE_SIDE_STYLE ('',( #203 ) ) ;
#174 = SURFACE_STYLE_USAGE ( .BOTH. , #173 ) ;
#175 =( LENGTH_UNIT ( ) NAMED_UNIT ( * ) SI_UNIT ( .MILLI., .METRE. ) );
#176 =( NAMED_UNIT ( * ) PLANE_ANGLE_UNIT ( ) SI_UNIT ( $, .RADIAN. ) );
#177 =( NAMED_UNIT ( * ) SI_UNIT ( $, .STERADIAN. ) SOLID_ANGLE_UNIT ( ) );
#178 = AXIS2_PLACEMENT_3D ( 'NONE', #213, #215, #216 ) ;
#179 = DIRECTION ( 'NONE',  ( 8.659560562354932900E-017, -0.7071067811865474600, 0.7071067811865474600 ) ) ;
#180 = VECTOR ( 'NONE', #179, 1000.000000000000100 ) ;
#181 = ORIENTED_EDGE ( 'NONE', *, *, #254, .T. ) ;
#182 = CARTESIAN_POINT ( 'NONE',  ( 0.0000000000000000000, 0.0000000000000000000, 0.0000000000000000000 ) ) ;
#183 = AXIS2_PLACEMENT_3D ( 'NONE', #255, #256, #261 ) ;
#184 = FILL_AREA_STYLE_COLOUR ( '', #225 ) ;
#185 = CYLINDRICAL_SURFACE ( 'NONE', #183, 15.00000000000000000 ) ;
#186 = FILL_AREA_STYLE ('',( #184 ) ) ;
#187 = MECHANICAL_DESIGN_GEOMETRIC_PRESENTATION_REPRESENTATION (  '', ( #170 ), #195 ) ;
#188 = CARTESIAN_POINT ( 'NONE',  ( 1.163414459189986700E-015, -3.980102097228897700E-016, 9.500000000000008900 ) ) ;
#189 = CARTESIAN_POINT ( 'NONE',  ( 0.0000000000000000000, 7.199999999999999300, 0.0000000000000000000 ) ) ;
#190 = DIRECTION ( 'NONE',  ( -0.0000000000000000000, 1.000000000000000000, -0.0000000000000000000 ) ) ;
#191 = DIRECTION ( 'NONE',  ( 0.0000000000000000000, 0.0000000000000000000, 1.000000000000000000 ) ) ;
#192 = LINE ( 'NONE', #197, #196 ) ;
#193 = CARTESIAN_POINT ( 'NONE',  ( 0.0000000000000000000, 6.619260951922789200, 0.0000000000000000000 ) ) ;
#194 = PRESENTATION_LAYER_ASSIGNMENT (  '', '', ( #170 ) ) ;
#195 =( GEOMETRIC_REPRESENTATION_CONTEXT ( 3 ) GLOBAL_UNCERTAINTY_ASSIGNED_CONTEXT ( ( #270 ) ) GLOBAL_UNIT_ASSIGNED_CONTEXT ( ( #30, #29, #23 ) ) REPRESENTATION_CONTEXT ( 'NONE', 'WORKASPACE' ) );
#196 = VECTOR ( 'NONE', #240, 1000.000000000000100 ) ;
#197 = CARTESIAN_POINT ( 'NONE',  ( 0.0000000000000000000, 6.699999999999994000, 9.000000000000000000 ) ) ;
#198 = CARTESIAN_POINT ( 'NONE',  ( 0.0000000000000000000, 6.699999999999994000, 0.0000000000000000000 ) ) ;
#199 = DIRECTION ( 'NONE',  ( 0.0000000000000000000, 1.000000000000000000, 0.0000000000000000000 ) ) ;
#200 = DIRECTION ( 'NONE',  ( 0.0000000000000000000, 0.0000000000000000000, 1.000000000000000000 ) ) ;
#201 = AXIS2_PLACEMENT_3D ( 'NONE', #246, #245, #242 ) ;
#202 = CARTESIAN_POINT ( 'NONE',  ( 0.0000000000000000000, 7.199999999999999300, 15.00000000000000000 ) ) ;
#203 = SURFACE_STYLE_FILL_AREA ( #186 ) ;
#204 = EDGE_CURVE ( 'NONE', #248, #105, #88, .T. ) ;
#205 = DIRECTION ( 'NONE',  ( -0.0000000000000000000, 1.000000000000000000, -0.0000000000000000000 ) ) ;
#206 = EDGE_CURVE ( 'NONE', #281, #285, #298, .T. ) ;
#207 = DIRECTION ( 'NONE',  ( 0.0000000000000000000, 0.0000000000000000000, 1.000000000000000000 ) ) ;
#208 = EDGE_CURVE ( 'NONE', #272, #280, #265, .T. ) ;
#209 = CARTESIAN_POINT ( 'NONE',  ( 0.0000000000000000000, 6.619260951922789200, 0.0000000000000000000 ) ) ;
#210 = CIRCLE ( 'NONE', #86, 15.00000000000000000 ) ;
#211 = ORIENTED_EDGE ( 'NONE', *, *, #309, .T. ) ;
#212 = EDGE_CURVE ( 'NONE', #272, #248, #75, .T. ) ;
#213 = CARTESIAN_POINT ( 'NONE',  ( 0.0000000000000000000, -3.980102097228897700E-016, 0.0000000000000000000 ) ) ;
#214 = CONICAL_SURFACE ( 'NONE', #164, 9.000000000000000000, 0.7853981633974482800 ) ;
#215 = DIRECTION ( 'NONE',  ( -0.0000000000000000000, 1.000000000000000000, -0.0000000000000000000 ) ) ;
#216 = DIRECTION ( 'NONE',  ( 0.0000000000000000000, 0.0000000000000000000, -1.000000000000000000 ) ) ;
#217 = VECTOR ( 'NONE', #122, 1000.000000000000000 ) ;
#218 = CIRCLE ( 'NONE', #178, 9.500000000000008900 ) ;
#219 = CARTESIAN_POINT ( 'NONE',  ( 0.0000000000000000000, 0.0000000000000000000, 0.0000000000000000000 ) ) ;
#220 = DIRECTION ( 'NONE',  ( 0.0000000000000000000, 0.0000000000000000000, -1.000000000000000000 ) ) ;
#221 = CARTESIAN_POINT ( 'NONE',  ( 0.0000000000000000000, -3.980102097228897700E-016, 0.0000000000000000000 ) ) ;
#222 = DIRECTION ( 'NONE',  ( -0.0000000000000000000, 1.000000000000000000, -0.0000000000000000000 ) ) ;
#223 = FACE_OUTER_BOUND ( 'NONE', #267, .T. ) ;
#224 = ORIENTED_EDGE ( 'NONE', *, *, #206, .T. ) ;
#225 = COLOUR_RGB ( '',0.5294117647058823600, 0.5490196078431373000, 0.5490196078431373000 ) ;
#226 = EDGE_LOOP ( 'NONE', ( #16, #299, #120, #289 ) ) ;
#227 = AXIS2_PLACEMENT_3D ( 'NONE', #221, #222, #96 ) ;
#228 = DIRECTION ( 'NONE',  ( -0.0000000000000000000, -1.000000000000000000, -0.0000000000000000000 ) ) ;
#229 = CARTESIAN_POINT ( 'NONE',  ( 0.0000000000000000000, 7.200000000000000200, 0.0000000000000000000 ) ) ;
#230 = DIRECTION ( 'NONE',  ( 0.0000000000000000000, -1.000000000000000000, 0.0000000000000000000 ) ) ;
#231 = CONICAL_SURFACE ( 'NONE', #127, 9.000000000000000000, 0.7853981633974482800 ) ;
#232 = FACE_OUTER_BOUND ( 'NONE', #117, .T. ) ;
#233 = DIRECTION ( 'NONE',  ( 0.0000000000000000000, 0.0000000000000000000, 1.000000000000000000 ) ) ;
#234 = ORIENTED_EDGE ( 'NONE', *, *, #5, .T. ) ;
#235 = DIRECTION ( 'NONE',  ( 0.0000000000000000000, 0.0000000000000000000, 1.000000000000000000 ) ) ;
#236 = DIRECTION ( 'NONE',  ( -0.0000000000000000000, 1.000000000000000000, -0.0000000000000000000 ) ) ;
#237 = CIRCLE ( 'NONE', #201, 9.000000000000000000 ) ;
#238 = EDGE_LOOP ( 'NONE', ( #39, #250 ) ) ;
#239 = ORIENTED_EDGE ( 'NONE', *, *, #259, .F. ) ;
#240 = DIRECTION ( 'NONE',  ( 0.0000000000000000000, 0.7071067811865474600, 0.7071067811865474600 ) ) ;
#241 = LINE ( 'NONE', #111, #217 ) ;
#242 = DIRECTION ( 'NONE',  ( 0.0000000000000000000, 0.0000000000000000000, 1.000000000000000000 ) ) ;
#243 = VECTOR ( 'NONE', #80, 1000.000000000000000 ) ;
#244 = EDGE_LOOP ( 'NONE', ( #239, #181, #307, #273 ) ) ;
#245 = DIRECTION ( 'NONE',  ( 0.0000000000000000000, 1.000000000000000000, 0.0000000000000000000 ) ) ;
#246 = CARTESIAN_POINT ( 'NONE',  ( 0.0000000000000000000, 6.699999999999994000, 0.0000000000000000000 ) ) ;
#247 = EDGE_LOOP ( 'NONE', ( #304, #136, #313, #25 ) ) ;
#248 = VERTEX_POINT ( 'NONE', #125 ) ;
#249 = CIRCLE ( 'NONE', #90, 15.00000000000000000 ) ;
#250 = ORIENTED_EDGE ( 'NONE', *, *, #10, .T. ) ;
#251 = ORIENTED_EDGE ( 'NONE', *, *, #13, .F. ) ;
#252 = FACE_OUTER_BOUND ( 'NONE', #226, .T. ) ;
#253 = CARTESIAN_POINT ( 'NONE',  ( 0.0000000000000000000, 6.619260951922789200, 0.0000000000000000000 ) ) ;
#254 = EDGE_CURVE ( 'NONE', #158, #303, #286, .T. ) ;
#255 = CARTESIAN_POINT ( 'NONE',  ( 0.0000000000000000000, 6.619260951922789200, 0.0000000000000000000 ) ) ;
#256 = DIRECTION ( 'NONE',  ( -0.0000000000000000000, 1.000000000000000000, -0.0000000000000000000 ) ) ;
#257 = ORIENTED_EDGE ( 'NONE', *, *, #309, .F. ) ;
#258 = DIRECTION ( 'NONE',  ( 0.0000000000000000000, 0.0000000000000000000, 1.000000000000000000 ) ) ;
#259 = EDGE_CURVE ( 'NONE', #158, #284, #87, .T. ) ;
#260 = ADVANCED_FACE ( 'NONE', ( #172, #310 ), #100, .T. ) ;
#261 = DIRECTION ( 'NONE',  ( 0.0000000000000000000, 0.0000000000000000000, 1.000000000000000000 ) ) ;
#262 = LINE ( 'NONE', #35, #7 ) ;
#263 = DIRECTION ( 'NONE',  ( -0.0000000000000000000, 1.000000000000000000, -0.0000000000000000000 ) ) ;
#264 = CIRCLE ( 'NONE', #65, 15.00000000000000000 ) ;
#265 = LINE ( 'NONE', #132, #28 ) ;
#266 = SHAPE_DEFINITION_REPRESENTATION ( #11, #291 ) ;
#267 = EDGE_LOOP ( 'NONE', ( #131, #300 ) ) ;
#268 = EDGE_CURVE ( 'NONE', #296, #281, #135, .T. ) ;
#269 = PLANE ( 'NONE',  #142 ) ;
#270 = UNCERTAINTY_MEASURE_WITH_UNIT (LENGTH_MEASURE( 1.000000000000000100E-005 ), #30, 'distance_accuracy_value', 'NONE');
#271 = ORIENTED_EDGE ( 'NONE', *, *, #208, .F. ) ;
#272 = VERTEX_POINT ( 'NONE', #116 ) ;
#273 = ORIENTED_EDGE ( 'NONE', *, *, #34, .F. ) ;
#274 = EDGE_CURVE ( 'NONE', #248, #312, #241, .T. ) ;
#275 = EDGE_LOOP ( 'NONE', ( #311, #224 ) ) ;
#276 = EDGE_LOOP ( 'NONE', ( #314, #19, #278, #73 ) ) ;
#277 = CARTESIAN_POINT ( 'NONE',  ( -9.000000000000000000, -3.980102097228897700E-016, 0.0000000000000000000 ) ) ;
#278 = ORIENTED_EDGE ( 'NONE', *, *, #54, .T. ) ;
#279 = ORIENTED_EDGE ( 'NONE', *, *, #54, .F. ) ;
#280 = VERTEX_POINT ( 'NONE', #126 ) ;
#281 = VERTEX_POINT ( 'NONE', #129 ) ;
#282 = EDGE_CURVE ( 'NONE', #303, #158, #249, .T. ) ;
#283 = AXIS2_PLACEMENT_3D ( 'NONE', #38, #9, #14 ) ;
#284 = VERTEX_POINT ( 'NONE', #89 ) ;
#285 = VERTEX_POINT ( 'NONE', #81 ) ;
#286 = CIRCLE ( 'NONE', #99, 15.00000000000000000 ) ;
#287 = FACE_OUTER_BOUND ( 'NONE', #247, .T. ) ;
#288 = ORIENTED_EDGE ( 'NONE', *, *, #282, .F. ) ;
#289 = ORIENTED_EDGE ( 'NONE', *, *, #10, .F. ) ;
#290 = ADVANCED_FACE ( 'NONE', ( #24 ), #231, .F. ) ;
#291 = ADVANCED_BREP_SHAPE_REPRESENTATION ( '000048_02B_Entretoise', ( #139, #283 ), #40 ) ;
#292 = EDGE_CURVE ( 'NONE', #303, #97, #32, .T. ) ;
#293 = ORIENTED_EDGE ( 'NONE', *, *, #8, .F. ) ;
#294 = ORIENTED_EDGE ( 'NONE', *, *, #268, .T. ) ;
#295 = EDGE_CURVE ( 'NONE', #248, #272, #302, .T. ) ;
#296 = VERTEX_POINT ( 'NONE', #71 ) ;
#297 = PRODUCT_DEFINITION_FORMATION_WITH_SPECIFIED_SOURCE ( 'ANY', '', #144, .NOT_KNOWN. ) ;
#298 = CIRCLE ( 'NONE', #76, 9.500000000000005300 ) ;
#299 = ORIENTED_EDGE ( 'NONE', *, *, #212, .F. ) ;
#300 = ORIENTED_EDGE ( 'NONE', *, *, #34, .T. ) ;
#301 = ADVANCED_FACE ( 'NONE', ( #2 ), #214, .F. ) ;
#302 = CIRCLE ( 'NONE', #134, 9.000000000000000000 ) ;
#303 = VERTEX_POINT ( 'NONE', #50 ) ;
#304 = ORIENTED_EDGE ( 'NONE', *, *, #282, .T. ) ;
#305 = ORIENTED_EDGE ( 'NONE', *, *, #274, .T. ) ;
#306 = CYLINDRICAL_SURFACE ( 'NONE', #68, 15.00000000000000000 ) ;
#307 = ORIENTED_EDGE ( 'NONE', *, *, #292, .T. ) ;
#308 = ORIENTED_EDGE ( 'NONE', *, *, #41, .T. ) ;
#309 = EDGE_CURVE ( 'NONE', #272, #296, #262, .T. ) ;
#310 = FACE_OUTER_BOUND ( 'NONE', #12, .T. ) ;
#311 = ORIENTED_EDGE ( 'NONE', *, *, #13, .T. ) ;
#312 = VERTEX_POINT ( 'NONE', #37 ) ;
#313 = ORIENTED_EDGE ( 'NONE', *, *, #150, .F. ) ;
#314 = ORIENTED_EDGE ( 'NONE', *, *, #268, .F. ) ;
ENDSEC;
END-ISO-10303-21;
