ISO-10303-21;
HEADER;
/* Generated by software containing ST-Developer
 * from STEP Tools, Inc. (www.steptools.com) 
 */

FILE_DESCRIPTION(
/* description */ (''),
/* implementation_level */ '2;1');

FILE_NAME(
/* name */ 'C:\\Users\\theob\\Desktop\\Adaptateur roue libre.stp',
/* time_stamp */ '2020-09-08T10:23:38+02:00',
/* author */ ('theob'),
/* organization */ (''),
/* preprocessor_version */ 'ST-DEVELOPER v17.2',
/* originating_system */ 'Autodesk Inventor 2019',
/* authorisation */ '');

FILE_SCHEMA (('AUTOMOTIVE_DESIGN { 1 0 10303 214 3 1 1 }'));
ENDSEC;

DATA;
#10=MECHANICAL_DESIGN_GEOMETRIC_PRESENTATION_REPRESENTATION('',(#13),#221);
#11=SHAPE_REPRESENTATION_RELATIONSHIP('SRR','None',#228,#12);
#12=ADVANCED_BREP_SHAPE_REPRESENTATION('',(#14),#220);
#13=STYLED_ITEM('',(#237),#14);
#14=MANIFOLD_SOLID_BREP('Solide1',#115);
#15=FACE_BOUND('',#33,.T.);
#16=FACE_BOUND('',#36,.T.);
#17=FACE_BOUND('',#40,.T.);
#18=FACE_BOUND('',#42,.T.);
#19=PLANE('',#138);
#20=PLANE('',#143);
#21=PLANE('',#149);
#22=PLANE('',#150);
#23=FACE_OUTER_BOUND('',#31,.T.);
#24=FACE_OUTER_BOUND('',#32,.T.);
#25=FACE_OUTER_BOUND('',#34,.T.);
#26=FACE_OUTER_BOUND('',#35,.T.);
#27=FACE_OUTER_BOUND('',#37,.T.);
#28=FACE_OUTER_BOUND('',#38,.T.);
#29=FACE_OUTER_BOUND('',#39,.T.);
#30=FACE_OUTER_BOUND('',#41,.T.);
#31=EDGE_LOOP('',(#79,#80,#81,#82));
#32=EDGE_LOOP('',(#83));
#33=EDGE_LOOP('',(#84));
#34=EDGE_LOOP('',(#85,#86,#87,#88));
#35=EDGE_LOOP('',(#89));
#36=EDGE_LOOP('',(#90));
#37=EDGE_LOOP('',(#91,#92,#93,#94));
#38=EDGE_LOOP('',(#95,#96,#97,#98));
#39=EDGE_LOOP('',(#99));
#40=EDGE_LOOP('',(#100));
#41=EDGE_LOOP('',(#101));
#42=EDGE_LOOP('',(#102));
#43=LINE('',#194,#47);
#44=LINE('',#203,#48);
#45=LINE('',#209,#49);
#46=LINE('',#214,#50);
#47=VECTOR('',#157,7.5);
#48=VECTOR('',#168,9.);
#49=VECTOR('',#177,5.);
#50=VECTOR('',#182,15.);
#51=CIRCLE('',#136,7.5);
#52=CIRCLE('',#137,7.5);
#53=CIRCLE('',#139,5.);
#54=CIRCLE('',#141,9.);
#55=CIRCLE('',#142,9.);
#56=CIRCLE('',#145,5.);
#57=CIRCLE('',#147,15.);
#58=CIRCLE('',#148,15.);
#59=VERTEX_POINT('',#191);
#60=VERTEX_POINT('',#193);
#61=VERTEX_POINT('',#197);
#62=VERTEX_POINT('',#200);
#63=VERTEX_POINT('',#202);
#64=VERTEX_POINT('',#207);
#65=VERTEX_POINT('',#211);
#66=VERTEX_POINT('',#213);
#67=EDGE_CURVE('',#59,#59,#51,.T.);
#68=EDGE_CURVE('',#59,#60,#43,.T.);
#69=EDGE_CURVE('',#60,#60,#52,.T.);
#70=EDGE_CURVE('',#61,#61,#53,.T.);
#71=EDGE_CURVE('',#62,#62,#54,.T.);
#72=EDGE_CURVE('',#62,#63,#44,.T.);
#73=EDGE_CURVE('',#63,#63,#55,.T.);
#74=EDGE_CURVE('',#64,#64,#56,.T.);
#75=EDGE_CURVE('',#64,#61,#45,.T.);
#76=EDGE_CURVE('',#65,#65,#57,.T.);
#77=EDGE_CURVE('',#65,#66,#46,.T.);
#78=EDGE_CURVE('',#66,#66,#58,.T.);
#79=ORIENTED_EDGE('',*,*,#67,.F.);
#80=ORIENTED_EDGE('',*,*,#68,.T.);
#81=ORIENTED_EDGE('',*,*,#69,.T.);
#82=ORIENTED_EDGE('',*,*,#68,.F.);
#83=ORIENTED_EDGE('',*,*,#69,.F.);
#84=ORIENTED_EDGE('',*,*,#70,.F.);
#85=ORIENTED_EDGE('',*,*,#71,.F.);
#86=ORIENTED_EDGE('',*,*,#72,.T.);
#87=ORIENTED_EDGE('',*,*,#73,.F.);
#88=ORIENTED_EDGE('',*,*,#72,.F.);
#89=ORIENTED_EDGE('',*,*,#71,.T.);
#90=ORIENTED_EDGE('',*,*,#67,.T.);
#91=ORIENTED_EDGE('',*,*,#74,.F.);
#92=ORIENTED_EDGE('',*,*,#75,.T.);
#93=ORIENTED_EDGE('',*,*,#70,.T.);
#94=ORIENTED_EDGE('',*,*,#75,.F.);
#95=ORIENTED_EDGE('',*,*,#76,.F.);
#96=ORIENTED_EDGE('',*,*,#77,.T.);
#97=ORIENTED_EDGE('',*,*,#78,.F.);
#98=ORIENTED_EDGE('',*,*,#77,.F.);
#99=ORIENTED_EDGE('',*,*,#78,.T.);
#100=ORIENTED_EDGE('',*,*,#74,.T.);
#101=ORIENTED_EDGE('',*,*,#76,.T.);
#102=ORIENTED_EDGE('',*,*,#73,.T.);
#103=CYLINDRICAL_SURFACE('',#135,7.5);
#104=CYLINDRICAL_SURFACE('',#140,9.);
#105=CYLINDRICAL_SURFACE('',#144,5.);
#106=CYLINDRICAL_SURFACE('',#146,15.);
#107=ADVANCED_FACE('',(#23),#103,.F.);
#108=ADVANCED_FACE('',(#24,#15),#19,.T.);
#109=ADVANCED_FACE('',(#25),#104,.T.);
#110=ADVANCED_FACE('',(#26,#16),#20,.T.);
#111=ADVANCED_FACE('',(#27),#105,.F.);
#112=ADVANCED_FACE('',(#28),#106,.T.);
#113=ADVANCED_FACE('',(#29,#17),#21,.F.);
#114=ADVANCED_FACE('',(#30,#18),#22,.T.);
#115=CLOSED_SHELL('',(#107,#108,#109,#110,#111,#112,#113,#114));
#116=DERIVED_UNIT_ELEMENT(#118,1.);
#117=DERIVED_UNIT_ELEMENT(#223,3.);
#118=(
MASS_UNIT()
NAMED_UNIT(*)
SI_UNIT($,.GRAM.)
);
#119=DERIVED_UNIT((#116,#117));
#120=MEASURE_REPRESENTATION_ITEM('density measure',
POSITIVE_RATIO_MEASURE(1.),#119);
#121=PROPERTY_DEFINITION_REPRESENTATION(#126,#123);
#122=PROPERTY_DEFINITION_REPRESENTATION(#127,#124);
#123=REPRESENTATION('material name',(#125),#220);
#124=REPRESENTATION('density',(#120),#220);
#125=DESCRIPTIVE_REPRESENTATION_ITEM('G\X\E9n\X\E9rique','G\X\E9n\X\E9
rique');
#126=PROPERTY_DEFINITION('material property','material name',#230);
#127=PROPERTY_DEFINITION('material property','density of part',#230);
#128=DATE_TIME_ROLE('creation_date');
#129=APPLIED_DATE_AND_TIME_ASSIGNMENT(#130,#128,(#230));
#130=DATE_AND_TIME(#131,#132);
#131=CALENDAR_DATE(2020,7,9);
#132=LOCAL_TIME(15,48,30.,#133);
#133=COORDINATED_UNIVERSAL_TIME_OFFSET(0,0,.BEHIND.);
#134=AXIS2_PLACEMENT_3D('placement',#189,#151,#152);
#135=AXIS2_PLACEMENT_3D('',#190,#153,#154);
#136=AXIS2_PLACEMENT_3D('',#192,#155,#156);
#137=AXIS2_PLACEMENT_3D('',#195,#158,#159);
#138=AXIS2_PLACEMENT_3D('',#196,#160,#161);
#139=AXIS2_PLACEMENT_3D('',#198,#162,#163);
#140=AXIS2_PLACEMENT_3D('',#199,#164,#165);
#141=AXIS2_PLACEMENT_3D('',#201,#166,#167);
#142=AXIS2_PLACEMENT_3D('',#204,#169,#170);
#143=AXIS2_PLACEMENT_3D('',#205,#171,#172);
#144=AXIS2_PLACEMENT_3D('',#206,#173,#174);
#145=AXIS2_PLACEMENT_3D('',#208,#175,#176);
#146=AXIS2_PLACEMENT_3D('',#210,#178,#179);
#147=AXIS2_PLACEMENT_3D('',#212,#180,#181);
#148=AXIS2_PLACEMENT_3D('',#215,#183,#184);
#149=AXIS2_PLACEMENT_3D('',#216,#185,#186);
#150=AXIS2_PLACEMENT_3D('',#217,#187,#188);
#151=DIRECTION('axis',(0.,0.,1.));
#152=DIRECTION('refdir',(1.,0.,0.));
#153=DIRECTION('center_axis',(0.,-1.,0.));
#154=DIRECTION('ref_axis',(-1.,0.,0.));
#155=DIRECTION('center_axis',(0.,-1.,0.));
#156=DIRECTION('ref_axis',(-1.,0.,0.));
#157=DIRECTION('',(0.,-1.,0.));
#158=DIRECTION('center_axis',(0.,-1.,0.));
#159=DIRECTION('ref_axis',(-1.,0.,0.));
#160=DIRECTION('center_axis',(0.,1.,0.));
#161=DIRECTION('ref_axis',(0.,0.,1.));
#162=DIRECTION('center_axis',(0.,1.,0.));
#163=DIRECTION('ref_axis',(1.,0.,0.));
#164=DIRECTION('center_axis',(0.,1.,0.));
#165=DIRECTION('ref_axis',(-1.,0.,0.));
#166=DIRECTION('center_axis',(0.,1.,0.));
#167=DIRECTION('ref_axis',(-1.,0.,0.));
#168=DIRECTION('',(0.,-1.,0.));
#169=DIRECTION('center_axis',(0.,-1.,0.));
#170=DIRECTION('ref_axis',(-1.,0.,0.));
#171=DIRECTION('center_axis',(0.,1.,0.));
#172=DIRECTION('ref_axis',(0.,0.,1.));
#173=DIRECTION('center_axis',(0.,1.,0.));
#174=DIRECTION('ref_axis',(1.,0.,0.));
#175=DIRECTION('center_axis',(0.,1.,0.));
#176=DIRECTION('ref_axis',(1.,0.,0.));
#177=DIRECTION('',(0.,1.,0.));
#178=DIRECTION('center_axis',(0.,1.,0.));
#179=DIRECTION('ref_axis',(1.,0.,0.));
#180=DIRECTION('center_axis',(0.,1.,0.));
#181=DIRECTION('ref_axis',(1.,0.,0.));
#182=DIRECTION('',(0.,-1.,0.));
#183=DIRECTION('center_axis',(0.,-1.,0.));
#184=DIRECTION('ref_axis',(1.,0.,0.));
#185=DIRECTION('center_axis',(0.,1.,0.));
#186=DIRECTION('ref_axis',(0.,0.,1.));
#187=DIRECTION('center_axis',(0.,1.,0.));
#188=DIRECTION('ref_axis',(0.,0.,1.));
#189=CARTESIAN_POINT('',(0.,0.,0.));
#190=CARTESIAN_POINT('Origin',(0.,18.,0.));
#191=CARTESIAN_POINT('',(7.5,18.,-9.18485099360515E-16));
#192=CARTESIAN_POINT('Origin',(0.,18.,0.));
#193=CARTESIAN_POINT('',(7.5,14.5,-9.18485099360515E-16));
#194=CARTESIAN_POINT('',(7.5,18.,9.18485099360515E-16));
#195=CARTESIAN_POINT('Origin',(0.,14.5,0.));
#196=CARTESIAN_POINT('Origin',(-5.69972880335668E-16,14.5,1.2335811384724E-16));
#197=CARTESIAN_POINT('',(-5.,14.5,6.12323399573677E-16));
#198=CARTESIAN_POINT('Origin',(0.,14.5,0.));
#199=CARTESIAN_POINT('Origin',(0.,3.,0.));
#200=CARTESIAN_POINT('',(9.,18.,-1.10218211923262E-15));
#201=CARTESIAN_POINT('Origin',(0.,18.,0.));
#202=CARTESIAN_POINT('',(9.,3.,-1.10218211923262E-15));
#203=CARTESIAN_POINT('',(9.,3.,-1.10218211923262E-15));
#204=CARTESIAN_POINT('Origin',(0.,3.,0.));
#205=CARTESIAN_POINT('Origin',(-5.03042222760184E-16,18.,0.));
#206=CARTESIAN_POINT('Origin',(0.,0.,0.));
#207=CARTESIAN_POINT('',(-5.,0.,6.12323399573677E-16));
#208=CARTESIAN_POINT('Origin',(0.,0.,0.));
#209=CARTESIAN_POINT('',(-5.,0.,6.12323399573677E-16));
#210=CARTESIAN_POINT('Origin',(0.,0.,0.));
#211=CARTESIAN_POINT('',(-15.,3.,1.83697019872103E-15));
#212=CARTESIAN_POINT('Origin',(0.,3.,0.));
#213=CARTESIAN_POINT('',(-15.,0.,1.83697019872103E-15));
#214=CARTESIAN_POINT('',(-15.,0.,1.83697019872103E-15));
#215=CARTESIAN_POINT('Origin',(0.,0.,0.));
#216=CARTESIAN_POINT('Origin',(1.13994576067134E-15,0.,-2.46716227694479E-16));
#217=CARTESIAN_POINT('Origin',(1.13994576067134E-15,3.,-2.46716227694479E-16));
#218=UNCERTAINTY_MEASURE_WITH_UNIT(LENGTH_MEASURE(0.01),#222,
'DISTANCE_ACCURACY_VALUE',
'Maximum model space distance between geometric entities at asserted c
onnectivities');
#219=UNCERTAINTY_MEASURE_WITH_UNIT(LENGTH_MEASURE(0.01),#222,
'DISTANCE_ACCURACY_VALUE',
'Maximum model space distance between geometric entities at asserted c
onnectivities');
#220=(
GEOMETRIC_REPRESENTATION_CONTEXT(3)
GLOBAL_UNCERTAINTY_ASSIGNED_CONTEXT((#218))
GLOBAL_UNIT_ASSIGNED_CONTEXT((#222,#224,#225))
REPRESENTATION_CONTEXT('','3D')
);
#221=(
GEOMETRIC_REPRESENTATION_CONTEXT(3)
GLOBAL_UNCERTAINTY_ASSIGNED_CONTEXT((#219))
GLOBAL_UNIT_ASSIGNED_CONTEXT((#222,#224,#225))
REPRESENTATION_CONTEXT('','3D')
);
#222=(
LENGTH_UNIT()
NAMED_UNIT(*)
SI_UNIT(.MILLI.,.METRE.)
);
#223=(
LENGTH_UNIT()
NAMED_UNIT(*)
SI_UNIT(.CENTI.,.METRE.)
);
#224=(
NAMED_UNIT(*)
PLANE_ANGLE_UNIT()
SI_UNIT($,.RADIAN.)
);
#225=(
NAMED_UNIT(*)
SI_UNIT($,.STERADIAN.)
SOLID_ANGLE_UNIT()
);
#226=SHAPE_DEFINITION_REPRESENTATION(#227,#228);
#227=PRODUCT_DEFINITION_SHAPE('',$,#230);
#228=SHAPE_REPRESENTATION('',(#134),#220);
#229=PRODUCT_DEFINITION_CONTEXT('part definition',#234,'design');
#230=PRODUCT_DEFINITION('Adaptateur roue libre','Adaptateur roue libre',
#231,#229);
#231=PRODUCT_DEFINITION_FORMATION('',$,#236);
#232=PRODUCT_RELATED_PRODUCT_CATEGORY('Adaptateur roue libre',
'Adaptateur roue libre',(#236));
#233=APPLICATION_PROTOCOL_DEFINITION('international standard',
'automotive_design',2009,#234);
#234=APPLICATION_CONTEXT(
'Core Data for Automotive Mechanical Design Process');
#235=PRODUCT_CONTEXT('part definition',#234,'mechanical');
#236=PRODUCT('Adaptateur roue libre','Adaptateur roue libre',$,(#235));
#237=PRESENTATION_STYLE_ASSIGNMENT((#238));
#238=SURFACE_STYLE_USAGE(.BOTH.,#241);
#239=SURFACE_STYLE_RENDERING_WITH_PROPERTIES($,#245,(#240));
#240=SURFACE_STYLE_TRANSPARENT(0.);
#241=SURFACE_SIDE_STYLE('',(#242,#239));
#242=SURFACE_STYLE_FILL_AREA(#243);
#243=FILL_AREA_STYLE('',(#244));
#244=FILL_AREA_STYLE_COLOUR('',#245);
#245=COLOUR_RGB('',0.749019607843137,0.749019607843137,0.749019607843137);
ENDSEC;
END-ISO-10303-21;
