ISO-10303-21;
HEADER;
/* Generated by software containing ST-Developer
 * from STEP Tools, Inc. (www.steptools.com) 
 */

FILE_DESCRIPTION(
/* description */ (''),
/* implementation_level */ '2;1');

FILE_NAME(
/* name */ 
'D:/Dropbox/9-CNC/1AA-TRIGENERAL/1-TournageMetal/7A-TourMetalJET/Piece
B.step',
/* time_stamp */ '2020-09-07T10:45:20+02:00',
/* author */ (''),
/* organization */ (''),
/* preprocessor_version */ 'ST-DEVELOPER v18.1',
/* originating_system */ 'Autodesk Translation Framework v9.3.0.1241',
/* authorisation */ '');

FILE_SCHEMA (('AUTOMOTIVE_DESIGN { 1 0 10303 214 3 1 1 }'));
ENDSEC;

DATA;
#10=MECHANICAL_DESIGN_GEOMETRIC_PRESENTATION_REPRESENTATION('',(#13),#206);
#11=SHAPE_REPRESENTATION_RELATIONSHIP('SRR','None',#213,#12);
#12=ADVANCED_BREP_SHAPE_REPRESENTATION('',(#14),#205);
#13=STYLED_ITEM('',(#222),#14);
#14=MANIFOLD_SOLID_BREP('Body1',#109);
#15=FACE_BOUND('',#33,.T.);
#16=PLANE('',#130);
#17=PLANE('',#136);
#18=PLANE('',#137);
#19=CYLINDRICAL_SURFACE('',#126,14.);
#20=CYLINDRICAL_SURFACE('',#132,6.);
#21=FACE_OUTER_BOUND('',#29,.T.);
#22=FACE_OUTER_BOUND('',#30,.T.);
#23=FACE_OUTER_BOUND('',#31,.T.);
#24=FACE_OUTER_BOUND('',#32,.T.);
#25=FACE_OUTER_BOUND('',#34,.T.);
#26=FACE_OUTER_BOUND('',#35,.T.);
#27=FACE_OUTER_BOUND('',#36,.T.);
#28=FACE_OUTER_BOUND('',#37,.T.);
#29=EDGE_LOOP('',(#74,#75,#76,#77));
#30=EDGE_LOOP('',(#78,#79,#80,#81));
#31=EDGE_LOOP('',(#82,#83,#84,#85));
#32=EDGE_LOOP('',(#86));
#33=EDGE_LOOP('',(#87));
#34=EDGE_LOOP('',(#88,#89,#90,#91));
#35=EDGE_LOOP('',(#92,#93,#94,#95));
#36=EDGE_LOOP('',(#96));
#37=EDGE_LOOP('',(#97));
#38=LINE('',#180,#43);
#39=LINE('',#185,#44);
#40=LINE('',#189,#45);
#41=LINE('',#196,#46);
#42=LINE('',#200,#47);
#43=VECTOR('',#144,13.75);
#44=VECTOR('',#151,14.);
#45=VECTOR('',#156,13.75);
#46=VECTOR('',#165,6.);
#47=VECTOR('',#170,5.75);
#48=CIRCLE('',#124,14.);
#49=CIRCLE('',#125,13.5);
#50=CIRCLE('',#127,14.);
#51=CIRCLE('',#129,13.5);
#52=CIRCLE('',#131,5.99999999999999);
#53=CIRCLE('',#133,6.);
#54=CIRCLE('',#135,5.5);
#55=VERTEX_POINT('',#177);
#56=VERTEX_POINT('',#179);
#57=VERTEX_POINT('',#183);
#58=VERTEX_POINT('',#187);
#59=VERTEX_POINT('',#191);
#60=VERTEX_POINT('',#194);
#61=VERTEX_POINT('',#198);
#62=EDGE_CURVE('',#55,#55,#48,.T.);
#63=EDGE_CURVE('',#55,#56,#38,.T.);
#64=EDGE_CURVE('',#56,#56,#49,.T.);
#65=EDGE_CURVE('',#57,#57,#50,.T.);
#66=EDGE_CURVE('',#57,#55,#39,.T.);
#67=EDGE_CURVE('',#58,#58,#51,.T.);
#68=EDGE_CURVE('',#58,#57,#40,.T.);
#69=EDGE_CURVE('',#59,#59,#52,.T.);
#70=EDGE_CURVE('',#60,#60,#53,.T.);
#71=EDGE_CURVE('',#60,#59,#41,.T.);
#72=EDGE_CURVE('',#61,#61,#54,.T.);
#73=EDGE_CURVE('',#61,#60,#42,.T.);
#74=ORIENTED_EDGE('',*,*,#62,.F.);
#75=ORIENTED_EDGE('',*,*,#63,.T.);
#76=ORIENTED_EDGE('',*,*,#64,.T.);
#77=ORIENTED_EDGE('',*,*,#63,.F.);
#78=ORIENTED_EDGE('',*,*,#65,.F.);
#79=ORIENTED_EDGE('',*,*,#66,.T.);
#80=ORIENTED_EDGE('',*,*,#62,.T.);
#81=ORIENTED_EDGE('',*,*,#66,.F.);
#82=ORIENTED_EDGE('',*,*,#67,.F.);
#83=ORIENTED_EDGE('',*,*,#68,.T.);
#84=ORIENTED_EDGE('',*,*,#65,.T.);
#85=ORIENTED_EDGE('',*,*,#68,.F.);
#86=ORIENTED_EDGE('',*,*,#67,.T.);
#87=ORIENTED_EDGE('',*,*,#69,.F.);
#88=ORIENTED_EDGE('',*,*,#70,.F.);
#89=ORIENTED_EDGE('',*,*,#71,.T.);
#90=ORIENTED_EDGE('',*,*,#69,.T.);
#91=ORIENTED_EDGE('',*,*,#71,.F.);
#92=ORIENTED_EDGE('',*,*,#72,.F.);
#93=ORIENTED_EDGE('',*,*,#73,.T.);
#94=ORIENTED_EDGE('',*,*,#70,.T.);
#95=ORIENTED_EDGE('',*,*,#73,.F.);
#96=ORIENTED_EDGE('',*,*,#72,.T.);
#97=ORIENTED_EDGE('',*,*,#64,.F.);
#98=CONICAL_SURFACE('',#123,13.75,0.785398163397451);
#99=CONICAL_SURFACE('',#128,13.75,0.785398163397446);
#100=CONICAL_SURFACE('',#134,5.75,0.785398163397446);
#101=ADVANCED_FACE('',(#21),#98,.T.);
#102=ADVANCED_FACE('',(#22),#19,.T.);
#103=ADVANCED_FACE('',(#23),#99,.T.);
#104=ADVANCED_FACE('',(#24,#15),#16,.T.);
#105=ADVANCED_FACE('',(#25),#20,.T.);
#106=ADVANCED_FACE('',(#26),#100,.T.);
#107=ADVANCED_FACE('',(#27),#17,.T.);
#108=ADVANCED_FACE('',(#28),#18,.T.);
#109=CLOSED_SHELL('',(#101,#102,#103,#104,#105,#106,#107,#108));
#110=DERIVED_UNIT_ELEMENT(#112,1.);
#111=DERIVED_UNIT_ELEMENT(#208,3.);
#112=(
MASS_UNIT()
NAMED_UNIT(*)
SI_UNIT(.KILO.,.GRAM.)
);
#113=DERIVED_UNIT((#110,#111));
#114=MEASURE_REPRESENTATION_ITEM('density measure',
POSITIVE_RATIO_MEASURE(7850.),#113);
#115=PROPERTY_DEFINITION_REPRESENTATION(#120,#117);
#116=PROPERTY_DEFINITION_REPRESENTATION(#121,#118);
#117=REPRESENTATION('material name',(#119),#205);
#118=REPRESENTATION('density',(#114),#205);
#119=DESCRIPTIVE_REPRESENTATION_ITEM('Steel','Steel');
#120=PROPERTY_DEFINITION('material property','material name',#215);
#121=PROPERTY_DEFINITION('material property','density of part',#215);
#122=AXIS2_PLACEMENT_3D('placement',#175,#138,#139);
#123=AXIS2_PLACEMENT_3D('',#176,#140,#141);
#124=AXIS2_PLACEMENT_3D('',#178,#142,#143);
#125=AXIS2_PLACEMENT_3D('',#181,#145,#146);
#126=AXIS2_PLACEMENT_3D('',#182,#147,#148);
#127=AXIS2_PLACEMENT_3D('',#184,#149,#150);
#128=AXIS2_PLACEMENT_3D('',#186,#152,#153);
#129=AXIS2_PLACEMENT_3D('',#188,#154,#155);
#130=AXIS2_PLACEMENT_3D('',#190,#157,#158);
#131=AXIS2_PLACEMENT_3D('',#192,#159,#160);
#132=AXIS2_PLACEMENT_3D('',#193,#161,#162);
#133=AXIS2_PLACEMENT_3D('',#195,#163,#164);
#134=AXIS2_PLACEMENT_3D('',#197,#166,#167);
#135=AXIS2_PLACEMENT_3D('',#199,#168,#169);
#136=AXIS2_PLACEMENT_3D('',#201,#171,#172);
#137=AXIS2_PLACEMENT_3D('',#202,#173,#174);
#138=DIRECTION('axis',(0.,0.,1.));
#139=DIRECTION('refdir',(1.,0.,0.));
#140=DIRECTION('center_axis',(-1.,0.,0.));
#141=DIRECTION('ref_axis',(0.,0.,1.));
#142=DIRECTION('center_axis',(-1.,0.,0.));
#143=DIRECTION('ref_axis',(0.,0.,1.));
#144=DIRECTION('',(0.707106781186546,8.65956056235495E-17,0.707106781186549));
#145=DIRECTION('center_axis',(-1.,0.,0.));
#146=DIRECTION('ref_axis',(0.,0.,1.));
#147=DIRECTION('center_axis',(-1.,0.,0.));
#148=DIRECTION('ref_axis',(0.,0.,1.));
#149=DIRECTION('center_axis',(-1.,0.,0.));
#150=DIRECTION('ref_axis',(0.,0.,1.));
#151=DIRECTION('',(1.,0.,0.));
#152=DIRECTION('center_axis',(1.,0.,0.));
#153=DIRECTION('ref_axis',(0.,0.,1.));
#154=DIRECTION('center_axis',(-1.,0.,0.));
#155=DIRECTION('ref_axis',(0.,0.,1.));
#156=DIRECTION('',(0.707106781186549,-8.65956056235491E-17,-0.707106781186546));
#157=DIRECTION('center_axis',(-1.,0.,0.));
#158=DIRECTION('ref_axis',(0.,0.,1.));
#159=DIRECTION('center_axis',(-1.,0.,0.));
#160=DIRECTION('ref_axis',(0.,0.,1.));
#161=DIRECTION('center_axis',(-1.,0.,0.));
#162=DIRECTION('ref_axis',(0.,0.,1.));
#163=DIRECTION('center_axis',(-1.,0.,0.));
#164=DIRECTION('ref_axis',(0.,0.,1.));
#165=DIRECTION('',(1.,0.,0.));
#166=DIRECTION('center_axis',(1.,0.,0.));
#167=DIRECTION('ref_axis',(0.,0.,1.));
#168=DIRECTION('center_axis',(-1.,0.,0.));
#169=DIRECTION('ref_axis',(0.,0.,1.));
#170=DIRECTION('',(0.707106781186549,-8.65956056235491E-17,-0.707106781186546));
#171=DIRECTION('center_axis',(-1.,0.,0.));
#172=DIRECTION('ref_axis',(0.,0.,1.));
#173=DIRECTION('center_axis',(1.,0.,0.));
#174=DIRECTION('ref_axis',(0.,0.,-1.));
#175=CARTESIAN_POINT('',(0.,0.,0.));
#176=CARTESIAN_POINT('Origin',(41.75,0.,0.));
#177=CARTESIAN_POINT('',(41.5,-1.71450551880629E-15,-14.));
#178=CARTESIAN_POINT('Origin',(41.5,0.,0.));
#179=CARTESIAN_POINT('',(42.,-1.65327317884893E-15,-13.5));
#180=CARTESIAN_POINT('',(41.75,-1.68388934882761E-15,-13.75));
#181=CARTESIAN_POINT('Origin',(42.,0.,0.));
#182=CARTESIAN_POINT('Origin',(39.,0.,0.));
#183=CARTESIAN_POINT('',(36.5,-1.71450551880629E-15,-14.));
#184=CARTESIAN_POINT('Origin',(36.5,0.,0.));
#185=CARTESIAN_POINT('',(39.,-1.71450551880629E-15,-14.));
#186=CARTESIAN_POINT('Origin',(36.25,0.,0.));
#187=CARTESIAN_POINT('',(36.,-1.65327317884893E-15,-13.5));
#188=CARTESIAN_POINT('Origin',(36.,0.,0.));
#189=CARTESIAN_POINT('',(36.25,-1.68388934882761E-15,-13.75));
#190=CARTESIAN_POINT('Origin',(36.,0.,5.99999999999999));
#191=CARTESIAN_POINT('',(36.,-7.34788079488412E-16,-6.));
#192=CARTESIAN_POINT('Origin',(36.,0.,0.));
#193=CARTESIAN_POINT('Origin',(30.25,0.,0.));
#194=CARTESIAN_POINT('',(24.5,-7.34788079488412E-16,-6.));
#195=CARTESIAN_POINT('Origin',(24.5,0.,0.));
#196=CARTESIAN_POINT('',(30.25,-7.34788079488412E-16,-6.));
#197=CARTESIAN_POINT('Origin',(24.25,0.,0.));
#198=CARTESIAN_POINT('',(24.,-6.73555739531044E-16,-5.5));
#199=CARTESIAN_POINT('Origin',(24.,0.,0.));
#200=CARTESIAN_POINT('',(24.25,-7.04171909509728E-16,-5.75));
#201=CARTESIAN_POINT('Origin',(24.,0.,0.));
#202=CARTESIAN_POINT('Origin',(42.,0.,13.5));
#203=UNCERTAINTY_MEASURE_WITH_UNIT(LENGTH_MEASURE(0.01),#207,
'DISTANCE_ACCURACY_VALUE',
'Maximum model space distance between geometric entities at asserted c
onnectivities');
#204=UNCERTAINTY_MEASURE_WITH_UNIT(LENGTH_MEASURE(0.01),#207,
'DISTANCE_ACCURACY_VALUE',
'Maximum model space distance between geometric entities at asserted c
onnectivities');
#205=(
GEOMETRIC_REPRESENTATION_CONTEXT(3)
GLOBAL_UNCERTAINTY_ASSIGNED_CONTEXT((#203))
GLOBAL_UNIT_ASSIGNED_CONTEXT((#207,#209,#210))
REPRESENTATION_CONTEXT('','3D')
);
#206=(
GEOMETRIC_REPRESENTATION_CONTEXT(3)
GLOBAL_UNCERTAINTY_ASSIGNED_CONTEXT((#204))
GLOBAL_UNIT_ASSIGNED_CONTEXT((#207,#209,#210))
REPRESENTATION_CONTEXT('','3D')
);
#207=(
LENGTH_UNIT()
NAMED_UNIT(*)
SI_UNIT(.MILLI.,.METRE.)
);
#208=(
LENGTH_UNIT()
NAMED_UNIT(*)
SI_UNIT($,.METRE.)
);
#209=(
NAMED_UNIT(*)
PLANE_ANGLE_UNIT()
SI_UNIT($,.RADIAN.)
);
#210=(
NAMED_UNIT(*)
SI_UNIT($,.STERADIAN.)
SOLID_ANGLE_UNIT()
);
#211=SHAPE_DEFINITION_REPRESENTATION(#212,#213);
#212=PRODUCT_DEFINITION_SHAPE('',$,#215);
#213=SHAPE_REPRESENTATION('',(#122),#205);
#214=PRODUCT_DEFINITION_CONTEXT('part definition',#219,'design');
#215=PRODUCT_DEFINITION('FusionComponent','FusionComponent',#216,#214);
#216=PRODUCT_DEFINITION_FORMATION('',$,#221);
#217=PRODUCT_RELATED_PRODUCT_CATEGORY('FusionComponent',
'FusionComponent',(#221));
#218=APPLICATION_PROTOCOL_DEFINITION('international standard',
'automotive_design',2009,#219);
#219=APPLICATION_CONTEXT(
'Core Data for Automotive Mechanical Design Process');
#220=PRODUCT_CONTEXT('part definition',#219,'mechanical');
#221=PRODUCT('FusionComponent','FusionComponent',$,(#220));
#222=PRESENTATION_STYLE_ASSIGNMENT((#223));
#223=SURFACE_STYLE_USAGE(.BOTH.,#224);
#224=SURFACE_SIDE_STYLE('',(#225));
#225=SURFACE_STYLE_FILL_AREA(#226);
#226=FILL_AREA_STYLE('Steel - Satin',(#227));
#227=FILL_AREA_STYLE_COLOUR('Steel - Satin',#228);
#228=COLOUR_RGB('Steel - Satin',0.627450980392157,0.627450980392157,0.627450980392157);
ENDSEC;
END-ISO-10303-21;
