ISO-10303-21;
HEADER;
FILE_DESCRIPTION(('CATIA V5 STEP Exchange'),'2;1');

FILE_NAME('C:\\Users\\valentin\\Desktop\\Simply Army Airsoft\\CATALOGUE Simply Army Airsoft\\Collab Nuage_SAA\\Trigger box\\Vsr\\1\\STP\\Spring guide stoper.stp','2020-08-11T07:31:38+00:00',('none'),('none'),'CATIA Version 5 Release 19 GA (IN-10)','CATIA V5 STEP AP203','none');

FILE_SCHEMA(('CONFIG_CONTROL_DESIGN'));

ENDSEC;
/* file written by CATIA V5R19 */
DATA;
#5=PRODUCT('Spring guide  stoper','','',(#2)) ;
#1=APPLICATION_CONTEXT('configuration controlled 3D design of mechanical parts and assemblies') ;
#14=PRODUCT_DEFINITION('',' ',#6,#3) ;
#16=SECURITY_CLASSIFICATION(' ',' ',#15) ;
#15=SECURITY_CLASSIFICATION_LEVEL('unclassified') ;
#47=CARTESIAN_POINT(' ',(0.,0.,0.)) ;
#52=CARTESIAN_POINT('Axis2P3D Location',(0.,0.,21.)) ;
#57=CARTESIAN_POINT('Line Origine',(-1.25,3.,21.)) ;
#61=CARTESIAN_POINT('Vertex',(0.5,3.,21.)) ;
#63=CARTESIAN_POINT('Vertex',(-3.,3.,21.)) ;
#66=CARTESIAN_POINT('Line Origine',(-3.,8.881784197E-016,21.)) ;
#70=CARTESIAN_POINT('Vertex',(-3.,-3.,21.)) ;
#73=CARTESIAN_POINT('Line Origine',(-1.25,-3.,21.)) ;
#77=CARTESIAN_POINT('Vertex',(0.5,-3.,21.)) ;
#80=CARTESIAN_POINT('Axis2P3D Location',(0.5,-2.96059473233E-016,21.)) ;
#92=CARTESIAN_POINT('Axis2P3D Location',(0.,0.,0.)) ;
#97=CARTESIAN_POINT('Line Origine',(0.,3.,0.)) ;
#101=CARTESIAN_POINT('Vertex',(3.,3.,0.)) ;
#103=CARTESIAN_POINT('Vertex',(-3.,3.,0.)) ;
#106=CARTESIAN_POINT('Line Origine',(3.,0.,0.)) ;
#110=CARTESIAN_POINT('Vertex',(3.,-3.,0.)) ;
#113=CARTESIAN_POINT('Line Origine',(-8.881784197E-016,-3.,0.)) ;
#117=CARTESIAN_POINT('Vertex',(-3.,-3.,0.)) ;
#120=CARTESIAN_POINT('Line Origine',(-3.,8.881784197E-016,0.)) ;
#132=CARTESIAN_POINT('Axis2P3D Location',(0.,0.,43.)) ;
#137=CARTESIAN_POINT('Axis2P3D Location',(0.5,-2.96059473233E-016,43.)) ;
#141=CARTESIAN_POINT('Vertex',(-1.5,-2.2360679775,43.)) ;
#143=CARTESIAN_POINT('Vertex',(0.5,-3.,43.)) ;
#146=CARTESIAN_POINT('Line Origine',(1.25,-3.,43.)) ;
#150=CARTESIAN_POINT('Vertex',(2.,-3.,43.)) ;
#153=CARTESIAN_POINT('Line Origine',(2.,-8.881784197E-016,43.)) ;
#157=CARTESIAN_POINT('Vertex',(2.,3.,43.)) ;
#160=CARTESIAN_POINT('Line Origine',(1.25,3.,43.)) ;
#164=CARTESIAN_POINT('Vertex',(0.5,3.,43.)) ;
#167=CARTESIAN_POINT('Axis2P3D Location',(0.5,-2.96059473233E-016,43.)) ;
#171=CARTESIAN_POINT('Vertex',(-1.5,2.2360679775,43.)) ;
#174=CARTESIAN_POINT('Line Origine',(-1.5,-4.4408920985E-016,43.)) ;
#188=CARTESIAN_POINT('Axis2P3D Location',(-3.,3.,0.)) ;
#193=CARTESIAN_POINT('Line Origine',(2.5,3.,42.5)) ;
#197=CARTESIAN_POINT('Vertex',(3.,3.,42.)) ;
#200=CARTESIAN_POINT('Line Origine',(3.,3.,21.)) ;
#205=CARTESIAN_POINT('Line Origine',(-3.,3.,10.5)) ;
#210=CARTESIAN_POINT('Line Origine',(0.5,3.,32.)) ;
#225=CARTESIAN_POINT('Axis2P3D Location',(3.,-3.,0.)) ;
#230=CARTESIAN_POINT('Line Origine',(2.5,-3.,42.5)) ;
#234=CARTESIAN_POINT('Vertex',(3.,-3.,42.)) ;
#237=CARTESIAN_POINT('Line Origine',(0.5,-3.,32.)) ;
#242=CARTESIAN_POINT('Line Origine',(-3.,-3.,10.5)) ;
#247=CARTESIAN_POINT('Line Origine',(3.,-3.,21.)) ;
#262=CARTESIAN_POINT('Axis2P3D Location',(0.5,-2.96059473233E-016,32.)) ;
#268=CARTESIAN_POINT('Control Point',(-2.5,-4.77176498537E-007,42.0000046115)) ;
#269=CARTESIAN_POINT('Control Point',(-2.49999991222,-0.551867128825,42.0000046115)) ;
#270=CARTESIAN_POINT('Control Point',(-2.37106525193,-1.10727797926,42.1289229241)) ;
#271=CARTESIAN_POINT('Control Point',(-2.12334948892,-1.56754392197,42.3766560303)) ;
#272=CARTESIAN_POINT('Control Point',(-1.83018240402,-1.94074385735,42.669817596)) ;
#273=CARTESIAN_POINT('Control Point',(-1.5,-2.2360679775,43.)) ;
#274=CARTESIAN_POINT('Vertex',(-2.5,0.,42.)) ;
#278=CARTESIAN_POINT('Control Point',(-1.5,2.2360679775,43.)) ;
#279=CARTESIAN_POINT('Control Point',(-1.83016255804,1.94076160814,42.669837442)) ;
#280=CARTESIAN_POINT('Control Point',(-2.1236161818,1.56718485421,42.3763858273)) ;
#281=CARTESIAN_POINT('Control Point',(-2.37102698385,1.107226303,42.1289647013)) ;
#282=CARTESIAN_POINT('Control Point',(-2.50000008777,0.551833003911,42.0000046115)) ;
#283=CARTESIAN_POINT('Control Point',(-2.5,-4.77176498315E-007,42.0000046115)) ;
#295=CARTESIAN_POINT('Axis2P3D Location',(2.,-3.,43.)) ;
#300=CARTESIAN_POINT('Line Origine',(3.,-8.881784197E-016,42.)) ;
#312=CARTESIAN_POINT('Axis2P3D Location',(-1.5,-3.,43.)) ;
#323=CARTESIAN_POINT('Axis2P3D Location',(0.5,0.,39.)) ;
#328=CARTESIAN_POINT('Line Origine',(1.75,-0.599281923255,37.9030217976)) ;
#332=CARTESIAN_POINT('Vertex',(0.5,3.41317021906E-015,39.)) ;
#334=CARTESIAN_POINT('Vertex',(3.,-1.19856384651,36.8060435953)) ;
#337=CARTESIAN_POINT('Axis2P3D Location',(3.,0.,39.)) ;
#341=CARTESIAN_POINT('Vertex',(3.,1.19856384651,41.1939564047)) ;
#344=CARTESIAN_POINT('Line Origine',(1.75,0.599281923255,40.0969782024)) ;
#355=CARTESIAN_POINT('Axis2P3D Location',(3.,0.,39.)) ;
#366=CARTESIAN_POINT('Axis2P3D Location',(3.,-3.,0.)) ;
#377=CARTESIAN_POINT('Axis2P3D Location',(3.,8.881784197E-016,3.5)) ;
#381=CARTESIAN_POINT('Vertex',(3.,2.45,3.5)) ;
#383=CARTESIAN_POINT('Vertex',(3.,-2.45,3.50000000315)) ;
#386=CARTESIAN_POINT('Axis2P3D Location',(3.,4.4408920985E-016,3.5)) ;
#400=CARTESIAN_POINT('Axis2P3D Location',(0.55,-7.77156117238E-016,3.5)) ;
#405=CARTESIAN_POINT('Line Origine',(2.65,-2.1,3.50000012464)) ;
#409=CARTESIAN_POINT('Vertex',(2.3,-1.75,3.5)) ;
#412=CARTESIAN_POINT('Line Origine',(2.65,2.1,3.5)) ;
#416=CARTESIAN_POINT('Vertex',(2.3,1.75,3.5)) ;
#419=CARTESIAN_POINT('Axis2P3D Location',(2.3,-2.22044604925E-016,3.5)) ;
#431=CARTESIAN_POINT('Axis2P3D Location',(0.55,0.,3.5)) ;
#436=CARTESIAN_POINT('Axis2P3D Location',(2.3,0.,3.5)) ;
#448=CARTESIAN_POINT('Axis2P3D Location',(-3.,3.,0.)) ;
#459=CARTESIAN_POINT('Axis2P3D Location',(-3.,-4.4408920985E-016,3.5)) ;
#463=CARTESIAN_POINT('Vertex',(-3.,2.45,3.5)) ;
#465=CARTESIAN_POINT('Vertex',(-3.,-2.45,3.50000000315)) ;
#468=CARTESIAN_POINT('Axis2P3D Location',(-3.,4.4408920985E-016,3.5)) ;
#478=CARTESIAN_POINT('Axis2P3D Location',(-1.7763568394E-015,0.,3.5)) ;
#483=CARTESIAN_POINT('Axis2P3D Location',(-2.3,0.,3.5)) ;
#487=CARTESIAN_POINT('Vertex',(-2.3,1.75,3.5)) ;
#489=CARTESIAN_POINT('Vertex',(-2.3,-1.75,3.5)) ;
#492=CARTESIAN_POINT('Line Origine',(-1.7763568394E-015,1.75,3.5)) ;
#497=CARTESIAN_POINT('Line Origine',(-1.7763568394E-015,-1.75,3.5)) ;
#509=CARTESIAN_POINT('Axis2P3D Location',(-2.3,0.,3.5)) ;
#521=CARTESIAN_POINT('Axis2P3D Location',(-0.55,-1.72084568817E-015,3.5)) ;
#526=CARTESIAN_POINT('Line Origine',(-2.65,-2.1,3.5)) ;
#531=CARTESIAN_POINT('Line Origine',(-2.65,2.1,3.5)) ;
#543=CARTESIAN_POINT('Axis2P3D Location',(-0.55,2.22044604925E-016,3.5)) ;
#53=DIRECTION('Axis2P3D Direction',(0.,0.,1.)) ;
#54=DIRECTION('Axis2P3D XDirection',(1.,0.,0.)) ;
#58=DIRECTION('Vector Direction',(1.,0.,0.)) ;
#67=DIRECTION('Vector Direction',(0.,-1.,0.)) ;
#74=DIRECTION('Vector Direction',(-1.,0.,0.)) ;
#81=DIRECTION('Axis2P3D Direction',(0.,0.,1.)) ;
#93=DIRECTION('Axis2P3D Direction',(0.,0.,1.)) ;
#94=DIRECTION('Axis2P3D XDirection',(1.,0.,0.)) ;
#98=DIRECTION('Vector Direction',(1.,0.,0.)) ;
#107=DIRECTION('Vector Direction',(0.,1.,0.)) ;
#114=DIRECTION('Vector Direction',(-1.,0.,0.)) ;
#121=DIRECTION('Vector Direction',(0.,-1.,0.)) ;
#133=DIRECTION('Axis2P3D Direction',(0.,0.,1.)) ;
#134=DIRECTION('Axis2P3D XDirection',(1.,0.,0.)) ;
#138=DIRECTION('Axis2P3D Direction',(0.,0.,1.)) ;
#147=DIRECTION('Vector Direction',(-1.,0.,0.)) ;
#154=DIRECTION('Vector Direction',(0.,1.,0.)) ;
#161=DIRECTION('Vector Direction',(1.,0.,0.)) ;
#168=DIRECTION('Axis2P3D Direction',(0.,0.,1.)) ;
#175=DIRECTION('Vector Direction',(0.,1.,0.)) ;
#189=DIRECTION('Axis2P3D Direction',(0.,-1.,0.)) ;
#190=DIRECTION('Axis2P3D XDirection',(1.,0.,0.)) ;
#194=DIRECTION('Vector Direction',(0.707106781187,0.,-0.707106781187)) ;
#201=DIRECTION('Vector Direction',(0.,0.,1.)) ;
#206=DIRECTION('Vector Direction',(0.,0.,1.)) ;
#211=DIRECTION('Vector Direction',(0.,0.,1.)) ;
#226=DIRECTION('Axis2P3D Direction',(0.,1.,-0.)) ;
#227=DIRECTION('Axis2P3D XDirection',(-1.,0.,0.)) ;
#231=DIRECTION('Vector Direction',(0.707106781187,0.,-0.707106781187)) ;
#238=DIRECTION('Vector Direction',(0.,0.,1.)) ;
#243=DIRECTION('Vector Direction',(0.,0.,1.)) ;
#248=DIRECTION('Vector Direction',(0.,0.,1.)) ;
#263=DIRECTION('Axis2P3D Direction',(0.,0.,1.)) ;
#264=DIRECTION('Axis2P3D XDirection',(-3.82856869893E-016,1.,0.)) ;
#296=DIRECTION('Axis2P3D Direction',(0.707106781187,-0.,0.707106781187)) ;
#297=DIRECTION('Axis2P3D XDirection',(0.707106781187,0.,-0.707106781187)) ;
#301=DIRECTION('Vector Direction',(0.,1.,0.)) ;
#313=DIRECTION('Axis2P3D Direction',(0.707106781187,0.,-0.707106781187)) ;
#314=DIRECTION('Axis2P3D XDirection',(-0.707106781187,0.,-0.707106781187)) ;
#324=DIRECTION('Axis2P3D Direction',(1.,-0.,-0.)) ;
#325=DIRECTION('Axis2P3D XDirection',(0.,0.479425538604,0.87758256189)) ;
#329=DIRECTION('Vector Direction',(0.707106781187,-0.339005049421,-0.620544580564)) ;
#338=DIRECTION('Axis2P3D Direction',(1.,-0.,0.)) ;
#345=DIRECTION('Vector Direction',(0.707106781187,0.339005049421,0.620544580564)) ;
#356=DIRECTION('Axis2P3D Direction',(1.,-0.,0.)) ;
#367=DIRECTION('Axis2P3D Direction',(1.,0.,0.)) ;
#368=DIRECTION('Axis2P3D XDirection',(0.,1.,0.)) ;
#378=DIRECTION('Axis2P3D Direction',(1.,0.,0.)) ;
#387=DIRECTION('Axis2P3D Direction',(1.,0.,0.)) ;
#401=DIRECTION('Axis2P3D Direction',(1.,3.17206578464E-016,-1.90323947079E-015)) ;
#402=DIRECTION('Axis2P3D XDirection',(3.9512670479E-016,-0.997718723365,0.0675081406013)) ;
#406=DIRECTION('Vector Direction',(0.707106781187,-0.707106781187,4.19667931788E-008)) ;
#413=DIRECTION('Vector Direction',(0.707106781187,0.707106781187,-2.24298922669E-015)) ;
#420=DIRECTION('Axis2P3D Direction',(1.,-1.26745428786E-016,-1.87320056922E-015)) ;
#432=DIRECTION('Axis2P3D Direction',(1.,-0.,-6.34413156929E-016)) ;
#433=DIRECTION('Axis2P3D XDirection',(0.,1.,3.6252178797E-016)) ;
#437=DIRECTION('Axis2P3D Direction',(1.,2.29988602105E-031,-6.34413156929E-016)) ;
#449=DIRECTION('Axis2P3D Direction',(-1.,0.,0.)) ;
#450=DIRECTION('Axis2P3D XDirection',(0.,-1.,0.)) ;
#460=DIRECTION('Axis2P3D Direction',(-1.,0.,0.)) ;
#469=DIRECTION('Axis2P3D Direction',(-1.,0.,0.)) ;
#479=DIRECTION('Axis2P3D Direction',(1.,0.,0.)) ;
#480=DIRECTION('Axis2P3D XDirection',(0.,1.,0.)) ;
#484=DIRECTION('Axis2P3D Direction',(1.,0.,0.)) ;
#493=DIRECTION('Vector Direction',(1.,0.,0.)) ;
#498=DIRECTION('Vector Direction',(1.,0.,0.)) ;
#510=DIRECTION('Axis2P3D Direction',(1.,0.,0.)) ;
#522=DIRECTION('Axis2P3D Direction',(-1.,7.93016446161E-016,0.)) ;
#523=DIRECTION('Axis2P3D XDirection',(7.90253409579E-016,1.,-1.81260893985E-016)) ;
#527=DIRECTION('Vector Direction',(-0.707106781187,-0.707106781187,-4.48597845338E-016)) ;
#532=DIRECTION('Vector Direction',(-0.707106781187,0.707106781187,0.)) ;
#544=DIRECTION('Axis2P3D Direction',(-1.,0.,-6.34413156929E-016)) ;
#545=DIRECTION('Axis2P3D XDirection',(0.,-0.999221343554,-0.0394551211737)) ;
#48=AXIS2_PLACEMENT_3D(' ',#47,$,$) ;
#55=AXIS2_PLACEMENT_3D('Plane Axis2P3D',#52,#53,#54) ;
#82=AXIS2_PLACEMENT_3D('Circle Axis2P3D',#80,#81,$) ;
#95=AXIS2_PLACEMENT_3D('Plane Axis2P3D',#92,#93,#94) ;
#135=AXIS2_PLACEMENT_3D('Plane Axis2P3D',#132,#133,#134) ;
#139=AXIS2_PLACEMENT_3D('Circle Axis2P3D',#137,#138,$) ;
#169=AXIS2_PLACEMENT_3D('Circle Axis2P3D',#167,#168,$) ;
#191=AXIS2_PLACEMENT_3D('Plane Axis2P3D',#188,#189,#190) ;
#228=AXIS2_PLACEMENT_3D('Plane Axis2P3D',#225,#226,#227) ;
#265=AXIS2_PLACEMENT_3D('Cylinder Axis2P3D',#262,#263,#264) ;
#298=AXIS2_PLACEMENT_3D('Plane Axis2P3D',#295,#296,#297) ;
#315=AXIS2_PLACEMENT_3D('Plane Axis2P3D',#312,#313,#314) ;
#326=AXIS2_PLACEMENT_3D('Cone Axis2P3D',#323,#324,#325) ;
#339=AXIS2_PLACEMENT_3D('Circle Axis2P3D',#337,#338,$) ;
#357=AXIS2_PLACEMENT_3D('Circle Axis2P3D',#355,#356,$) ;
#369=AXIS2_PLACEMENT_3D('Plane Axis2P3D',#366,#367,#368) ;
#379=AXIS2_PLACEMENT_3D('Circle Axis2P3D',#377,#378,$) ;
#388=AXIS2_PLACEMENT_3D('Circle Axis2P3D',#386,#387,$) ;
#403=AXIS2_PLACEMENT_3D('Cone Axis2P3D',#400,#401,#402) ;
#421=AXIS2_PLACEMENT_3D('Circle Axis2P3D',#419,#420,$) ;
#434=AXIS2_PLACEMENT_3D('Cone Axis2P3D',#431,#432,#433) ;
#438=AXIS2_PLACEMENT_3D('Circle Axis2P3D',#436,#437,$) ;
#451=AXIS2_PLACEMENT_3D('Plane Axis2P3D',#448,#449,#450) ;
#461=AXIS2_PLACEMENT_3D('Circle Axis2P3D',#459,#460,$) ;
#470=AXIS2_PLACEMENT_3D('Circle Axis2P3D',#468,#469,$) ;
#481=AXIS2_PLACEMENT_3D('Cylinder Axis2P3D',#478,#479,#480) ;
#485=AXIS2_PLACEMENT_3D('Circle Axis2P3D',#483,#484,$) ;
#511=AXIS2_PLACEMENT_3D('Circle Axis2P3D',#509,#510,$) ;
#524=AXIS2_PLACEMENT_3D('Cone Axis2P3D',#521,#522,#523) ;
#546=AXIS2_PLACEMENT_3D('Cone Axis2P3D',#543,#544,#545) ;
#40=PRODUCT_DEFINITION_SHAPE(' ',' ',#14) ;
#31=APPROVAL_PERSON_ORGANIZATION(#25,#21,#19) ;
#25=PERSON_AND_ORGANIZATION(#22,#23) ;
#22=PERSON(' ',' ',' ',$,$,$) ;
#23=ORGANIZATION(' ',' ',' ') ;
#21=APPROVAL(#20,' ') ;
#20=APPROVAL_STATUS('not_yet_approved') ;
#19=APPROVAL_ROLE('APPROVER') ;
#13=DATE_AND_TIME(#11,#12) ;
#12=LOCAL_TIME(8,31,37.,#10) ;
#10=COORDINATED_UNIVERSAL_TIME_OFFSET(0,0,.AHEAD.) ;
#86=ORIENTED_EDGE('',*,*,#65,.T.) ;
#87=ORIENTED_EDGE('',*,*,#72,.T.) ;
#88=ORIENTED_EDGE('',*,*,#79,.T.) ;
#89=ORIENTED_EDGE('',*,*,#84,.F.) ;
#126=ORIENTED_EDGE('',*,*,#105,.F.) ;
#127=ORIENTED_EDGE('',*,*,#112,.F.) ;
#128=ORIENTED_EDGE('',*,*,#119,.F.) ;
#129=ORIENTED_EDGE('',*,*,#124,.F.) ;
#180=ORIENTED_EDGE('',*,*,#145,.T.) ;
#181=ORIENTED_EDGE('',*,*,#152,.T.) ;
#182=ORIENTED_EDGE('',*,*,#159,.T.) ;
#183=ORIENTED_EDGE('',*,*,#166,.T.) ;
#184=ORIENTED_EDGE('',*,*,#173,.T.) ;
#185=ORIENTED_EDGE('',*,*,#178,.F.) ;
#216=ORIENTED_EDGE('',*,*,#199,.T.) ;
#217=ORIENTED_EDGE('',*,*,#204,.F.) ;
#218=ORIENTED_EDGE('',*,*,#105,.T.) ;
#219=ORIENTED_EDGE('',*,*,#209,.T.) ;
#220=ORIENTED_EDGE('',*,*,#65,.F.) ;
#221=ORIENTED_EDGE('',*,*,#214,.T.) ;
#222=ORIENTED_EDGE('',*,*,#166,.F.) ;
#253=ORIENTED_EDGE('',*,*,#236,.F.) ;
#254=ORIENTED_EDGE('',*,*,#152,.F.) ;
#255=ORIENTED_EDGE('',*,*,#241,.F.) ;
#256=ORIENTED_EDGE('',*,*,#79,.F.) ;
#257=ORIENTED_EDGE('',*,*,#246,.F.) ;
#258=ORIENTED_EDGE('',*,*,#119,.T.) ;
#259=ORIENTED_EDGE('',*,*,#251,.T.) ;
#286=ORIENTED_EDGE('',*,*,#173,.F.) ;
#287=ORIENTED_EDGE('',*,*,#214,.F.) ;
#288=ORIENTED_EDGE('',*,*,#84,.T.) ;
#289=ORIENTED_EDGE('',*,*,#241,.T.) ;
#290=ORIENTED_EDGE('',*,*,#145,.F.) ;
#291=ORIENTED_EDGE('',*,*,#276,.F.) ;
#292=ORIENTED_EDGE('',*,*,#284,.F.) ;
#306=ORIENTED_EDGE('',*,*,#159,.F.) ;
#307=ORIENTED_EDGE('',*,*,#236,.T.) ;
#308=ORIENTED_EDGE('',*,*,#304,.T.) ;
#309=ORIENTED_EDGE('',*,*,#199,.F.) ;
#318=ORIENTED_EDGE('',*,*,#178,.T.) ;
#319=ORIENTED_EDGE('',*,*,#284,.T.) ;
#320=ORIENTED_EDGE('',*,*,#276,.T.) ;
#350=ORIENTED_EDGE('',*,*,#336,.T.) ;
#351=ORIENTED_EDGE('',*,*,#343,.F.) ;
#352=ORIENTED_EDGE('',*,*,#348,.F.) ;
#361=ORIENTED_EDGE('',*,*,#348,.T.) ;
#362=ORIENTED_EDGE('',*,*,#359,.F.) ;
#363=ORIENTED_EDGE('',*,*,#336,.F.) ;
#372=ORIENTED_EDGE('',*,*,#251,.F.) ;
#373=ORIENTED_EDGE('',*,*,#112,.T.) ;
#374=ORIENTED_EDGE('',*,*,#204,.T.) ;
#375=ORIENTED_EDGE('',*,*,#304,.F.) ;
#392=ORIENTED_EDGE('',*,*,#385,.F.) ;
#393=ORIENTED_EDGE('',*,*,#390,.F.) ;
#396=ORIENTED_EDGE('',*,*,#343,.T.) ;
#397=ORIENTED_EDGE('',*,*,#359,.T.) ;
#425=ORIENTED_EDGE('',*,*,#411,.T.) ;
#426=ORIENTED_EDGE('',*,*,#390,.T.) ;
#427=ORIENTED_EDGE('',*,*,#418,.F.) ;
#428=ORIENTED_EDGE('',*,*,#423,.F.) ;
#442=ORIENTED_EDGE('',*,*,#418,.T.) ;
#443=ORIENTED_EDGE('',*,*,#385,.T.) ;
#444=ORIENTED_EDGE('',*,*,#411,.F.) ;
#445=ORIENTED_EDGE('',*,*,#440,.F.) ;
#454=ORIENTED_EDGE('',*,*,#209,.F.) ;
#455=ORIENTED_EDGE('',*,*,#124,.T.) ;
#456=ORIENTED_EDGE('',*,*,#246,.T.) ;
#457=ORIENTED_EDGE('',*,*,#72,.F.) ;
#474=ORIENTED_EDGE('',*,*,#467,.T.) ;
#475=ORIENTED_EDGE('',*,*,#472,.T.) ;
#503=ORIENTED_EDGE('',*,*,#491,.F.) ;
#504=ORIENTED_EDGE('',*,*,#496,.F.) ;
#505=ORIENTED_EDGE('',*,*,#440,.T.) ;
#506=ORIENTED_EDGE('',*,*,#501,.T.) ;
#515=ORIENTED_EDGE('',*,*,#513,.F.) ;
#516=ORIENTED_EDGE('',*,*,#501,.F.) ;
#517=ORIENTED_EDGE('',*,*,#423,.T.) ;
#518=ORIENTED_EDGE('',*,*,#496,.T.) ;
#537=ORIENTED_EDGE('',*,*,#530,.T.) ;
#538=ORIENTED_EDGE('',*,*,#513,.T.) ;
#539=ORIENTED_EDGE('',*,*,#535,.F.) ;
#540=ORIENTED_EDGE('',*,*,#472,.F.) ;
#549=ORIENTED_EDGE('',*,*,#535,.T.) ;
#550=ORIENTED_EDGE('',*,*,#491,.T.) ;
#551=ORIENTED_EDGE('',*,*,#530,.F.) ;
#552=ORIENTED_EDGE('',*,*,#467,.F.) ;
#394=FACE_BOUND('',#391,.T.) ;
#398=FACE_BOUND('',#395,.T.) ;
#476=FACE_BOUND('',#473,.T.) ;
#51=CLOSED_SHELL('Closed Shell',(#91,#131,#187,#224,#261,#294,#311,#322,#354,#365,#399,#430,#447,#477,#508,#520,#542,#554)) ;
#59=VECTOR('Line Direction',#58,1.) ;
#68=VECTOR('Line Direction',#67,1.) ;
#75=VECTOR('Line Direction',#74,1.) ;
#99=VECTOR('Line Direction',#98,1.) ;
#108=VECTOR('Line Direction',#107,1.) ;
#115=VECTOR('Line Direction',#114,1.) ;
#122=VECTOR('Line Direction',#121,1.) ;
#148=VECTOR('Line Direction',#147,1.) ;
#155=VECTOR('Line Direction',#154,1.) ;
#162=VECTOR('Line Direction',#161,1.) ;
#176=VECTOR('Line Direction',#175,1.) ;
#195=VECTOR('Line Direction',#194,1.) ;
#202=VECTOR('Line Direction',#201,1.) ;
#207=VECTOR('Line Direction',#206,1.) ;
#212=VECTOR('Line Direction',#211,1.) ;
#232=VECTOR('Line Direction',#231,1.) ;
#239=VECTOR('Line Direction',#238,1.) ;
#244=VECTOR('Line Direction',#243,1.) ;
#249=VECTOR('Line Direction',#248,1.) ;
#302=VECTOR('Line Direction',#301,1.) ;
#330=VECTOR('Line Direction',#329,1.) ;
#346=VECTOR('Line Direction',#345,1.) ;
#407=VECTOR('Line Direction',#406,1.) ;
#414=VECTOR('Line Direction',#413,1.) ;
#494=VECTOR('Line Direction',#493,1.) ;
#499=VECTOR('Line Direction',#498,1.) ;
#528=VECTOR('Line Direction',#527,1.) ;
#533=VECTOR('Line Direction',#532,1.) ;
#556=ADVANCED_BREP_SHAPE_REPRESENTATION('NONE',(#555),#46) ;
#49=SHAPE_REPRESENTATION(' ',(#48),#46) ;
#91=ADVANCED_FACE('Corps principal',(#90),#56,.T.) ;
#131=ADVANCED_FACE('Corps principal',(#130),#96,.F.) ;
#187=ADVANCED_FACE('Corps principal',(#186),#136,.T.) ;
#224=ADVANCED_FACE('Corps principal',(#223),#192,.F.) ;
#261=ADVANCED_FACE('Corps principal',(#260),#229,.F.) ;
#294=ADVANCED_FACE('Corps principal',(#293),#266,.T.) ;
#311=ADVANCED_FACE('Corps principal',(#310),#299,.T.) ;
#322=ADVANCED_FACE('Corps principal',(#321),#316,.F.) ;
#354=ADVANCED_FACE('Corps principal',(#353),#327,.F.) ;
#365=ADVANCED_FACE('Corps principal',(#364),#327,.F.) ;
#399=ADVANCED_FACE('Corps principal',(#376,#394,#398),#370,.T.) ;
#430=ADVANCED_FACE('Corps principal',(#429),#404,.F.) ;
#447=ADVANCED_FACE('Corps principal',(#446),#435,.F.) ;
#477=ADVANCED_FACE('Corps principal',(#458,#476),#452,.T.) ;
#508=ADVANCED_FACE('Corps principal',(#507),#482,.F.) ;
#520=ADVANCED_FACE('Corps principal',(#519),#482,.F.) ;
#542=ADVANCED_FACE('Corps principal',(#541),#525,.F.) ;
#554=ADVANCED_FACE('Corps principal',(#553),#547,.F.) ;
#4=APPLICATION_PROTOCOL_DEFINITION('international standard','config_control_design',1994,#1) ;
#32=APPROVAL_DATE_TIME(#13,#21) ;
#267=B_SPLINE_CURVE_WITH_KNOTS('',5,(#268,#269,#270,#271,#272,#273),.UNSPECIFIED.,.F.,.U.,(6,6),(3.9065360695,7.81330695983),.UNSPECIFIED.) ;
#277=B_SPLINE_CURVE_WITH_KNOTS('',5,(#278,#279,#280,#281,#282,#283),.UNSPECIFIED.,.F.,.U.,(6,6),(0.,3.9065360695),.UNSPECIFIED.) ;
#555=MANIFOLD_SOLID_BREP('Corps principal',#51) ;
#11=CALENDAR_DATE(2020,11,8) ;
#30=CC_DESIGN_APPROVAL(#21,(#16,#6,#14)) ;
#18=CC_DESIGN_DATE_AND_TIME_ASSIGNMENT(#13,#17,(#16)) ;
#29=CC_DESIGN_DATE_AND_TIME_ASSIGNMENT(#13,#28,(#14)) ;
#17=DATE_TIME_ROLE('classification_date') ;
#28=DATE_TIME_ROLE('creation_date') ;
#27=CC_DESIGN_PERSON_AND_ORGANIZATION_ASSIGNMENT(#25,#26,(#16)) ;
#33=CC_DESIGN_PERSON_AND_ORGANIZATION_ASSIGNMENT(#25,#34,(#6)) ;
#35=CC_DESIGN_PERSON_AND_ORGANIZATION_ASSIGNMENT(#25,#36,(#6,#14)) ;
#37=CC_DESIGN_PERSON_AND_ORGANIZATION_ASSIGNMENT(#25,#38,(#5)) ;
#26=PERSON_AND_ORGANIZATION_ROLE('classification_officer') ;
#34=PERSON_AND_ORGANIZATION_ROLE('design_supplier') ;
#36=PERSON_AND_ORGANIZATION_ROLE('creator') ;
#38=PERSON_AND_ORGANIZATION_ROLE('design_owner') ;
#39=CC_DESIGN_SECURITY_CLASSIFICATION(#16,(#6)) ;
#83=CIRCLE('generated circle',#82,3.) ;
#140=CIRCLE('generated circle',#139,3.) ;
#170=CIRCLE('generated circle',#169,3.) ;
#340=CIRCLE('generated circle',#339,2.5) ;
#358=CIRCLE('generated circle',#357,2.5) ;
#380=CIRCLE('generated circle',#379,2.45) ;
#389=CIRCLE('generated circle',#388,2.45) ;
#422=CIRCLE('generated circle',#421,1.75) ;
#439=CIRCLE('generated circle',#438,1.75) ;
#462=CIRCLE('generated circle',#461,2.45) ;
#471=CIRCLE('generated circle',#470,2.45) ;
#486=CIRCLE('generated circle',#485,1.75) ;
#512=CIRCLE('generated circle',#511,1.75) ;
#327=CONICAL_SURFACE('Cone',#326,7.11929161929E-015,0.785398163397) ;
#404=CONICAL_SURFACE('Cone',#403,0.,0.785398163397) ;
#435=CONICAL_SURFACE('Cone',#434,0.,0.785398163397) ;
#525=CONICAL_SURFACE('Cone',#524,0.,0.785398163397) ;
#547=CONICAL_SURFACE('Cone',#546,0.,0.785398163397) ;
#557=SHAPE_REPRESENTATION_RELATIONSHIP(' ',' ',#49,#556) ;
#266=CYLINDRICAL_SURFACE('generated cylinder',#265,3.) ;
#482=CYLINDRICAL_SURFACE('generated cylinder',#481,1.75) ;
#3=DESIGN_CONTEXT(' ',#1,'design') ;
#65=EDGE_CURVE('',#62,#64,#60,.F.) ;
#72=EDGE_CURVE('',#64,#71,#69,.T.) ;
#79=EDGE_CURVE('',#71,#78,#76,.F.) ;
#84=EDGE_CURVE('',#62,#78,#83,.T.) ;
#105=EDGE_CURVE('',#102,#104,#100,.F.) ;
#112=EDGE_CURVE('',#111,#102,#109,.T.) ;
#119=EDGE_CURVE('',#118,#111,#116,.F.) ;
#124=EDGE_CURVE('',#104,#118,#123,.T.) ;
#145=EDGE_CURVE('',#142,#144,#140,.T.) ;
#152=EDGE_CURVE('',#144,#151,#149,.F.) ;
#159=EDGE_CURVE('',#151,#158,#156,.T.) ;
#166=EDGE_CURVE('',#158,#165,#163,.F.) ;
#173=EDGE_CURVE('',#165,#172,#170,.T.) ;
#178=EDGE_CURVE('',#142,#172,#177,.T.) ;
#199=EDGE_CURVE('',#158,#198,#196,.T.) ;
#204=EDGE_CURVE('',#102,#198,#203,.T.) ;
#209=EDGE_CURVE('',#104,#64,#208,.T.) ;
#214=EDGE_CURVE('',#62,#165,#213,.T.) ;
#236=EDGE_CURVE('',#151,#235,#233,.T.) ;
#241=EDGE_CURVE('',#78,#144,#240,.T.) ;
#246=EDGE_CURVE('',#118,#71,#245,.T.) ;
#251=EDGE_CURVE('',#111,#235,#250,.T.) ;
#276=EDGE_CURVE('',#275,#142,#267,.T.) ;
#284=EDGE_CURVE('',#172,#275,#277,.T.) ;
#304=EDGE_CURVE('',#235,#198,#303,.T.) ;
#336=EDGE_CURVE('',#333,#335,#331,.T.) ;
#343=EDGE_CURVE('',#342,#335,#340,.F.) ;
#348=EDGE_CURVE('',#333,#342,#347,.T.) ;
#359=EDGE_CURVE('',#335,#342,#358,.F.) ;
#385=EDGE_CURVE('',#382,#384,#380,.T.) ;
#390=EDGE_CURVE('',#384,#382,#389,.T.) ;
#411=EDGE_CURVE('',#410,#384,#408,.T.) ;
#418=EDGE_CURVE('',#417,#382,#415,.T.) ;
#423=EDGE_CURVE('',#410,#417,#422,.T.) ;
#440=EDGE_CURVE('',#417,#410,#439,.T.) ;
#467=EDGE_CURVE('',#464,#466,#462,.F.) ;
#472=EDGE_CURVE('',#466,#464,#471,.F.) ;
#491=EDGE_CURVE('',#488,#490,#486,.T.) ;
#496=EDGE_CURVE('',#417,#488,#495,.F.) ;
#501=EDGE_CURVE('',#410,#490,#500,.F.) ;
#513=EDGE_CURVE('',#490,#488,#512,.T.) ;
#530=EDGE_CURVE('',#466,#490,#529,.F.) ;
#535=EDGE_CURVE('',#464,#488,#534,.F.) ;
#85=EDGE_LOOP('',(#86,#87,#88,#89)) ;
#125=EDGE_LOOP('',(#126,#127,#128,#129)) ;
#179=EDGE_LOOP('',(#180,#181,#182,#183,#184,#185)) ;
#215=EDGE_LOOP('',(#216,#217,#218,#219,#220,#221,#222)) ;
#252=EDGE_LOOP('',(#253,#254,#255,#256,#257,#258,#259)) ;
#285=EDGE_LOOP('',(#286,#287,#288,#289,#290,#291,#292)) ;
#305=EDGE_LOOP('',(#306,#307,#308,#309)) ;
#317=EDGE_LOOP('',(#318,#319,#320)) ;
#349=EDGE_LOOP('',(#350,#351,#352)) ;
#360=EDGE_LOOP('',(#361,#362,#363)) ;
#371=EDGE_LOOP('',(#372,#373,#374,#375)) ;
#391=EDGE_LOOP('',(#392,#393)) ;
#395=EDGE_LOOP('',(#396,#397)) ;
#424=EDGE_LOOP('',(#425,#426,#427,#428)) ;
#441=EDGE_LOOP('',(#442,#443,#444,#445)) ;
#453=EDGE_LOOP('',(#454,#455,#456,#457)) ;
#473=EDGE_LOOP('',(#474,#475)) ;
#502=EDGE_LOOP('',(#503,#504,#505,#506)) ;
#514=EDGE_LOOP('',(#515,#516,#517,#518)) ;
#536=EDGE_LOOP('',(#537,#538,#539,#540)) ;
#548=EDGE_LOOP('',(#549,#550,#551,#552)) ;
#90=FACE_OUTER_BOUND('',#85,.T.) ;
#130=FACE_OUTER_BOUND('',#125,.T.) ;
#186=FACE_OUTER_BOUND('',#179,.T.) ;
#223=FACE_OUTER_BOUND('',#215,.T.) ;
#260=FACE_OUTER_BOUND('',#252,.T.) ;
#293=FACE_OUTER_BOUND('',#285,.T.) ;
#310=FACE_OUTER_BOUND('',#305,.T.) ;
#321=FACE_OUTER_BOUND('',#317,.T.) ;
#353=FACE_OUTER_BOUND('',#349,.T.) ;
#364=FACE_OUTER_BOUND('',#360,.T.) ;
#376=FACE_OUTER_BOUND('',#371,.T.) ;
#429=FACE_OUTER_BOUND('',#424,.T.) ;
#446=FACE_OUTER_BOUND('',#441,.T.) ;
#458=FACE_OUTER_BOUND('',#453,.T.) ;
#507=FACE_OUTER_BOUND('',#502,.T.) ;
#519=FACE_OUTER_BOUND('',#514,.T.) ;
#541=FACE_OUTER_BOUND('',#536,.T.) ;
#553=FACE_OUTER_BOUND('',#548,.T.) ;
#45=UNCERTAINTY_MEASURE_WITH_UNIT(LENGTH_MEASURE(0.005),#41,'distance_accuracy_value','CONFUSED CURVE UNCERTAINTY') ;
#60=LINE('Line',#57,#59) ;
#69=LINE('Line',#66,#68) ;
#76=LINE('Line',#73,#75) ;
#100=LINE('Line',#97,#99) ;
#109=LINE('Line',#106,#108) ;
#116=LINE('Line',#113,#115) ;
#123=LINE('Line',#120,#122) ;
#149=LINE('Line',#146,#148) ;
#156=LINE('Line',#153,#155) ;
#163=LINE('Line',#160,#162) ;
#177=LINE('Line',#174,#176) ;
#196=LINE('Line',#193,#195) ;
#203=LINE('Line',#200,#202) ;
#208=LINE('Line',#205,#207) ;
#213=LINE('Line',#210,#212) ;
#233=LINE('Line',#230,#232) ;
#240=LINE('Line',#237,#239) ;
#245=LINE('Line',#242,#244) ;
#250=LINE('Line',#247,#249) ;
#303=LINE('Line',#300,#302) ;
#331=LINE('Line',#328,#330) ;
#347=LINE('Line',#344,#346) ;
#408=LINE('Line',#405,#407) ;
#415=LINE('Line',#412,#414) ;
#495=LINE('Line',#492,#494) ;
#500=LINE('Line',#497,#499) ;
#529=LINE('Line',#526,#528) ;
#534=LINE('Line',#531,#533) ;
#2=MECHANICAL_CONTEXT(' ',#1,'mechanical') ;
#24=PERSONAL_ADDRESS(' ',' ',' ',' ',' ',' ',' ',' ',' ',' ',' ',' ',(#22),' ') ;
#56=PLANE('Plane',#55) ;
#96=PLANE('Plane',#95) ;
#136=PLANE('Plane',#135) ;
#192=PLANE('Plane',#191) ;
#229=PLANE('Plane',#228) ;
#299=PLANE('Plane',#298) ;
#316=PLANE('Plane',#315) ;
#370=PLANE('Plane',#369) ;
#452=PLANE('Plane',#451) ;
#43=PLANE_ANGLE_MEASURE_WITH_UNIT(PLANE_ANGLE_MEASURE(0.0174532925199),#42) ;
#7=PRODUCT_CATEGORY('part',$) ;
#9=PRODUCT_CATEGORY_RELATIONSHIP(' ',' ',#7,#8) ;
#6=PRODUCT_DEFINITION_FORMATION_WITH_SPECIFIED_SOURCE('',' ',#5,.NOT_KNOWN.) ;
#8=PRODUCT_RELATED_PRODUCT_CATEGORY('detail',$,(#5)) ;
#50=SHAPE_DEFINITION_REPRESENTATION(#40,#49) ;
#62=VERTEX_POINT('',#61) ;
#64=VERTEX_POINT('',#63) ;
#71=VERTEX_POINT('',#70) ;
#78=VERTEX_POINT('',#77) ;
#102=VERTEX_POINT('',#101) ;
#104=VERTEX_POINT('',#103) ;
#111=VERTEX_POINT('',#110) ;
#118=VERTEX_POINT('',#117) ;
#142=VERTEX_POINT('',#141) ;
#144=VERTEX_POINT('',#143) ;
#151=VERTEX_POINT('',#150) ;
#158=VERTEX_POINT('',#157) ;
#165=VERTEX_POINT('',#164) ;
#172=VERTEX_POINT('',#171) ;
#198=VERTEX_POINT('',#197) ;
#235=VERTEX_POINT('',#234) ;
#275=VERTEX_POINT('',#274) ;
#333=VERTEX_POINT('',#332) ;
#335=VERTEX_POINT('',#334) ;
#342=VERTEX_POINT('',#341) ;
#382=VERTEX_POINT('',#381) ;
#384=VERTEX_POINT('',#383) ;
#410=VERTEX_POINT('',#409) ;
#417=VERTEX_POINT('',#416) ;
#464=VERTEX_POINT('',#463) ;
#466=VERTEX_POINT('',#465) ;
#488=VERTEX_POINT('',#487) ;
#490=VERTEX_POINT('',#489) ;
#41=(LENGTH_UNIT()NAMED_UNIT(*)SI_UNIT(.MILLI.,.METRE.)) ;
#42=(NAMED_UNIT(*)PLANE_ANGLE_UNIT()SI_UNIT($,.RADIAN.)) ;
#44=(NAMED_UNIT(*)SI_UNIT($,.STERADIAN.)SOLID_ANGLE_UNIT()) ;
#46=(GEOMETRIC_REPRESENTATION_CONTEXT(3)GLOBAL_UNCERTAINTY_ASSIGNED_CONTEXT((#45))GLOBAL_UNIT_ASSIGNED_CONTEXT((#41,#42,#44))REPRESENTATION_CONTEXT(' ',' ')) ;
ENDSEC;
END-ISO-10303-21;
