0
SECTION
2
HEADER
9
$INSUNITS
70
4
9
$ACADVER
1
AC1014
9
$HANDSEED
5
FFFF
0
ENDSEC
0
SECTION
2
TABLES
0
TABLE
2
VPORT
5
8
100
AcDbSymbolTable
0
ENDTAB
0
TABLE
2
LTYPE
5
5
100
AcDbSymbolTable
0
LTYPE
5
14
100
AcDbSymbolTableRecord
100
AcDbLinetypeTableRecord
2
BYBLOCK
70
0
0
LTYPE
5
15
100
AcDbSymbolTableRecord
100
AcDbLinetypeTableRecord
2
BYLAYER
70
0
0
ENDTAB
0
TABLE
2
LAYER
5
2
100
AcDbSymbolTable
70
2
0
LAYER
5
50
100
AcDbSymbolTableRecord
100
AcDbLayerTableRecord
2
0
70
0
6
CONTINUOUS
0
ENDTAB
0
TABLE
2
STYLE
5
3
100
AcDbSymbolTable
70
1
0
STYLE
5
11
100
AcDbSymbolTableRecord
100
AcDbTextStyleTableRecord
2
STANDARD
70
0
0
ENDTAB
0
TABLE
2
VIEW
5
6
100
AcDbSymbolTable
70
0
0
ENDTAB
0
TABLE
2
UCS
5
7
100
AcDbSymbolTable
70
0
0
ENDTAB
0
TABLE
2
APPID
5
9
100
AcDbSymbolTable
70
2
0
APPID
5
12
100
AcDbSymbolTableRecord
100
AcDbRegAppTableRecord
2
ACAD
70
0
0
ENDTAB
0
TABLE
2
DIMSTYLE
5
A
100
AcDbSymbolTable
70
1
0
ENDTAB
0
TABLE
2
BLOCK_RECORD
5
1
100
AcDbSymbolTable
70
1
0
BLOCK_RECORD
5
1F
100
AcDbSymbolTableRecord
100
AcDbBlockTableRecord
2
*MODEL_SPACE
0
BLOCK_RECORD
5
1B
100
AcDbSymbolTableRecord
100
AcDbBlockTableRecord
2
*PAPER_SPACE
0
ENDTAB
0
ENDSEC
0
SECTION
2
BLOCKS
0
BLOCK
5
20
100
AcDbEntity
100
AcDbBlockBegin
2
*MODEL_SPACE
0
ENDBLK
5
21
100
AcDbEntity
100
AcDbBlockEnd
0
BLOCK
5
1C
100
AcDbEntity
100
AcDbBlockBegin
2
*PAPER_SPACE
0
ENDBLK
5
1D
100
AcDbEntity
100
AcDbBlockEnd
0
ENDSEC
0
SECTION
2
ENTITIES
0
LWPOLYLINE
5
100
100
AcDbEntity
8
0
100
AcDbPolyline
90
7
70
1
43
0.0
10
-166.21671927956663
20
1839.1891086206238
10
-309.50328228731564
20
1862.0322436470613
10
-488.50418283232074
20
2084.3666156418831
42
-0.66127078212425849
10
-466.82403698971001
20
2124.9468443204637
42
0.0003081769317767319
10
-448.32147815784305
20
2123.3185714882502
42
0.014199416202966112
10
-276.32705976760587
20
2110.1677697494124
42
0.045920889655137846
10
6.2235988736698999
20
2123.4996467429432
0
CIRCLE
5
101
100
AcDbEntity
8
0
100
AcDbCircle
10
-150.02011648146777
20
1892.2478754212698
30
-5.6843418860808015e-13
40
1.6500000000001991
210
-2.4567460432238845e-17
220
1.7727545713731159e-17
230
1
0
CIRCLE
5
102
100
AcDbEntity
8
0
100
AcDbCircle
10
-72.35030437894352
20
2019.9020653265943
30
-5.6843418860808015e-13
40
1.6500000000001991
210
-2.4567460432238845e-17
220
1.7727545713731159e-17
230
1
0
CIRCLE
5
103
100
AcDbEntity
8
0
100
AcDbCircle
10
-31.763752481551819
20
2086.608077138143
30
0
40
1.6500000000001991
210
-2.4567460432238845e-17
220
1.7727545713731159e-17
230
1
0
CIRCLE
5
104
100
AcDbEntity
8
0
100
AcDbCircle
10
-202.82214915025406
20
2099.8714443627673
30
0
40
1.6500000000001991
210
-2.4567460432238845e-17
220
1.7727545713731159e-17
230
1
0
CIRCLE
5
105
100
AcDbEntity
8
0
100
AcDbCircle
10
-352.35697447212942
20
2105.9794990337446
30
0
40
1.6499999999996304
210
1.8306312851479852e-18
220
8.4782325723268758e-18
230
1
0
CIRCLE
5
106
100
AcDbEntity
8
0
100
AcDbCircle
10
-449.23776325640063
20
2114.5998052336749
30
-5.6843418860808015e-13
40
1.6499999999996304
210
1.8306312851479852e-18
220
8.4782325723268758e-18
230
1
0
CIRCLE
5
107
100
AcDbEntity
8
0
100
AcDbCircle
10
-314.89696820600329
20
2103.4802689554472
30
0
40
1.6500000000001991
210
-2.4567460432238845e-17
220
1.7727545713731159e-17
230
1
0
CIRCLE
5
108
100
AcDbEntity
8
0
100
AcDbCircle
10
-164.61333970334067
20
2100.4565566399192
30
0
40
1.6500000000001991
210
-2.4567460432238845e-17
220
1.7727545713731159e-17
230
1
0
CIRCLE
5
109
100
AcDbEntity
8
0
100
AcDbCircle
10
-52.170885175607395
20
2107.6549989915084
30
-5.6843418860808015e-13
40
1.6500000000001991
210
-2.4567460432238845e-17
220
1.7727545713731159e-17
230
1
0
CIRCLE
5
110
100
AcDbEntity
8
0
100
AcDbCircle
10
-38.834784415338959
20
2074.9864853141444
30
5.6843418860808015e-13
40
1.6500000000001991
210
-2.4567460432238845e-17
220
1.7727545713731159e-17
230
1
0
CIRCLE
5
111
100
AcDbEntity
8
0
100
AcDbCircle
10
-91.767166713532902
20
1987.9894886802963
30
0
40
1.6500000000001991
210
-2.4567460432238845e-17
220
1.7727545713731159e-17
230
1
0
CIRCLE
5
112
100
AcDbEntity
8
0
100
AcDbCircle
10
-169.88704857634275
20
1859.5955867929968
30
-5.6843418860808015e-13
40
1.6500000000001991
210
-2.4567460432238845e-17
220
1.7727545713731159e-17
230
1
0
CIRCLE
5
113
100
AcDbEntity
8
0
100
AcDbCircle
10
-130.70662607094448
20
1923.9905551813963
30
-1.1368683772161603e-12
40
1.6500000000001991
210
-2.4567460432238845e-17
220
1.7727545713731159e-17
230
1
0
CIRCLE
5
114
100
AcDbEntity
8
0
100
AcDbCircle
10
-52.527552427943078
20
2052.4817416963383
30
-1.1368683772161603e-12
40
1.6500000000001991
210
-2.4567460432238845e-17
220
1.7727545713731159e-17
230
1
0
CIRCLE
5
115
100
AcDbEntity
8
0
100
AcDbCircle
10
-17.643573805107167
20
2109.8152913886506
30
0
40
1.6500000000001991
210
-2.4567460432238845e-17
220
1.7727545713731159e-17
230
1
0
CIRCLE
5
116
100
AcDbEntity
8
0
100
AcDbCircle
10
-90.130819704943406
20
2104.30732487974
30
5.6843418860808015e-13
40
1.6500000000001991
210
-2.4567460432238845e-17
220
1.7727545713731159e-17
230
1
0
CIRCLE
5
117
100
AcDbEntity
8
0
100
AcDbCircle
10
-240.58739416677952
20
2100.217641709211
30
0
40
1.6500000000001991
210
-2.4567460432238845e-17
220
1.7727545713731159e-17
230
1
0
CIRCLE
5
118
100
AcDbEntity
8
0
100
AcDbCircle
10
-389.77038493550481
20
2108.9390740269655
30
0
40
1.6499999999996304
210
1.8306312851479852e-18
220
8.4782325723268758e-18
230
1
0
CIRCLE
5
119
100
AcDbEntity
8
0
100
AcDbCircle
10
-420.05930400261263
20
2111.6752569892337
30
-5.6843418860808015e-13
40
1.6499999999996304
210
1.8306312851479852e-18
220
8.4782325723268758e-18
230
1
0
CIRCLE
5
120
100
AcDbEntity
8
0
100
AcDbCircle
10
-276.73257980277526
20
2101.4103601099741
30
0
40
1.6500000000001991
210
-2.4567460432238845e-17
220
1.7727545713731159e-17
230
1
0
CIRCLE
5
121
100
AcDbEntity
8
0
100
AcDbCircle
10
-127.18086619226767
20
2101.9431560370708
30
0
40
1.6500000000001991
210
-2.4567460432238845e-17
220
1.7727545713731159e-17
230
1
0
CIRCLE
5
122
100
AcDbEntity
8
0
100
AcDbCircle
10
-24.989354670898365
20
2097.7421360627859
30
0
40
1.6500000000001991
210
-2.4567460432238845e-17
220
1.7727545713731159e-17
230
1
0
CIRCLE
5
123
100
AcDbEntity
8
0
100
AcDbCircle
10
-45.716571909731556
20
2063.6759261159632
30
-1.1368683772161603e-12
40
1.6500000000001991
210
-2.4567460432238845e-17
220
1.7727545713731159e-17
230
1
0
CIRCLE
5
124
100
AcDbEntity
8
0
100
AcDbCircle
10
-110.98111810293744
20
1956.410406240173
30
0
40
1.6500000000001991
210
-2.4567460432238845e-17
220
1.7727545713731159e-17
230
1
0
CIRCLE
5
125
100
AcDbEntity
8
0
100
AcDbCircle
10
-179.39677084729794
20
1843.9658864002502
30
0
40
1.6500000000001991
210
-2.4567460432238845e-17
220
1.7727545713731159e-17
230
1
0
CIRCLE
5
126
100
AcDbEntity
8
0
100
AcDbCircle
10
-236.57833002022073
20
1860.8041422170522
30
-5.6843418860808015e-13
40
1.6500000000001993
210
1.2082166481970677e-17
220
5.5956334977358689e-17
230
1
0
CIRCLE
5
127
100
AcDbEntity
8
0
100
AcDbCircle
10
-270.27262137282889
20
1866.1757781250622
30
-1.1368683772161603e-12
40
1.6500000000001993
210
1.2082166481970677e-17
220
5.5956334977358689e-17
230
1
0
CIRCLE
5
128
100
AcDbEntity
8
0
100
AcDbCircle
10
-200.26876866236478
20
1855.0155728254936
30
0
40
1.6500000000001993
210
1.2082166481970677e-17
220
5.5956334977358689e-17
230
1
0
CIRCLE
5
129
100
AcDbEntity
8
0
100
AcDbCircle
10
-410.04202912202061
20
1999.4122406596393
30
-5.6843418860808015e-13
40
1.6500000000001991
210
3.1523859315801179e-17
220
1.4489738061110972e-17
230
1
0
CIRCLE
5
130
100
AcDbEntity
8
0
100
AcDbCircle
10
-309.51190056567327
20
1874.9385757644325
30
0
40
1.6500000000001991
210
3.1157733058771576e-17
220
1.2794091546645594e-17
230
1
0
CIRCLE
5
131
100
AcDbEntity
8
0
100
AcDbCircle
10
-384.90949698293321
20
1968.293824435837
30
5.6843418860808015e-13
40
1.6500000000001991
210
3.1523859315801179e-17
220
1.4489738061110972e-17
230
1
0
CIRCLE
5
132
100
AcDbEntity
8
0
100
AcDbCircle
10
-435.17456126110744
20
2030.5306568834408
30
0
40
1.6500000000001991
210
3.1523859315801179e-17
220
1.4489738061110972e-17
230
1
0
CIRCLE
5
133
100
AcDbEntity
8
0
100
AcDbCircle
10
-334.64443270476011
20
1906.0569919882341
30
-1.1368683772161603e-12
40
1.6500000000001991
210
3.1523859315801179e-17
220
1.4489738061110972e-17
230
1
0
CIRCLE
5
134
100
AcDbEntity
8
0
100
AcDbCircle
10
-359.77696484384694
20
1937.1754082120356
30
0
40
1.6500000000001991
210
3.1523859315801179e-17
220
1.4489738061110972e-17
230
1
0
CIRCLE
5
135
100
AcDbEntity
8
0
100
AcDbCircle
10
-460.30709340019314
20
2061.6490731072427
30
0
40
1.6500000000001991
210
3.1523859315801179e-17
220
1.4489738061110972e-17
230
1
0
CIRCLE
5
136
100
AcDbEntity
8
0
100
AcDbCircle
10
38.646223800236434
20
2007.8959720210087
30
2.8421709430404007e-13
40
42.200000000001737
210
6.8753758119053808e-32
220
-7.8585905131300129e-31
230
1
0
CIRCLE
5
137
100
AcDbEntity
8
0
100
AcDbCircle
10
150.08817655060074
20
2106.6720027020306
30
0
40
28.111347437313732
210
9.8607613152615046e-32
220
-7.888609052209773e-31
230
1
0
CIRCLE
5
138
100
AcDbEntity
8
0
100
AcDbCircle
10
222.98817655060429
20
2106.6720027020237
30
0
40
28.111347437313675
210
0
220
-0
230
1
0
CIRCLE
5
139
100
AcDbEntity
8
0
100
AcDbCircle
10
176.28878925779193
20
2023.1666814385587
30
0
40
35.900000000001526
210
9.8607613152615024e-32
220
-7.88860905220978e-31
230
1
0
CIRCLE
5
140
100
AcDbEntity
8
0
100
AcDbCircle
10
354.79481428294821
20
2086.0745730755375
30
-5.6843418860808015e-13
40
48.750000000002025
210
1.6698613953317614e-31
220
-7.7726483154812422e-31
230
1
0
CIRCLE
5
141
100
AcDbEntity
8
0
100
AcDbCircle
10
364.85116885631157
20
1971.1299143265694
30
0
40
27.700755358085779
210
-7.8585905131299971e-31
220
-6.8753758119042477e-32
230
1
0
CIRCLE
5
142
100
AcDbEntity
8
0
100
AcDbCircle
10
251.87362771138496
20
1921.833548979587
30
-2.8421709430404007e-13
40
39.000000000001897
210
0
220
-0
230
1
0
CIRCLE
5
143
100
AcDbEntity
8
0
100
AcDbCircle
10
290.61255254688058
20
1812.9898907354755
30
0
40
32.000000476838515
210
-9.8607613152617739e-32
220
7.8886090522097782e-31
230
1
0
CIRCLE
5
144
100
AcDbEntity
8
0
100
AcDbCircle
10
374.02019758243932
20
1866.3274364212207
30
-2.8421709430404007e-13
40
34.400000000001484
210
-7.8585905131300024e-31
220
-6.8753758119042488e-32
230
1
0
CIRCLE
5
145
100
AcDbEntity
8
0
100
AcDbCircle
10
370.56093795161615
20
1756.7518970235737
30
5.6843418860808015e-13
40
43.8500000000003
210
3.3595022601003494e-31
220
-1.084202172485497e-19
230
1
0
CIRCLE
5
146
100
AcDbEntity
8
0
100
AcDbCircle
10
312.89019367411828
20
1656.7418220798711
30
0
40
46.124722972341125
210
-9.8607613152626629e-32
220
5.1688596728472855e-46
230
1
0
LWPOLYLINE
5
147
100
AcDbEntity
8
0
100
AcDbPolyline
90
7
70
1
43
0.0
10
-47.222263991140458
20
1905.0839869731155
10
97.509960784882992
20
1915.3519501495382
10
244.51479534533553
20
1617.0941354521776
42
0.045920889655177009
10
-35.798723093840948
20
1655.0011931464803
42
0.014199416203120659
10
-208.28481868884455
20
1656.8907354618568
42
0.00030817693186679571
10
-226.85888302636383
20
1656.8812629570757
42
-0.661270782124314
10
-244.91972939728339
20
1699.1966208278336
0
CIRCLE
5
148
100
AcDbEntity
8
0
100
AcDbCircle
10
109.02055438965817
20
1861.0834610285906
30
0
40
1.6500000000001931
210
-2.0378390920288859e-17
220
-6.0267597697695204e-17
230
1
0
CIRCLE
5
149
100
AcDbEntity
8
0
100
AcDbCircle
10
175.26901367191726
20
1727.1456636928394
30
-5.6843418860808015e-13
40
1.6500000000001931
210
-2.0378390920288859e-17
220
-6.0267597697695204e-17
230
1
0
CIRCLE
5
150
100
AcDbEntity
8
0
100
AcDbCircle
10
209.88730948074988
20
1657.1561373191446
30
0
40
1.6500000000001931
210
-2.0378390920288859e-17
220
-6.0267597697695204e-17
230
1
0
CIRCLE
5
151
100
AcDbEntity
8
0
100
AcDbCircle
10
38.323863033518251
20
1658.8519628260242
30
5.6843418860808015e-13
40
1.6500000000001931
210
-2.0378390920288859e-17
220
-6.0267597697695204e-17
230
1
0
CIRCLE
5
152
100
AcDbEntity
8
0
100
AcDbCircle
10
-111.17428917380209
20
1665.7999699147206
30
-5.6843418860808015e-13
40
1.6499999999996326
210
-2.7754612879383266e-17
220
-1.7500592014488718e-18
230
1
0
CIRCLE
5
153
100
AcDbEntity
8
0
100
AcDbCircle
10
-208.43772649720677
20
1665.6561836869009
30
0
40
1.6499999999996326
210
-2.7754612879383266e-17
220
-1.7500592014488718e-18
230
1
0
CIRCLE
5
154
100
AcDbEntity
8
0
100
AcDbCircle
10
-73.639007287232516
20
1665.0248349985732
30
5.6843418860808015e-13
40
1.6500000000001931
210
-2.0378390920288859e-17
220
-6.0267597697695204e-17
230
1
0
CIRCLE
5
155
100
AcDbEntity
8
0
100
AcDbCircle
10
76.336280529824307
20
1654.9389599108854
30
5.6843418860808015e-13
40
1.6500000000001931
210
-2.0378390920288859e-17
220
-6.0267597697695204e-17
230
1
0
CIRCLE
5
156
100
AcDbEntity
8
0
100
AcDbCircle
10
187.72347198099396
20
1637.9679041649724
30
0
40
1.6500000000001931
210
-2.0378390920288859e-17
220
-6.0267597697695204e-17
230
1
0
CIRCLE
5
157
100
AcDbEntity
8
0
100
AcDbCircle
10
203.85607342560547
20
1669.3497865177796
30
-5.6843418860808015e-13
40
1.6500000000001931
210
-2.0378390920288859e-17
220
-6.0267597697695204e-17
230
1
0
CIRCLE
5
158
100
AcDbEntity
8
0
100
AcDbCircle
10
158.70740268122347
20
1760.6290944089296
30
-5.6843418860808015e-13
40
1.6500000000001931
210
-2.0378390920288859e-17
220
-6.0267597697695204e-17
230
1
0
CIRCLE
5
159
100
AcDbEntity
8
0
100
AcDbCircle
10
92.075056437205376
20
1895.3430150634847
30
0
40
1.6500000000001931
210
-2.0378390920288859e-17
220
-6.0267597697695204e-17
230
1
0
CIRCLE
5
160
100
AcDbEntity
8
0
100
AcDbCircle
10
125.49399430697065
20
1827.7782901465491
30
0
40
1.6500000000001931
210
-2.0378390920288859e-17
220
-6.0267597697695204e-17
230
1
0
CIRCLE
5
161
100
AcDbEntity
8
0
100
AcDbCircle
10
192.17682817460684
20
1692.9622961581629
30
5.6843418860808015e-13
40
1.6500000000001931
210
-2.0378390920288859e-17
220
-6.0267597697695204e-17
230
1
0
CIRCLE
5
162
100
AcDbEntity
8
0
100
AcDbCircle
10
221.93111461922399
20
1632.8065788650333
30
-1.1368683772161603e-12
40
1.6500000000001931
210
-2.0378390920288859e-17
220
-6.0267597697695204e-17
230
1
0
CIRCLE
5
163
100
AcDbEntity
8
0
100
AcDbCircle
10
150.19975548664888
20
1644.6112656546143
30
0
40
1.6500000000001931
210
-2.0378390920288859e-17
220
-6.0267597697695204e-17
230
1
0
CIRCLE
5
164
100
AcDbEntity
8
0
100
AcDbCircle
10
0.67215308905304028
20
1661.7985408444683
30
5.6843418860808015e-13
40
1.6500000000001931
210
-2.0378390920288859e-17
220
-6.0267597697695204e-17
230
1
0
CIRCLE
5
165
100
AcDbEntity
8
0
100
AcDbCircle
10
-148.70327427169855
20
1666.1124505755292
30
0
40
1.6499999999996326
210
-2.7754612879383266e-17
220
-1.7500592014488718e-18
230
1
0
CIRCLE
5
166
100
AcDbEntity
8
0
100
AcDbCircle
10
-179.11540891565096
20
1666.026532853828
30
0
40
1.6499999999996326
210
-2.7754612879383266e-17
220
-1.7500592014488718e-18
230
1
0
CIRCLE
5
167
100
AcDbEntity
8
0
100
AcDbCircle
10
-35.439441461175534
20
1663.7606215981709
30
0
40
1.6500000000001931
210
-2.0378390920288859e-17
220
-6.0267597697695204e-17
230
1
0
CIRCLE
5
168
100
AcDbEntity
8
0
100
AcDbCircle
10
113.49674650338727
20
1650.195562441515
30
0
40
1.6500000000001931
210
-2.0378390920288859e-17
220
-6.0267597697695204e-17
230
1
0
CIRCLE
5
169
100
AcDbEntity
8
0
100
AcDbCircle
10
215.66553148711307
20
1645.4740191773183
30
-5.6843418860808015e-13
40
1.6500000000001931
210
-2.0378390920288859e-17
220
-6.0267597697695204e-17
230
1
0
CIRCLE
5
170
100
AcDbEntity
8
0
100
AcDbCircle
10
197.98625339810769
20
1681.2170929239664
30
0
40
1.6500000000001931
210
-2.0378390920288859e-17
220
-6.0267597697695204e-17
230
1
0
CIRCLE
5
171
100
AcDbEntity
8
0
100
AcDbCircle
10
142.31886456306711
20
1793.7626151108441
30
0
40
1.6500000000001931
210
-2.0378390920288859e-17
220
-6.0267597697695204e-17
230
1
0
CIRCLE
5
172
100
AcDbEntity
8
0
100
AcDbCircle
10
83.963739677209333
20
1911.7420666353507
30
0
40
1.6500000000001931
210
-2.0378390920288859e-17
220
-6.0267597697695204e-17
230
1
0
CIRCLE
5
173
100
AcDbEntity
8
0
100
AcDbCircle
10
25.532222908234985
20
1899.9515867267296
30
-5.6843418860808015e-13
40
1.6500000000001931
210
-3.5781677952508764e-17
220
6.1930791515058332e-17
230
1
0
CIRCLE
5
174
100
AcDbEntity
8
0
100
AcDbCircle
10
-8.5020204105251196
20
1897.5370425042847
30
5.6843418860808015e-13
40
1.6500000000001931
210
-3.5781677952508764e-17
220
6.1930791515058332e-17
230
1
0
CIRCLE
5
175
100
AcDbEntity
8
0
100
AcDbCircle
10
62.208122487735409
20
1902.5535420751476
30
0
40
1.6500000000001931
210
-3.5781677952508764e-17
220
6.1930791515058332e-17
230
1
0
CIRCLE
5
176
100
AcDbEntity
8
0
100
AcDbCircle
10
-159.35188621897282
20
1776.9892914806305
30
0
40
1.6500000000001931
210
-1.929365239689261e-17
220
-6.8873118064790244e-17
230
1
0
CIRCLE
5
177
100
AcDbEntity
8
0
100
AcDbCircle
10
-48.355710436185291
20
1892.2275184784307
30
5.6843418860808015e-13
40
1.6500000000001931
210
8.2440127778114111e-18
220
-6.5401954789922353e-17
230
1
0
CIRCLE
5
178
100
AcDbEntity
8
0
100
AcDbCircle
10
-131.60284227327566
20
1805.7988482300809
30
0
40
1.6500000000001931
210
-1.929365239689261e-17
220
-6.8873118064790244e-17
230
1
0
CIRCLE
5
179
100
AcDbEntity
8
0
100
AcDbCircle
10
-187.10093016466885
20
1748.1797347311806
30
5.6843418860808015e-13
40
1.6500000000001931
210
-1.929365239689261e-17
220
-6.8873118064790244e-17
230
1
0
CIRCLE
5
180
100
AcDbEntity
8
0
100
AcDbCircle
10
-76.104754381881889
20
1863.417961728981
30
0
40
1.6500000000001931
210
-1.929365239689261e-17
220
-6.8873118064790244e-17
230
1
0
CIRCLE
5
181
100
AcDbEntity
8
0
100
AcDbCircle
10
-103.85379832757906
20
1834.6084049795309
30
5.6843418860808015e-13
40
1.6500000000001931
210
-1.929365239689261e-17
220
-6.8873118064790244e-17
230
1
0
CIRCLE
5
182
100
AcDbEntity
8
0
100
AcDbCircle
10
-214.84997411036488
20
1719.3701779817302
30
0
40
1.6500000000001931
210
-1.929365239689261e-17
220
-6.8873118064790244e-17
230
1
0
CIRCLE
5
183
100
AcDbEntity
8
0
100
AcDbCircle
10
-307.4260360243743
20
1774.6811086951661
30
-5.6843418860808015e-13
40
40.250000000001549
210
1.9721522630525041e-31
220
7.8886090522098247e-31
230
1
0
LWPOLYLINE
5
184
100
AcDbEntity
8
0
100
AcDbPolyline
90
4
70
1
43
0.0
10
-495.0275086798149
20
1933.3601232252213
42
-1.6589125232692381
10
-449.87759760971073
20
1933.3601232252213
10
-461.88119797885577
20
1933.3601232252208
42
0.49558034743723289
10
-483.02390831066987
20
1933.3601232252213
0
CIRCLE
5
185
100
AcDbEntity
8
0
100
AcDbCircle
10
-467.24437214671377
20
1846.8741559813063
30
0
40
28.111347437313423
210
0
220
-0
230
1
0
CIRCLE
5
186
100
AcDbEntity
8
0
100
AcDbCircle
10
-483.17167841011326
20
1754.549105248625
30
0
40
26.750000000001087
210
9.8607613152619973e-32
220
-7.8886090522097949e-31
230
1
0
CIRCLE
5
187
100
AcDbEntity
8
0
100
AcDbCircle
10
-419.35148606373161
20
1755.1349582986013
30
0
40
26.700000000001111
210
-4.5541986269378024e-45
220
-7.8886090522097905e-31
230
1
0
CIRCLE
5
188
100
AcDbEntity
8
0
100
AcDbCircle
10
-410.50009727132527
20
1680.841759768995
30
5.6843418860808015e-13
40
26.700000000001097
210
1.9721522630524498e-31
220
-2.1895288505082462e-46
230
1
0
LWPOLYLINE
5
189
100
AcDbEntity
8
0
100
AcDbPolyline
90
2
70
1
43
0.0
10
-463.77962601938407
20
1658.4186699694189
42
-0.38384867245880105
10
-459.04108679761111
20
1664.0506368972729
42
14.495800974623586
0
CIRCLE
5
190
100
AcDbEntity
8
0
100
AcDbCircle
10
-466.39223615810977
20
1554.6289436858822
30
0
40
39.000000000001499
210
0
220
-0
230
1
0
LWPOLYLINE
5
191
100
AcDbEntity
8
0
100
AcDbPolyline
90
65
70
1
43
0.0
10
-284.49836335721773
20
1587.0003329967922
42
-0.12387877373401224
10
-237.5924788654537
20
1568.6997067061675
42
0.31447513999405408
10
-231.86923592343203
20
1568.6474696688347
42
-0.78890777115676203
10
-220.33264321510518
20
1558.2053611377928
42
0.31447513999375354
10
-219.71206833226228
20
1552.515622541315
42
-0.11786889361338751
10
-197.41549689039624
20
1510.0360700085871
10
-198.23255675060511
20
1514.0670349070597
42
0.33225733623822568
10
-193.77006163898531
20
1510.0795230679951
42
-0.74697717051783274
10
-190.72217724583277
20
1495.0427851229185
42
0.33225733623816112
10
-193.27974461173241
20
1489.6323357463134
10
-183.79758726322342
20
1442.8521115607123
42
0.3374358971293957
10
-179.24225010419616
20
1438.8573087903105
42
-0.76158853832392315
10
-176.17809864995291
20
1423.7403172977909
42
0.3374358971293856
10
-178.81834115007734
20
1418.2870003853659
10
-169.35238416093773
20
1371.5867006742569
42
0.32626588287463582
10
-164.99747148274162
20
1367.6098193949156
42
-0.73026842013834858
10
-161.96979633266346
20
1352.6727837524809
42
0.32626588287461944
10
-164.43241204206015
20
1347.3140177553025
10
-155.06988384383283
20
1301.123983994049
42
0.33840849661396727
10
-150.49712783795408
20
1297.1280069716602
42
-0.76435066926470763
10
-147.43004504384871
20
1281.9965537136518
42
0.33840849661398614
10
-150.08587430341214
20
1276.535372449785
10
-148.53068618016343
20
1268.8628516950223
10
-174.83771708995519
20
1268.8678418994177
42
0.31086789286290362
10
-179.50857559475321
20
1265.6544421466613
42
-0.68824720161172481
10
-196.3214712173523
20
1265.6576313999806
42
0.31086789286290167
10
-200.99111028066534
20
1268.8728029601366
10
-247.38745203868373
20
1268.8816039240087
42
0.31238628548864283
10
-252.06812948875805
20
1265.642324471014
42
-0.69233412948941586
10
-268.9163556401611
20
1265.6455204262145
42
0.31238628548857728
10
-273.59580382975633
20
1268.8865754098729
10
-319.35498186444073
20
1268.8952555095839
42
0.31238628548858599
10
-324.03565931451374
20
1265.6559760565906
42
-0.69233412948938289
10
-340.88388546591739
20
1265.6591720117897
42
0.31238628548857139
10
-345.56333365551257
20
1268.9002269954476
10
-391.95967541353133
20
1268.909027959319
42
0.31086789286285599
10
-396.63053391832904
20
1265.6956282065632
42
-0.68824720161171193
10
-413.44342954092815
20
1265.698817459883
42
0.31086789286277083
10
-418.11306860424116
20
1268.9139890200386
10
-444.42009951403327
20
1268.9189792244349
10
-442.86200068805931
20
1276.5909094169897
42
0.33840849661410732
10
-445.51575788378051
20
1282.0530978610961
42
-0.76435066926471829
10
-442.44293471260102
20
1297.18338643481
42
0.33840849661400629
10
-437.86866303489273
20
1301.1776283492768
10
-428.48861185282937
20
1347.3641068137588
42
0.32626588287451508
10
-430.94919436677634
20
1352.7238066968462
42
-0.73026842013831972
10
-427.91585259529108
20
1367.659692619518
42
0.32626588287457631
10
-423.55943147416559
20
1371.6349214381025
10
-414.07575792302441
20
1418.3316265767214
42
0.3374358971292819
10
-416.71393134402086
20
1423.7859447566188
42
-0.7615885383239126
10
-413.64404499902344
20
1438.9017726779823
42
0.33743589712923916
10
-409.08719261240287
20
1442.8948469489369
10
-399.58728838116906
20
1489.6714704101748
42
0.33225733623822307
10
-402.14280293705195
20
1495.082889691897
42
-0.74697717051779722
10
-399.08921409870823
20
1510.118470243016
42
0.33225733623816112
10
-394.62520651886058
20
1514.1042888057432
10
-395.44379559494195
20
1510.0736341749928
42
-0.11786889361338718
10
-373.13110978904604
20
1552.54472473752
42
0.31447513999375765
10
-372.50837636765925
20
1558.2342274897264
42
-0.78890777115676181
10
-360.96782294375714
20
1568.6719584961259
42
0.31447513999376353
10
-355.24456059583002
20
1568.7220242355545
42
-0.12387877373401358
10
-308.33173655533028
20
1587.0048539708271
42
0.30280358079137382
10
-304.13624228912016
20
1590.6341492483712
42
-0.33770212268591282
10
-296.41324771282001
20
1596.5035418404573
42
-0.33770212268588806
10
-288.69248043296545
20
1590.6312197072705
42
0.3028035807913122
0
ARC
5
192
100
AcDbEntity
8
0
100
AcDbCircle
10
-296.40435490858243
20
1588.5035467830817
30
-2.8421709430404007e-13
40
2.7499999999998197
210
3.8199612480124965e-19
220
-1.6653315675238754e-16
230
1
100
AcDbArc
50
-90.2277664571222
51
90.206029481300021
0
ARC
5
193
100
AcDbEntity
8
0
100
AcDbCircle
10
-296.42517556884917
20
1588.5035507325715
30
2.8421709430404002e-13
40
2.7499999999995368
210
8.2063147555840527e-16
220
2.0653517754724541e-13
230
1
100
AcDbArc
50
89.772233542869529
51
270.20602948130829
0
CIRCLE
5
194
100
AcDbEntity
8
0
100
AcDbCircle
10
-260.49164168081126
20
1268.8116212937057
30
5.6843418860808015e-13
40
2.7499999999999716
210
3.9958164347277813e-20
220
5.5511163319647387e-17
230
1
0
CIRCLE
5
195
100
AcDbEntity
8
0
100
AcDbCircle
10
-151.02127250510569
20
1289.1451959149026
30
-2.8421709430404007e-13
40
2.7499999999999716
210
3.9958164347277813e-20
220
5.5511163319647387e-17
230
1
0
CIRCLE
5
196
100
AcDbEntity
8
0
100
AcDbCircle
10
-187.91441368531048
20
1268.8703224297769
30
2.8421709430404007e-13
40
2.7499999999999716
210
3.9958164347277813e-20
220
5.5511163319647387e-17
230
1
0
CIRCLE
5
197
100
AcDbEntity
8
0
100
AcDbCircle
10
-194.47062373695232
20
1502.1102563045524
30
5.6843418860808015e-13
40
2.7499999999999831
210
-1.4251942490354402e-20
220
5.5511149401734808e-17
230
1
0
CIRCLE
5
198
100
AcDbEntity
8
0
100
AcDbCircle
10
-179.79426492631023
20
1430.8763765367353
30
2.8421709430404007e-13
40
2.7499999999999716
210
3.9958164347277813e-20
220
5.5511163319647387e-17
230
1
0
CIRCLE
5
199
100
AcDbEntity
8
0
100
AcDbCircle
10
-227.35051412534486
20
1562.0458673397416
30
2.8421709430404007e-13
40
2.7499999999999831
210
-1.4251942490354402e-20
220
5.5511149401734808e-17
230
1
0
CIRCLE
5
200
100
AcDbEntity
8
0
100
AcDbCircle
10
-165.87016547418563
20
1359.6575615270326
30
8.5265128291212022e-13
40
2.7499999999999716
210
3.9958164347277813e-20
220
5.5511163319647387e-17
230
1
0
CIRCLE
5
201
100
AcDbEntity
8
0
100
AcDbCircle
10
-332.45917150656749
20
1268.8252728792822
30
0
40
2.7499999999999716
210
3.9958164347277813e-20
220
5.5511163319647387e-17
230
1
0
CIRCLE
5
202
100
AcDbEntity
8
0
100
AcDbCircle
10
-405.03637200888625
20
1268.9115084896794
30
8.5265128291212022e-13
40
2.7499999999999716
210
3.9958164347277813e-20
220
5.5511163319647387e-17
230
1
0
CIRCLE
5
203
100
AcDbEntity
8
0
100
AcDbCircle
10
-441.92181861630456
20
1289.2003771015966
30
2.8421709430404007e-13
40
2.7499999999999716
210
3.9958164347277813e-20
220
5.5511163319647387e-17
230
1
0
CIRCLE
5
204
100
AcDbEntity
8
0
100
AcDbCircle
10
-427.04617560846202
20
1359.7071042397151
30
5.6843418860808015e-13
40
2.7499999999999716
210
3.9958164347277813e-20
220
5.5511163319647387e-17
230
1
0
CIRCLE
5
205
100
AcDbEntity
8
0
100
AcDbCircle
10
-413.09505803698596
20
1430.9206315743863
30
8.5265128291212022e-13
40
2.7499999999999716
210
3.9958164347277813e-20
220
5.5511163319647387e-17
230
1
0
CIRCLE
5
206
100
AcDbEntity
8
0
100
AcDbCircle
10
-398.39167544583415
20
1502.1489382725838
30
2.8421709430404007e-13
40
2.7499999999999831
210
-1.4251942490354402e-20
220
5.5511149401734808e-17
230
1
0
CIRCLE
5
207
100
AcDbEntity
8
0
100
AcDbCircle
10
-365.48904894435117
20
1562.0720709628756
30
8.5265128291212022e-13
40
2.7499999999999831
210
-1.4251942490354402e-20
220
5.5511149401734808e-17
230
1
0
LWPOLYLINE
5
208
100
AcDbEntity
8
0
100
AcDbPolyline
90
25
70
1
43
0.0
10
-10.369633891573438
20
1261.8660045364238
42
-0.28430628308847999
10
-106.01868477493865
20
1322.589586676537
10
-122.62197506291034
20
1322.3818093904608
10
-162.63380728167076
20
1583.2123815073951
10
-158.35893396701965
20
1583.2137570431319
10
-158.37426675562568
20
1583.2894013571863
10
-132.06723584583312
20
1583.2844111527875
42
0.31086789286299277
10
-127.39637734103474
20
1586.4978109055439
42
-0.68824720161178199
10
-110.58348171843653
20
1586.494621652221
42
0.31086789286288335
10
-105.91384265512373
20
1583.2794500920641
10
-59.517500897105286
20
1583.2706491281876
42
0.31238628548871095
10
-54.836823447030369
20
1586.5099285811809
42
-0.69233412948940332
10
-37.988597295627351
20
1586.506732625978
42
0.31238628548838016
10
-33.309149106032564
20
1583.2656776423185
10
12.450028928652417
20
1583.2569975426029
42
0.31238628548862901
10
17.130706378725243
20
1586.4962769955948
42
-0.6923341294895623
10
33.978932530131061
20
1586.4930810403889
42
0.31238628548823744
10
38.658380719723866
20
1583.2520260567344
10
85.054722477742644
20
1583.2432250928578
42
0.31086789286290317
10
89.725580982540492
20
1586.4566248456115
42
-0.6882472016117519
10
106.5384766051408
20
1586.4534355922888
42
0.27397184284832926
10
110.53047262137417
20
1583.2845266082045
10
141.72951192395513
20
1583.2905077161577
10
101.85161880621774
20
1322.4394407813306
10
85.248224017526596
20
1322.6386925771064
42
-0.28430628308847089
0
CIRCLE
5
209
100
AcDbEntity
8
0
100
AcDbCircle
10
91.486722510014843
20
1350.0033147795939
30
-5.6843418860808015e-13
40
2.7499999999999574
210
-1.4251942483052578e-20
220
5.5511149401735227e-17
230
1
0
CIRCLE
5
210
100
AcDbEntity
8
0
100
AcDbCircle
10
25.554218570778779
20
1583.3269801729016
30
-5.6843418860808015e-13
40
2.749999999999976
210
-1.4251942483052578e-20
220
5.5511149401735227e-17
230
1
0
CIRCLE
5
211
100
AcDbEntity
8
0
100
AcDbCircle
10
-155.88368043068616
20
1563.0070571373058
30
2.8421709430404007e-13
40
2.749999999999976
210
-1.4251942483052578e-20
220
5.5511149401735227e-17
230
1
0
CIRCLE
5
212
100
AcDbEntity
8
0
100
AcDbCircle
10
-112.43432919886756
20
1350.0419967476523
30
0
40
2.7499999999999574
210
-1.4251942483052578e-20
220
5.5511149401735227e-17
230
1
0
CIRCLE
5
213
100
AcDbEntity
8
0
100
AcDbCircle
10
-127.11068800950024
20
1421.2758765154695
30
-1.1368683772161603e-12
40
2.749999999999976
210
-1.4251942483052578e-20
220
5.5511149401735227e-17
230
1
0
CIRCLE
5
214
100
AcDbEntity
8
0
100
AcDbCircle
10
-141.03478746161551
20
1492.4946915251746
30
0
40
2.749999999999976
210
-1.4251942483052578e-20
220
5.5511149401735227e-17
230
1
0
CIRCLE
5
215
100
AcDbEntity
8
0
100
AcDbCircle
10
135.01686568051335
20
1562.9518759505731
30
0
40
2.749999999999976
210
-1.4251942483052578e-20
220
5.5511149401735227e-17
230
1
0
CIRCLE
5
216
100
AcDbEntity
8
0
100
AcDbCircle
10
120.14122267266153
20
1492.4451488124582
30
0
40
2.749999999999976
210
-1.4251942483052578e-20
220
5.5511149401735227e-17
230
1
0
CIRCLE
5
217
100
AcDbEntity
8
0
100
AcDbCircle
10
106.19010510117596
20
1421.2316214777888
30
5.6843418860808015e-13
40
2.749999999999976
210
-1.4251942483052578e-20
220
5.5511149401735227e-17
230
1
0
CIRCLE
5
218
100
AcDbEntity
8
0
100
AcDbCircle
10
-118.99053925047859
20
1583.2819306224274
30
-2.8421709430404007e-13
40
2.749999999999976
210
-1.4251942483052578e-20
220
5.5511149401735227e-17
230
1
0
CIRCLE
5
219
100
AcDbEntity
8
0
100
AcDbCircle
10
-46.413311254977636
20
1583.3406317584877
30
-5.6843418860808015e-13
40
2.749999999999976
210
-1.4251942483052578e-20
220
5.5511149401735227e-17
230
1
0
CIRCLE
5
220
100
AcDbEntity
8
0
100
AcDbCircle
10
98.131419073097703
20
1583.2407445624945
30
2.8421709430404007e-13
40
2.749999999999976
210
-1.4251942483052578e-20
220
5.5511149401735227e-17
230
1
0
LWPOLYLINE
5
221
100
AcDbEntity
8
0
100
AcDbPolyline
90
8
70
1
43
0.0
10
183.24021422490219
20
1284.9934359544809
42
-0.41421356237309298
10
178.24021422490227
20
1289.9934359544809
10
178.24021422490262
20
1539.11259716632
42
-0.4142135623730992
10
183.24021422490239
20
1544.1125971663198
10
330.14021422490043
20
1544.11259716632
42
-0.41421356237308254
10
335.14021422490038
20
1539.11259716632
10
335.14021422490003
20
1289.9934359544814
42
-0.41421356237306178
10
330.14021422490032
20
1284.9934359544816
0
LWPOLYLINE
5
222
100
AcDbEntity
8
0
100
AcDbPolyline
90
4
70
1
43
0.0
10
448.03934002318016
20
1154.9298003446697
10
-551.9606599768199
20
1154.9298003446697
10
-551.9606599768199
20
2154.9298003446643
10
448.03934002318016
20
2154.9298003446643
0
ENDSEC
0
SECTION
2
OBJECTS
0
DICTIONARY
5
C
100
AcDbDictionary
3
ACAD_GROUP
350
D
3
ACAD_MLINESTYLE
350
17
0
DICTIONARY
5
D
100
AcDbDictionary
0
DICTIONARY
5
1A
330
C
100
AcDbDictionary
0
DICTIONARY
5
17
100
AcDbDictionary
0
ENDSEC
0
EOF
