ISO-10303-21;
HEADER;
FILE_DESCRIPTION(('CATIA V5 STEP Exchange'),'2;1');

FILE_NAME('E:\\AS bureau\\AS\\Seb 6mm fantome\\tube.stp','2020-07-12T08:04:54+00:00',('none'),('none'),'CATIA Version 5-6 Release 2017','CATIA V5 STEP AP203','none');

FILE_SCHEMA(('CONFIG_CONTROL_DESIGN'));

ENDSEC;
DATA;
#5=PRODUCT('Part6','','',(#2)) ;
#1=APPLICATION_CONTEXT('configuration controlled 3D design of mechanical parts and assemblies') ;
#14=PRODUCT_DEFINITION('',' ',#6,#3) ;
#16=SECURITY_CLASSIFICATION(' ',' ',#15) ;
#15=SECURITY_CLASSIFICATION_LEVEL('unclassified') ;
#46=CARTESIAN_POINT(' ',(0.,0.,0.)) ;
#51=CARTESIAN_POINT('Axis2P3D Location',(0.,74.,0.)) ;
#56=CARTESIAN_POINT('Axis2P3D Location',(0.,70.,0.)) ;
#60=CARTESIAN_POINT('Vertex',(-7.8989718545E-016,70.,4.3)) ;
#62=CARTESIAN_POINT('Vertex',(1.31649530908E-015,70.,-4.3)) ;
#65=CARTESIAN_POINT('Line Origine',(-7.8989718545E-016,74.,4.3)) ;
#69=CARTESIAN_POINT('Vertex',(-7.8989718545E-016,78.,4.3)) ;
#72=CARTESIAN_POINT('Axis2P3D Location',(0.,78.,0.)) ;
#76=CARTESIAN_POINT('Vertex',(1.31649530908E-015,78.,-4.3)) ;
#79=CARTESIAN_POINT('Line Origine',(1.31649530908E-015,74.,-4.3)) ;
#91=CARTESIAN_POINT('Axis2P3D Location',(0.,70.,0.)) ;
#96=CARTESIAN_POINT('Axis2P3D Location',(0.,78.,0.)) ;
#108=CARTESIAN_POINT('Axis2P3D Location',(0.,74.,0.)) ;
#113=CARTESIAN_POINT('Axis2P3D Location',(0.,78.,0.)) ;
#117=CARTESIAN_POINT('Vertex',(-1.19403062917E-015,78.,6.5)) ;
#119=CARTESIAN_POINT('Vertex',(-3.78310867944E-015,78.,-6.5)) ;
#122=CARTESIAN_POINT('Line Origine',(-1.19403062917E-015,77.5,6.5)) ;
#126=CARTESIAN_POINT('Vertex',(-1.19403062917E-015,77.,6.5)) ;
#129=CARTESIAN_POINT('Axis2P3D Location',(0.,77.,0.)) ;
#133=CARTESIAN_POINT('Vertex',(-3.78310867944E-015,77.,-6.5)) ;
#136=CARTESIAN_POINT('Line Origine',(-3.78310867944E-015,77.5,-6.5)) ;
#148=CARTESIAN_POINT('Axis2P3D Location',(0.,78.,0.)) ;
#153=CARTESIAN_POINT('Axis2P3D Location',(0.,77.,0.)) ;
#165=CARTESIAN_POINT('Axis2P3D Location',(0.,74.,0.)) ;
#170=CARTESIAN_POINT('Axis2P3D Location',(0.,77.,0.)) ;
#174=CARTESIAN_POINT('Vertex',(-1.0011487583E-015,77.,5.45)) ;
#176=CARTESIAN_POINT('Vertex',(6.5091536512E-015,77.,-5.45)) ;
#179=CARTESIAN_POINT('Line Origine',(-1.0011487583E-015,76.5,5.45)) ;
#183=CARTESIAN_POINT('Vertex',(-1.0011487583E-015,76.,5.45)) ;
#186=CARTESIAN_POINT('Axis2P3D Location',(0.,76.,0.)) ;
#190=CARTESIAN_POINT('Vertex',(6.5091536512E-015,76.,-5.45)) ;
#193=CARTESIAN_POINT('Line Origine',(6.5091536512E-015,76.5,-5.45)) ;
#205=CARTESIAN_POINT('Axis2P3D Location',(0.,77.,0.)) ;
#210=CARTESIAN_POINT('Axis2P3D Location',(0.,76.,0.)) ;
#222=CARTESIAN_POINT('Axis2P3D Location',(0.,74.,0.)) ;
#227=CARTESIAN_POINT('Axis2P3D Location',(0.,76.,0.)) ;
#231=CARTESIAN_POINT('Vertex',(-9.27669950354E-016,76.,5.05)) ;
#233=CARTESIAN_POINT('Vertex',(1.54611658392E-015,76.,-5.05)) ;
#236=CARTESIAN_POINT('Line Origine',(-9.27669950354E-016,73.,5.05)) ;
#240=CARTESIAN_POINT('Vertex',(-9.27669950354E-016,70.,5.05)) ;
#243=CARTESIAN_POINT('Axis2P3D Location',(0.,70.,0.)) ;
#247=CARTESIAN_POINT('Vertex',(1.54611658392E-015,70.,-5.05)) ;
#250=CARTESIAN_POINT('Line Origine',(1.54611658392E-015,73.,-5.05)) ;
#262=CARTESIAN_POINT('Axis2P3D Location',(0.,76.,0.)) ;
#267=CARTESIAN_POINT('Axis2P3D Location',(0.,70.,0.)) ;
#279=CARTESIAN_POINT('Axis2P3D Location',(0.,78.,4.3)) ;
#293=CARTESIAN_POINT('Axis2P3D Location',(0.,77.,6.5)) ;
#307=CARTESIAN_POINT('Axis2P3D Location',(0.,76.,5.45)) ;
#321=CARTESIAN_POINT('Axis2P3D Location',(0.,70.,5.05)) ;
#52=DIRECTION('Axis2P3D Direction',(0.,1.,0.)) ;
#53=DIRECTION('Axis2P3D XDirection',(-1.83697019872E-016,0.,1.)) ;
#57=DIRECTION('Axis2P3D Direction',(0.,1.,0.)) ;
#66=DIRECTION('Vector Direction',(0.,1.,0.)) ;
#73=DIRECTION('Axis2P3D Direction',(0.,1.,0.)) ;
#80=DIRECTION('Vector Direction',(0.,1.,0.)) ;
#92=DIRECTION('Axis2P3D Direction',(0.,1.,0.)) ;
#97=DIRECTION('Axis2P3D Direction',(0.,1.,0.)) ;
#109=DIRECTION('Axis2P3D Direction',(0.,1.,0.)) ;
#110=DIRECTION('Axis2P3D XDirection',(-1.83697019872E-016,0.,1.)) ;
#114=DIRECTION('Axis2P3D Direction',(0.,1.,0.)) ;
#123=DIRECTION('Vector Direction',(0.,1.,0.)) ;
#130=DIRECTION('Axis2P3D Direction',(0.,1.,0.)) ;
#137=DIRECTION('Vector Direction',(0.,1.,0.)) ;
#149=DIRECTION('Axis2P3D Direction',(0.,1.,0.)) ;
#154=DIRECTION('Axis2P3D Direction',(0.,1.,0.)) ;
#166=DIRECTION('Axis2P3D Direction',(0.,1.,0.)) ;
#167=DIRECTION('Axis2P3D XDirection',(-1.83697019872E-016,0.,1.)) ;
#171=DIRECTION('Axis2P3D Direction',(0.,1.,0.)) ;
#180=DIRECTION('Vector Direction',(0.,1.,0.)) ;
#187=DIRECTION('Axis2P3D Direction',(0.,1.,0.)) ;
#194=DIRECTION('Vector Direction',(0.,1.,0.)) ;
#206=DIRECTION('Axis2P3D Direction',(0.,1.,0.)) ;
#211=DIRECTION('Axis2P3D Direction',(0.,1.,0.)) ;
#223=DIRECTION('Axis2P3D Direction',(0.,1.,0.)) ;
#224=DIRECTION('Axis2P3D XDirection',(-1.83697019872E-016,0.,1.)) ;
#228=DIRECTION('Axis2P3D Direction',(0.,1.,0.)) ;
#237=DIRECTION('Vector Direction',(0.,1.,0.)) ;
#244=DIRECTION('Axis2P3D Direction',(0.,1.,0.)) ;
#251=DIRECTION('Vector Direction',(0.,1.,0.)) ;
#263=DIRECTION('Axis2P3D Direction',(0.,1.,0.)) ;
#268=DIRECTION('Axis2P3D Direction',(0.,1.,0.)) ;
#280=DIRECTION('Axis2P3D Direction',(-0.,1.,0.)) ;
#281=DIRECTION('Axis2P3D XDirection',(1.,0.,0.)) ;
#294=DIRECTION('Axis2P3D Direction',(-0.,1.,0.)) ;
#295=DIRECTION('Axis2P3D XDirection',(1.,0.,0.)) ;
#308=DIRECTION('Axis2P3D Direction',(-0.,1.,0.)) ;
#309=DIRECTION('Axis2P3D XDirection',(1.,0.,0.)) ;
#322=DIRECTION('Axis2P3D Direction',(-0.,1.,0.)) ;
#323=DIRECTION('Axis2P3D XDirection',(1.,0.,0.)) ;
#47=AXIS2_PLACEMENT_3D(' ',#46,$,$) ;
#54=AXIS2_PLACEMENT_3D('Cylinder Axis2P3D',#51,#52,#53) ;
#58=AXIS2_PLACEMENT_3D('Circle Axis2P3D',#56,#57,$) ;
#74=AXIS2_PLACEMENT_3D('Circle Axis2P3D',#72,#73,$) ;
#93=AXIS2_PLACEMENT_3D('Circle Axis2P3D',#91,#92,$) ;
#98=AXIS2_PLACEMENT_3D('Circle Axis2P3D',#96,#97,$) ;
#111=AXIS2_PLACEMENT_3D('Cylinder Axis2P3D',#108,#109,#110) ;
#115=AXIS2_PLACEMENT_3D('Circle Axis2P3D',#113,#114,$) ;
#131=AXIS2_PLACEMENT_3D('Circle Axis2P3D',#129,#130,$) ;
#150=AXIS2_PLACEMENT_3D('Circle Axis2P3D',#148,#149,$) ;
#155=AXIS2_PLACEMENT_3D('Circle Axis2P3D',#153,#154,$) ;
#168=AXIS2_PLACEMENT_3D('Cylinder Axis2P3D',#165,#166,#167) ;
#172=AXIS2_PLACEMENT_3D('Circle Axis2P3D',#170,#171,$) ;
#188=AXIS2_PLACEMENT_3D('Circle Axis2P3D',#186,#187,$) ;
#207=AXIS2_PLACEMENT_3D('Circle Axis2P3D',#205,#206,$) ;
#212=AXIS2_PLACEMENT_3D('Circle Axis2P3D',#210,#211,$) ;
#225=AXIS2_PLACEMENT_3D('Cylinder Axis2P3D',#222,#223,#224) ;
#229=AXIS2_PLACEMENT_3D('Circle Axis2P3D',#227,#228,$) ;
#245=AXIS2_PLACEMENT_3D('Circle Axis2P3D',#243,#244,$) ;
#264=AXIS2_PLACEMENT_3D('Circle Axis2P3D',#262,#263,$) ;
#269=AXIS2_PLACEMENT_3D('Circle Axis2P3D',#267,#268,$) ;
#282=AXIS2_PLACEMENT_3D('Plane Axis2P3D',#279,#280,#281) ;
#296=AXIS2_PLACEMENT_3D('Plane Axis2P3D',#293,#294,#295) ;
#310=AXIS2_PLACEMENT_3D('Plane Axis2P3D',#307,#308,#309) ;
#324=AXIS2_PLACEMENT_3D('Plane Axis2P3D',#321,#322,#323) ;
#40=PRODUCT_DEFINITION_SHAPE(' ',' ',#14) ;
#31=APPROVAL_PERSON_ORGANIZATION(#25,#21,#19) ;
#25=PERSON_AND_ORGANIZATION(#22,#23) ;
#22=PERSON(' ',' ',' ',$,$,$) ;
#23=ORGANIZATION(' ',' ',' ') ;
#21=APPROVAL(#20,' ') ;
#20=APPROVAL_STATUS('not_yet_approved') ;
#19=APPROVAL_ROLE('APPROVER') ;
#13=DATE_AND_TIME(#11,#12) ;
#12=LOCAL_TIME(10,4,54.,#10) ;
#10=COORDINATED_UNIVERSAL_TIME_OFFSET(0,0,.AHEAD.) ;
#85=ORIENTED_EDGE('',*,*,#64,.F.) ;
#86=ORIENTED_EDGE('',*,*,#71,.T.) ;
#87=ORIENTED_EDGE('',*,*,#78,.T.) ;
#88=ORIENTED_EDGE('',*,*,#83,.F.) ;
#102=ORIENTED_EDGE('',*,*,#95,.F.) ;
#103=ORIENTED_EDGE('',*,*,#83,.T.) ;
#104=ORIENTED_EDGE('',*,*,#100,.T.) ;
#105=ORIENTED_EDGE('',*,*,#71,.F.) ;
#142=ORIENTED_EDGE('',*,*,#121,.F.) ;
#143=ORIENTED_EDGE('',*,*,#128,.T.) ;
#144=ORIENTED_EDGE('',*,*,#135,.T.) ;
#145=ORIENTED_EDGE('',*,*,#140,.F.) ;
#159=ORIENTED_EDGE('',*,*,#152,.F.) ;
#160=ORIENTED_EDGE('',*,*,#140,.T.) ;
#161=ORIENTED_EDGE('',*,*,#157,.T.) ;
#162=ORIENTED_EDGE('',*,*,#128,.F.) ;
#199=ORIENTED_EDGE('',*,*,#178,.F.) ;
#200=ORIENTED_EDGE('',*,*,#185,.T.) ;
#201=ORIENTED_EDGE('',*,*,#192,.T.) ;
#202=ORIENTED_EDGE('',*,*,#197,.F.) ;
#216=ORIENTED_EDGE('',*,*,#209,.F.) ;
#217=ORIENTED_EDGE('',*,*,#197,.T.) ;
#218=ORIENTED_EDGE('',*,*,#214,.T.) ;
#219=ORIENTED_EDGE('',*,*,#185,.F.) ;
#256=ORIENTED_EDGE('',*,*,#235,.F.) ;
#257=ORIENTED_EDGE('',*,*,#242,.T.) ;
#258=ORIENTED_EDGE('',*,*,#249,.T.) ;
#259=ORIENTED_EDGE('',*,*,#254,.F.) ;
#273=ORIENTED_EDGE('',*,*,#266,.F.) ;
#274=ORIENTED_EDGE('',*,*,#254,.T.) ;
#275=ORIENTED_EDGE('',*,*,#271,.T.) ;
#276=ORIENTED_EDGE('',*,*,#242,.F.) ;
#285=ORIENTED_EDGE('',*,*,#152,.T.) ;
#286=ORIENTED_EDGE('',*,*,#121,.T.) ;
#289=ORIENTED_EDGE('',*,*,#78,.F.) ;
#290=ORIENTED_EDGE('',*,*,#100,.F.) ;
#299=ORIENTED_EDGE('',*,*,#135,.F.) ;
#300=ORIENTED_EDGE('',*,*,#157,.F.) ;
#303=ORIENTED_EDGE('',*,*,#209,.T.) ;
#304=ORIENTED_EDGE('',*,*,#178,.T.) ;
#313=ORIENTED_EDGE('',*,*,#192,.F.) ;
#314=ORIENTED_EDGE('',*,*,#214,.F.) ;
#317=ORIENTED_EDGE('',*,*,#266,.T.) ;
#318=ORIENTED_EDGE('',*,*,#235,.T.) ;
#327=ORIENTED_EDGE('',*,*,#249,.F.) ;
#328=ORIENTED_EDGE('',*,*,#271,.F.) ;
#331=ORIENTED_EDGE('',*,*,#95,.T.) ;
#332=ORIENTED_EDGE('',*,*,#64,.T.) ;
#291=FACE_BOUND('',#288,.T.) ;
#305=FACE_BOUND('',#302,.T.) ;
#319=FACE_BOUND('',#316,.T.) ;
#333=FACE_BOUND('',#330,.T.) ;
#50=CLOSED_SHELL('Closed Shell',(#90,#107,#147,#164,#204,#221,#261,#278,#292,#306,#320,#334)) ;
#67=VECTOR('Line Direction',#66,1.) ;
#81=VECTOR('Line Direction',#80,1.) ;
#124=VECTOR('Line Direction',#123,1.) ;
#138=VECTOR('Line Direction',#137,1.) ;
#181=VECTOR('Line Direction',#180,1.) ;
#195=VECTOR('Line Direction',#194,1.) ;
#238=VECTOR('Line Direction',#237,1.) ;
#252=VECTOR('Line Direction',#251,1.) ;
#336=ADVANCED_BREP_SHAPE_REPRESENTATION('NONE',(#335),#45) ;
#48=SHAPE_REPRESENTATION(' ',(#47),#45) ;
#90=ADVANCED_FACE('Body.3',(#89),#55,.F.) ;
#107=ADVANCED_FACE('Body.3',(#106),#55,.F.) ;
#147=ADVANCED_FACE('Body.3',(#146),#112,.T.) ;
#164=ADVANCED_FACE('Body.3',(#163),#112,.T.) ;
#204=ADVANCED_FACE('Body.3',(#203),#169,.T.) ;
#221=ADVANCED_FACE('Body.3',(#220),#169,.T.) ;
#261=ADVANCED_FACE('Body.3',(#260),#226,.T.) ;
#278=ADVANCED_FACE('Body.3',(#277),#226,.T.) ;
#292=ADVANCED_FACE('Body.3',(#287,#291),#283,.T.) ;
#306=ADVANCED_FACE('Body.3',(#301,#305),#297,.F.) ;
#320=ADVANCED_FACE('Body.3',(#315,#319),#311,.F.) ;
#334=ADVANCED_FACE('Body.3',(#329,#333),#325,.F.) ;
#4=APPLICATION_PROTOCOL_DEFINITION('international standard','config_control_design',1994,#1) ;
#32=APPROVAL_DATE_TIME(#13,#21) ;
#335=MANIFOLD_SOLID_BREP('Body.3',#50) ;
#11=CALENDAR_DATE(2020,12,7) ;
#30=CC_DESIGN_APPROVAL(#21,(#16,#6,#14)) ;
#18=CC_DESIGN_DATE_AND_TIME_ASSIGNMENT(#13,#17,(#16)) ;
#29=CC_DESIGN_DATE_AND_TIME_ASSIGNMENT(#13,#28,(#14)) ;
#17=DATE_TIME_ROLE('classification_date') ;
#28=DATE_TIME_ROLE('creation_date') ;
#27=CC_DESIGN_PERSON_AND_ORGANIZATION_ASSIGNMENT(#25,#26,(#16)) ;
#33=CC_DESIGN_PERSON_AND_ORGANIZATION_ASSIGNMENT(#25,#34,(#6)) ;
#35=CC_DESIGN_PERSON_AND_ORGANIZATION_ASSIGNMENT(#25,#36,(#6,#14)) ;
#37=CC_DESIGN_PERSON_AND_ORGANIZATION_ASSIGNMENT(#25,#38,(#5)) ;
#26=PERSON_AND_ORGANIZATION_ROLE('classification_officer') ;
#34=PERSON_AND_ORGANIZATION_ROLE('design_supplier') ;
#36=PERSON_AND_ORGANIZATION_ROLE('creator') ;
#38=PERSON_AND_ORGANIZATION_ROLE('design_owner') ;
#39=CC_DESIGN_SECURITY_CLASSIFICATION(#16,(#6)) ;
#59=CIRCLE('generated circle',#58,4.3) ;
#75=CIRCLE('generated circle',#74,4.3) ;
#94=CIRCLE('generated circle',#93,4.3) ;
#99=CIRCLE('generated circle',#98,4.3) ;
#116=CIRCLE('generated circle',#115,6.5) ;
#132=CIRCLE('generated circle',#131,6.5) ;
#151=CIRCLE('generated circle',#150,6.5) ;
#156=CIRCLE('generated circle',#155,6.5) ;
#173=CIRCLE('generated circle',#172,5.45) ;
#189=CIRCLE('generated circle',#188,5.45) ;
#208=CIRCLE('generated circle',#207,5.45) ;
#213=CIRCLE('generated circle',#212,5.45) ;
#230=CIRCLE('generated circle',#229,5.05) ;
#246=CIRCLE('generated circle',#245,5.05) ;
#265=CIRCLE('generated circle',#264,5.05) ;
#270=CIRCLE('generated circle',#269,5.05) ;
#337=SHAPE_REPRESENTATION_RELATIONSHIP(' ',' ',#48,#336) ;
#55=CYLINDRICAL_SURFACE('generated cylinder',#54,4.3) ;
#112=CYLINDRICAL_SURFACE('generated cylinder',#111,6.5) ;
#169=CYLINDRICAL_SURFACE('generated cylinder',#168,5.45) ;
#226=CYLINDRICAL_SURFACE('generated cylinder',#225,5.05) ;
#3=DESIGN_CONTEXT(' ',#1,'design') ;
#64=EDGE_CURVE('',#61,#63,#59,.T.) ;
#71=EDGE_CURVE('',#61,#70,#68,.T.) ;
#78=EDGE_CURVE('',#70,#77,#75,.T.) ;
#83=EDGE_CURVE('',#63,#77,#82,.T.) ;
#95=EDGE_CURVE('',#63,#61,#94,.T.) ;
#100=EDGE_CURVE('',#77,#70,#99,.T.) ;
#121=EDGE_CURVE('',#118,#120,#116,.T.) ;
#128=EDGE_CURVE('',#118,#127,#125,.F.) ;
#135=EDGE_CURVE('',#127,#134,#132,.T.) ;
#140=EDGE_CURVE('',#120,#134,#139,.F.) ;
#152=EDGE_CURVE('',#120,#118,#151,.T.) ;
#157=EDGE_CURVE('',#134,#127,#156,.T.) ;
#178=EDGE_CURVE('',#175,#177,#173,.T.) ;
#185=EDGE_CURVE('',#175,#184,#182,.F.) ;
#192=EDGE_CURVE('',#184,#191,#189,.T.) ;
#197=EDGE_CURVE('',#177,#191,#196,.F.) ;
#209=EDGE_CURVE('',#177,#175,#208,.T.) ;
#214=EDGE_CURVE('',#191,#184,#213,.T.) ;
#235=EDGE_CURVE('',#232,#234,#230,.T.) ;
#242=EDGE_CURVE('',#232,#241,#239,.F.) ;
#249=EDGE_CURVE('',#241,#248,#246,.T.) ;
#254=EDGE_CURVE('',#234,#248,#253,.F.) ;
#266=EDGE_CURVE('',#234,#232,#265,.T.) ;
#271=EDGE_CURVE('',#248,#241,#270,.T.) ;
#84=EDGE_LOOP('',(#85,#86,#87,#88)) ;
#101=EDGE_LOOP('',(#102,#103,#104,#105)) ;
#141=EDGE_LOOP('',(#142,#143,#144,#145)) ;
#158=EDGE_LOOP('',(#159,#160,#161,#162)) ;
#198=EDGE_LOOP('',(#199,#200,#201,#202)) ;
#215=EDGE_LOOP('',(#216,#217,#218,#219)) ;
#255=EDGE_LOOP('',(#256,#257,#258,#259)) ;
#272=EDGE_LOOP('',(#273,#274,#275,#276)) ;
#284=EDGE_LOOP('',(#285,#286)) ;
#288=EDGE_LOOP('',(#289,#290)) ;
#298=EDGE_LOOP('',(#299,#300)) ;
#302=EDGE_LOOP('',(#303,#304)) ;
#312=EDGE_LOOP('',(#313,#314)) ;
#316=EDGE_LOOP('',(#317,#318)) ;
#326=EDGE_LOOP('',(#327,#328)) ;
#330=EDGE_LOOP('',(#331,#332)) ;
#89=FACE_OUTER_BOUND('',#84,.T.) ;
#106=FACE_OUTER_BOUND('',#101,.T.) ;
#146=FACE_OUTER_BOUND('',#141,.T.) ;
#163=FACE_OUTER_BOUND('',#158,.T.) ;
#203=FACE_OUTER_BOUND('',#198,.T.) ;
#220=FACE_OUTER_BOUND('',#215,.T.) ;
#260=FACE_OUTER_BOUND('',#255,.T.) ;
#277=FACE_OUTER_BOUND('',#272,.T.) ;
#287=FACE_OUTER_BOUND('',#284,.T.) ;
#301=FACE_OUTER_BOUND('',#298,.T.) ;
#315=FACE_OUTER_BOUND('',#312,.T.) ;
#329=FACE_OUTER_BOUND('',#326,.T.) ;
#44=UNCERTAINTY_MEASURE_WITH_UNIT(LENGTH_MEASURE(0.005),#41,'distance_accuracy_value','CONFUSED CURVE UNCERTAINTY') ;
#68=LINE('Line',#65,#67) ;
#82=LINE('Line',#79,#81) ;
#125=LINE('Line',#122,#124) ;
#139=LINE('Line',#136,#138) ;
#182=LINE('Line',#179,#181) ;
#196=LINE('Line',#193,#195) ;
#239=LINE('Line',#236,#238) ;
#253=LINE('Line',#250,#252) ;
#2=MECHANICAL_CONTEXT(' ',#1,'mechanical') ;
#24=PERSONAL_ADDRESS(' ',' ',' ',' ',' ',' ',' ',' ',' ',' ',' ',' ',(#22),' ') ;
#283=PLANE('',#282) ;
#297=PLANE('',#296) ;
#311=PLANE('',#310) ;
#325=PLANE('',#324) ;
#7=PRODUCT_CATEGORY('part',$) ;
#9=PRODUCT_CATEGORY_RELATIONSHIP(' ',' ',#7,#8) ;
#6=PRODUCT_DEFINITION_FORMATION_WITH_SPECIFIED_SOURCE('',' ',#5,.NOT_KNOWN.) ;
#8=PRODUCT_RELATED_PRODUCT_CATEGORY('detail',$,(#5)) ;
#49=SHAPE_DEFINITION_REPRESENTATION(#40,#48) ;
#61=VERTEX_POINT('',#60) ;
#63=VERTEX_POINT('',#62) ;
#70=VERTEX_POINT('',#69) ;
#77=VERTEX_POINT('',#76) ;
#118=VERTEX_POINT('',#117) ;
#120=VERTEX_POINT('',#119) ;
#127=VERTEX_POINT('',#126) ;
#134=VERTEX_POINT('',#133) ;
#175=VERTEX_POINT('',#174) ;
#177=VERTEX_POINT('',#176) ;
#184=VERTEX_POINT('',#183) ;
#191=VERTEX_POINT('',#190) ;
#232=VERTEX_POINT('',#231) ;
#234=VERTEX_POINT('',#233) ;
#241=VERTEX_POINT('',#240) ;
#248=VERTEX_POINT('',#247) ;
#41=(LENGTH_UNIT()NAMED_UNIT(*)SI_UNIT(.MILLI.,.METRE.)) ;
#42=(NAMED_UNIT(*)PLANE_ANGLE_UNIT()SI_UNIT($,.RADIAN.)) ;
#43=(NAMED_UNIT(*)SI_UNIT($,.STERADIAN.)SOLID_ANGLE_UNIT()) ;
#45=(GEOMETRIC_REPRESENTATION_CONTEXT(3)GLOBAL_UNCERTAINTY_ASSIGNED_CONTEXT((#44))GLOBAL_UNIT_ASSIGNED_CONTEXT((#41,#42,#43))REPRESENTATION_CONTEXT(' ',' ')) ;
ENDSEC;
END-ISO-10303-21;
