ISO-10303-21;
HEADER;
FILE_DESCRIPTION(('CATIA V5 STEP Exchange'),'2;1');

FILE_NAME('C:\\Users\\valentin\\Desktop\\Simply Army Airsoft\\CATALOGUE Simply Army Airsoft\\Collab Nuage_SAA\\Doc envoy\X2\00E9\X0\\\Bloc hop up\\Ergot anti-retour.stp','2020-08-05T08:22:43+00:00',('none'),('none'),'CATIA Version 5 Release 19 GA (IN-10)','CATIA V5 STEP AP203','none');

FILE_SCHEMA(('CONFIG_CONTROL_DESIGN'));

ENDSEC;
/* file written by CATIA V5R19 */
DATA;
#5=PRODUCT('Part1','','',(#2)) ;
#1=APPLICATION_CONTEXT('configuration controlled 3D design of mechanical parts and assemblies') ;
#14=PRODUCT_DEFINITION('',' ',#6,#3) ;
#16=SECURITY_CLASSIFICATION(' ',' ',#15) ;
#15=SECURITY_CLASSIFICATION_LEVEL('unclassified') ;
#47=CARTESIAN_POINT(' ',(0.,0.,0.)) ;
#52=CARTESIAN_POINT('Axis2P3D Location',(0.,0.,4.)) ;
#57=CARTESIAN_POINT('Axis2P3D Location',(0.,0.,1.7763568394E-015)) ;
#61=CARTESIAN_POINT('Vertex',(1.19856384651,-2.19395640473,1.7763568394E-015)) ;
#63=CARTESIAN_POINT('Vertex',(-1.19856384651,2.19395640473,1.7763568394E-015)) ;
#66=CARTESIAN_POINT('Line Origine',(1.19856384651,-2.19395640473,1.75)) ;
#70=CARTESIAN_POINT('Vertex',(1.19856384651,-2.19395640473,3.5)) ;
#73=CARTESIAN_POINT('Axis2P3D Location',(0.,0.,3.5)) ;
#77=CARTESIAN_POINT('Vertex',(-1.19856384651,2.19395640473,3.5)) ;
#80=CARTESIAN_POINT('Line Origine',(-1.19856384651,2.19395640473,1.75)) ;
#92=CARTESIAN_POINT('Axis2P3D Location',(0.,0.,1.7763568394E-015)) ;
#97=CARTESIAN_POINT('Axis2P3D Location',(0.,0.,3.5)) ;
#109=CARTESIAN_POINT('Axis2P3D Location',(0.,0.,4.)) ;
#114=CARTESIAN_POINT('Axis2P3D Location',(0.,0.,2.5)) ;
#118=CARTESIAN_POINT('Vertex',(-1.86975960056,3.42257199137,2.5)) ;
#120=CARTESIAN_POINT('Vertex',(1.86975960056,-3.42257199137,2.5)) ;
#123=CARTESIAN_POINT('Line Origine',(-1.86975960056,3.42257199137,1.25)) ;
#127=CARTESIAN_POINT('Vertex',(-1.86975960056,3.42257199137,0.)) ;
#130=CARTESIAN_POINT('Axis2P3D Location',(0.,0.,0.)) ;
#134=CARTESIAN_POINT('Vertex',(1.86975960056,-3.42257199137,0.)) ;
#137=CARTESIAN_POINT('Line Origine',(1.86975960056,-3.42257199137,1.25)) ;
#149=CARTESIAN_POINT('Axis2P3D Location',(0.,-8.881784197E-016,3.5)) ;
#159=CARTESIAN_POINT('Axis2P3D Location',(0.,-3.,8.)) ;
#164=CARTESIAN_POINT('Axis2P3D Location',(0.,0.,8.)) ;
#168=CARTESIAN_POINT('Vertex',(-1.74608049373E-015,3.,8.)) ;
#170=CARTESIAN_POINT('Vertex',(-1.43827661581,2.63274768567,8.)) ;
#173=CARTESIAN_POINT('Axis2P3D Location',(0.,0.,8.)) ;
#177=CARTESIAN_POINT('Vertex',(-1.28583667151E-015,-3.,8.)) ;
#180=CARTESIAN_POINT('Line Origine',(8.881784197E-016,0.,8.)) ;
#191=CARTESIAN_POINT('Axis2P3D Location',(0.,0.,4.)) ;
#196=CARTESIAN_POINT('Line Origine',(-1.43827661581,2.63274768567,5.25)) ;
#200=CARTESIAN_POINT('Vertex',(-1.43827661581,2.63274768567,2.5)) ;
#203=CARTESIAN_POINT('Axis2P3D Location',(0.,0.,2.5)) ;
#207=CARTESIAN_POINT('Vertex',(1.43827661581,-2.63274768567,2.5)) ;
#210=CARTESIAN_POINT('Line Origine',(1.43827661581,-2.63274768567,5.25)) ;
#214=CARTESIAN_POINT('Vertex',(1.43827661581,-2.63274768567,6.56172338419)) ;
#218=CARTESIAN_POINT('Control Point',(1.43827661581,-2.63274768567,6.56172338419)) ;
#219=CARTESIAN_POINT('Control Point',(0.98128934845,-2.88240096766,7.01871065155)) ;
#220=CARTESIAN_POINT('Control Point',(0.489898707015,-3.,7.51010129298)) ;
#221=CARTESIAN_POINT('Control Point',(-1.38441437437E-015,-3.,8.)) ;
#231=CARTESIAN_POINT('Axis2P3D Location',(0.,0.,2.5)) ;
#237=CARTESIAN_POINT('Control Point',(3.,1.7763568394E-015,5.)) ;
#238=CARTESIAN_POINT('Control Point',(3.,0.487011208257,5.)) ;
#239=CARTESIAN_POINT('Control Point',(2.9011750346,0.974021251851,5.09882496537)) ;
#240=CARTESIAN_POINT('Control Point',(2.70618950459,1.40034182119,5.29380972201)) ;
#241=CARTESIAN_POINT('Control Point',(2.13852754334,2.2386855315,5.86147350299)) ;
#242=CARTESIAN_POINT('Control Point',(1.38527923204,2.72957770394,6.61471935239)) ;
#243=CARTESIAN_POINT('Control Point',(0.931788647864,2.90955943937,7.06821210581)) ;
#244=CARTESIAN_POINT('Control Point',(0.465894135514,3.,7.53410586449)) ;
#245=CARTESIAN_POINT('Control Point',(3.33066907388E-015,3.,8.)) ;
#246=CARTESIAN_POINT('Vertex',(3.,-7.34788079488E-016,5.)) ;
#250=CARTESIAN_POINT('Control Point',(1.43827661581,-2.63274768567,6.56172338419)) ;
#251=CARTESIAN_POINT('Control Point',(1.9199004558,-2.36963538272,6.0800995442)) ;
#252=CARTESIAN_POINT('Control Point',(2.36241650303,-1.97904389291,5.63758502601)) ;
#253=CARTESIAN_POINT('Control Point',(2.76877304838,-1.46398425081,5.23122647326)) ;
#254=CARTESIAN_POINT('Control Point',(3.,-0.730171986896,5.)) ;
#255=CARTESIAN_POINT('Control Point',(3.,-8.881784197E-016,5.)) ;
#266=CARTESIAN_POINT('Axis2P3D Location',(8.881784197E-016,0.,8.)) ;
#278=CARTESIAN_POINT('Axis2P3D Location',(0.,-2.5,0.)) ;
#283=CARTESIAN_POINT('Axis2P3D Location',(4.8,0.,0.)) ;
#287=CARTESIAN_POINT('Vertex',(3.75,1.07121426428,0.)) ;
#289=CARTESIAN_POINT('Vertex',(3.3,1.83690953073E-016,0.)) ;
#292=CARTESIAN_POINT('Axis2P3D Location',(4.8,0.,0.)) ;
#296=CARTESIAN_POINT('Vertex',(3.75,-1.07121426428,0.)) ;
#299=CARTESIAN_POINT('Axis2P3D Location',(0.,0.,0.)) ;
#304=CARTESIAN_POINT('Axis2P3D Location',(0.,0.,0.)) ;
#321=CARTESIAN_POINT('Axis2P3D Location',(0.,-3.9,2.5)) ;
#326=CARTESIAN_POINT('Axis2P3D Location',(0.,0.,2.5)) ;
#330=CARTESIAN_POINT('Vertex',(3.75,1.07121426428,2.5)) ;
#333=CARTESIAN_POINT('Axis2P3D Location',(0.,0.,2.5)) ;
#337=CARTESIAN_POINT('Vertex',(3.75,-1.07121426428,2.5)) ;
#340=CARTESIAN_POINT('Axis2P3D Location',(4.8,-4.4408920985E-016,2.5)) ;
#344=CARTESIAN_POINT('Vertex',(3.3,1.83690953073E-016,2.5)) ;
#347=CARTESIAN_POINT('Axis2P3D Location',(4.8,-1.33226762955E-015,2.5)) ;
#364=CARTESIAN_POINT('Line Origine',(3.75,-1.07121426428,1.25)) ;
#376=CARTESIAN_POINT('Line Origine',(3.75,1.07121426428,1.25)) ;
#388=CARTESIAN_POINT('Axis2P3D Location',(4.8,0.,2.5)) ;
#393=CARTESIAN_POINT('Line Origine',(3.3,1.83690953073E-016,2.5)) ;
#53=DIRECTION('Axis2P3D Direction',(0.,0.,1.)) ;
#54=DIRECTION('Axis2P3D XDirection',(0.479425538604,-0.87758256189,0.)) ;
#58=DIRECTION('Axis2P3D Direction',(0.,0.,1.)) ;
#67=DIRECTION('Vector Direction',(0.,0.,1.)) ;
#74=DIRECTION('Axis2P3D Direction',(0.,0.,1.)) ;
#81=DIRECTION('Vector Direction',(0.,0.,1.)) ;
#93=DIRECTION('Axis2P3D Direction',(0.,0.,1.)) ;
#98=DIRECTION('Axis2P3D Direction',(0.,0.,1.)) ;
#110=DIRECTION('Axis2P3D Direction',(0.,0.,1.)) ;
#111=DIRECTION('Axis2P3D XDirection',(0.479425538604,-0.87758256189,0.)) ;
#115=DIRECTION('Axis2P3D Direction',(0.,0.,1.)) ;
#124=DIRECTION('Vector Direction',(0.,0.,1.)) ;
#131=DIRECTION('Axis2P3D Direction',(0.,0.,1.)) ;
#138=DIRECTION('Vector Direction',(0.,0.,1.)) ;
#150=DIRECTION('Axis2P3D Direction',(0.,0.,1.)) ;
#151=DIRECTION('Axis2P3D XDirection',(1.,0.,0.)) ;
#160=DIRECTION('Axis2P3D Direction',(0.,0.,1.)) ;
#161=DIRECTION('Axis2P3D XDirection',(1.,0.,0.)) ;
#165=DIRECTION('Axis2P3D Direction',(0.,0.,1.)) ;
#174=DIRECTION('Axis2P3D Direction',(0.,0.,1.)) ;
#181=DIRECTION('Vector Direction',(0.,-1.,0.)) ;
#192=DIRECTION('Axis2P3D Direction',(0.,0.,1.)) ;
#193=DIRECTION('Axis2P3D XDirection',(0.479425538604,-0.87758256189,0.)) ;
#197=DIRECTION('Vector Direction',(0.,0.,1.)) ;
#204=DIRECTION('Axis2P3D Direction',(0.,0.,1.)) ;
#211=DIRECTION('Vector Direction',(0.,0.,1.)) ;
#232=DIRECTION('Axis2P3D Direction',(0.,0.,1.)) ;
#267=DIRECTION('Axis2P3D Direction',(-0.707106781187,-0.,-0.707106781187)) ;
#268=DIRECTION('Axis2P3D XDirection',(0.707106781187,0.,-0.707106781187)) ;
#279=DIRECTION('Axis2P3D Direction',(0.,0.,1.)) ;
#280=DIRECTION('Axis2P3D XDirection',(1.,0.,0.)) ;
#284=DIRECTION('Axis2P3D Direction',(0.,0.,1.)) ;
#293=DIRECTION('Axis2P3D Direction',(0.,0.,1.)) ;
#300=DIRECTION('Axis2P3D Direction',(0.,0.,1.)) ;
#305=DIRECTION('Axis2P3D Direction',(0.,0.,1.)) ;
#322=DIRECTION('Axis2P3D Direction',(0.,0.,1.)) ;
#323=DIRECTION('Axis2P3D XDirection',(1.,0.,0.)) ;
#327=DIRECTION('Axis2P3D Direction',(0.,0.,1.)) ;
#334=DIRECTION('Axis2P3D Direction',(0.,0.,1.)) ;
#341=DIRECTION('Axis2P3D Direction',(0.,0.,1.)) ;
#348=DIRECTION('Axis2P3D Direction',(0.,0.,1.)) ;
#365=DIRECTION('Vector Direction',(0.,0.,1.)) ;
#377=DIRECTION('Vector Direction',(0.,0.,1.)) ;
#389=DIRECTION('Axis2P3D Direction',(0.,0.,1.)) ;
#390=DIRECTION('Axis2P3D XDirection',(1.,0.,0.)) ;
#394=DIRECTION('Vector Direction',(0.,0.,1.)) ;
#48=AXIS2_PLACEMENT_3D(' ',#47,$,$) ;
#55=AXIS2_PLACEMENT_3D('Cylinder Axis2P3D',#52,#53,#54) ;
#59=AXIS2_PLACEMENT_3D('Circle Axis2P3D',#57,#58,$) ;
#75=AXIS2_PLACEMENT_3D('Circle Axis2P3D',#73,#74,$) ;
#94=AXIS2_PLACEMENT_3D('Circle Axis2P3D',#92,#93,$) ;
#99=AXIS2_PLACEMENT_3D('Circle Axis2P3D',#97,#98,$) ;
#112=AXIS2_PLACEMENT_3D('Cylinder Axis2P3D',#109,#110,#111) ;
#116=AXIS2_PLACEMENT_3D('Circle Axis2P3D',#114,#115,$) ;
#132=AXIS2_PLACEMENT_3D('Circle Axis2P3D',#130,#131,$) ;
#152=AXIS2_PLACEMENT_3D('Plane Axis2P3D',#149,#150,#151) ;
#162=AXIS2_PLACEMENT_3D('Plane Axis2P3D',#159,#160,#161) ;
#166=AXIS2_PLACEMENT_3D('Circle Axis2P3D',#164,#165,$) ;
#175=AXIS2_PLACEMENT_3D('Circle Axis2P3D',#173,#174,$) ;
#194=AXIS2_PLACEMENT_3D('Cylinder Axis2P3D',#191,#192,#193) ;
#205=AXIS2_PLACEMENT_3D('Circle Axis2P3D',#203,#204,$) ;
#233=AXIS2_PLACEMENT_3D('Circle Axis2P3D',#231,#232,$) ;
#269=AXIS2_PLACEMENT_3D('Plane Axis2P3D',#266,#267,#268) ;
#281=AXIS2_PLACEMENT_3D('Plane Axis2P3D',#278,#279,#280) ;
#285=AXIS2_PLACEMENT_3D('Circle Axis2P3D',#283,#284,$) ;
#294=AXIS2_PLACEMENT_3D('Circle Axis2P3D',#292,#293,$) ;
#301=AXIS2_PLACEMENT_3D('Circle Axis2P3D',#299,#300,$) ;
#306=AXIS2_PLACEMENT_3D('Circle Axis2P3D',#304,#305,$) ;
#324=AXIS2_PLACEMENT_3D('Plane Axis2P3D',#321,#322,#323) ;
#328=AXIS2_PLACEMENT_3D('Circle Axis2P3D',#326,#327,$) ;
#335=AXIS2_PLACEMENT_3D('Circle Axis2P3D',#333,#334,$) ;
#342=AXIS2_PLACEMENT_3D('Circle Axis2P3D',#340,#341,$) ;
#349=AXIS2_PLACEMENT_3D('Circle Axis2P3D',#347,#348,$) ;
#391=AXIS2_PLACEMENT_3D('Cylinder Axis2P3D',#388,#389,#390) ;
#40=PRODUCT_DEFINITION_SHAPE(' ',' ',#14) ;
#31=APPROVAL_PERSON_ORGANIZATION(#25,#21,#19) ;
#25=PERSON_AND_ORGANIZATION(#22,#23) ;
#22=PERSON(' ',' ',' ',$,$,$) ;
#23=ORGANIZATION(' ',' ',' ') ;
#21=APPROVAL(#20,' ') ;
#20=APPROVAL_STATUS('not_yet_approved') ;
#19=APPROVAL_ROLE('APPROVER') ;
#13=DATE_AND_TIME(#11,#12) ;
#12=LOCAL_TIME(9,22,42.,#10) ;
#10=COORDINATED_UNIVERSAL_TIME_OFFSET(0,0,.AHEAD.) ;
#86=ORIENTED_EDGE('',*,*,#65,.F.) ;
#87=ORIENTED_EDGE('',*,*,#72,.T.) ;
#88=ORIENTED_EDGE('',*,*,#79,.T.) ;
#89=ORIENTED_EDGE('',*,*,#84,.F.) ;
#103=ORIENTED_EDGE('',*,*,#96,.F.) ;
#104=ORIENTED_EDGE('',*,*,#84,.T.) ;
#105=ORIENTED_EDGE('',*,*,#101,.T.) ;
#106=ORIENTED_EDGE('',*,*,#72,.F.) ;
#143=ORIENTED_EDGE('',*,*,#122,.F.) ;
#144=ORIENTED_EDGE('',*,*,#129,.T.) ;
#145=ORIENTED_EDGE('',*,*,#136,.T.) ;
#146=ORIENTED_EDGE('',*,*,#141,.F.) ;
#155=ORIENTED_EDGE('',*,*,#79,.F.) ;
#156=ORIENTED_EDGE('',*,*,#101,.F.) ;
#186=ORIENTED_EDGE('',*,*,#172,.T.) ;
#187=ORIENTED_EDGE('',*,*,#179,.T.) ;
#188=ORIENTED_EDGE('',*,*,#184,.F.) ;
#224=ORIENTED_EDGE('',*,*,#179,.F.) ;
#225=ORIENTED_EDGE('',*,*,#202,.T.) ;
#226=ORIENTED_EDGE('',*,*,#209,.T.) ;
#227=ORIENTED_EDGE('',*,*,#216,.F.) ;
#228=ORIENTED_EDGE('',*,*,#222,.T.) ;
#258=ORIENTED_EDGE('',*,*,#216,.T.) ;
#259=ORIENTED_EDGE('',*,*,#235,.T.) ;
#260=ORIENTED_EDGE('',*,*,#202,.F.) ;
#261=ORIENTED_EDGE('',*,*,#172,.F.) ;
#262=ORIENTED_EDGE('',*,*,#248,.F.) ;
#263=ORIENTED_EDGE('',*,*,#256,.F.) ;
#272=ORIENTED_EDGE('',*,*,#184,.T.) ;
#273=ORIENTED_EDGE('',*,*,#222,.F.) ;
#274=ORIENTED_EDGE('',*,*,#256,.T.) ;
#275=ORIENTED_EDGE('',*,*,#248,.T.) ;
#310=ORIENTED_EDGE('',*,*,#291,.T.) ;
#311=ORIENTED_EDGE('',*,*,#298,.T.) ;
#312=ORIENTED_EDGE('',*,*,#303,.F.) ;
#313=ORIENTED_EDGE('',*,*,#136,.F.) ;
#314=ORIENTED_EDGE('',*,*,#308,.F.) ;
#317=ORIENTED_EDGE('',*,*,#96,.T.) ;
#318=ORIENTED_EDGE('',*,*,#65,.T.) ;
#353=ORIENTED_EDGE('',*,*,#332,.T.) ;
#354=ORIENTED_EDGE('',*,*,#122,.T.) ;
#355=ORIENTED_EDGE('',*,*,#339,.T.) ;
#356=ORIENTED_EDGE('',*,*,#346,.F.) ;
#357=ORIENTED_EDGE('',*,*,#351,.F.) ;
#360=ORIENTED_EDGE('',*,*,#235,.F.) ;
#361=ORIENTED_EDGE('',*,*,#209,.F.) ;
#370=ORIENTED_EDGE('',*,*,#339,.F.) ;
#371=ORIENTED_EDGE('',*,*,#141,.T.) ;
#372=ORIENTED_EDGE('',*,*,#303,.T.) ;
#373=ORIENTED_EDGE('',*,*,#368,.T.) ;
#382=ORIENTED_EDGE('',*,*,#308,.T.) ;
#383=ORIENTED_EDGE('',*,*,#129,.F.) ;
#384=ORIENTED_EDGE('',*,*,#332,.F.) ;
#385=ORIENTED_EDGE('',*,*,#380,.F.) ;
#399=ORIENTED_EDGE('',*,*,#346,.T.) ;
#400=ORIENTED_EDGE('',*,*,#368,.F.) ;
#401=ORIENTED_EDGE('',*,*,#298,.F.) ;
#402=ORIENTED_EDGE('',*,*,#397,.F.) ;
#406=ORIENTED_EDGE('',*,*,#291,.F.) ;
#407=ORIENTED_EDGE('',*,*,#380,.T.) ;
#408=ORIENTED_EDGE('',*,*,#351,.T.) ;
#409=ORIENTED_EDGE('',*,*,#397,.T.) ;
#319=FACE_BOUND('',#316,.T.) ;
#362=FACE_BOUND('',#359,.T.) ;
#51=CLOSED_SHELL('Closed Shell',(#91,#108,#148,#158,#190,#230,#265,#277,#320,#363,#375,#387,#404,#411)) ;
#68=VECTOR('Line Direction',#67,1.) ;
#82=VECTOR('Line Direction',#81,1.) ;
#125=VECTOR('Line Direction',#124,1.) ;
#139=VECTOR('Line Direction',#138,1.) ;
#182=VECTOR('Line Direction',#181,1.) ;
#198=VECTOR('Line Direction',#197,1.) ;
#212=VECTOR('Line Direction',#211,1.) ;
#366=VECTOR('Line Direction',#365,1.) ;
#378=VECTOR('Line Direction',#377,1.) ;
#395=VECTOR('Line Direction',#394,1.) ;
#413=ADVANCED_BREP_SHAPE_REPRESENTATION('NONE',(#412),#46) ;
#49=SHAPE_REPRESENTATION(' ',(#48),#46) ;
#91=ADVANCED_FACE('Corps principal',(#90),#56,.F.) ;
#108=ADVANCED_FACE('Corps principal',(#107),#56,.F.) ;
#148=ADVANCED_FACE('Corps principal',(#147),#113,.T.) ;
#158=ADVANCED_FACE('Corps principal',(#157),#153,.F.) ;
#190=ADVANCED_FACE('Corps principal',(#189),#163,.T.) ;
#230=ADVANCED_FACE('Corps principal',(#229),#195,.T.) ;
#265=ADVANCED_FACE('Corps principal',(#264),#195,.T.) ;
#277=ADVANCED_FACE('Corps principal',(#276),#270,.F.) ;
#320=ADVANCED_FACE('Corps principal',(#315,#319),#282,.F.) ;
#363=ADVANCED_FACE('Corps principal',(#358,#362),#325,.T.) ;
#375=ADVANCED_FACE('Corps principal',(#374),#113,.T.) ;
#387=ADVANCED_FACE('Corps principal',(#386),#113,.T.) ;
#404=ADVANCED_FACE('Corps principal',(#403),#392,.F.) ;
#411=ADVANCED_FACE('Corps principal',(#410),#392,.F.) ;
#4=APPLICATION_PROTOCOL_DEFINITION('international standard','config_control_design',1994,#1) ;
#32=APPROVAL_DATE_TIME(#13,#21) ;
#217=B_SPLINE_CURVE_WITH_KNOTS('',3,(#218,#219,#220,#221),.UNSPECIFIED.,.F.,.U.,(4,4),(0.,2.93939224209),.UNSPECIFIED.) ;
#236=B_SPLINE_CURVE_WITH_KNOTS('',5,(#237,#238,#239,#240,#241,#242,#243,#244,#245),.UNSPECIFIED.,.F.,.U.,(6,3,6),(5.16309563367,8.60678491239,13.2657262675),.UNSPECIFIED.) ;
#249=B_SPLINE_CURVE_WITH_KNOTS('',5,(#250,#251,#252,#253,#254,#255),.UNSPECIFIED.,.F.,.U.,(6,6),(0.,5.16309563367),.UNSPECIFIED.) ;
#412=MANIFOLD_SOLID_BREP('Corps principal',#51) ;
#11=CALENDAR_DATE(2020,5,8) ;
#30=CC_DESIGN_APPROVAL(#21,(#16,#6,#14)) ;
#18=CC_DESIGN_DATE_AND_TIME_ASSIGNMENT(#13,#17,(#16)) ;
#29=CC_DESIGN_DATE_AND_TIME_ASSIGNMENT(#13,#28,(#14)) ;
#17=DATE_TIME_ROLE('classification_date') ;
#28=DATE_TIME_ROLE('creation_date') ;
#27=CC_DESIGN_PERSON_AND_ORGANIZATION_ASSIGNMENT(#25,#26,(#16)) ;
#33=CC_DESIGN_PERSON_AND_ORGANIZATION_ASSIGNMENT(#25,#34,(#6)) ;
#35=CC_DESIGN_PERSON_AND_ORGANIZATION_ASSIGNMENT(#25,#36,(#6,#14)) ;
#37=CC_DESIGN_PERSON_AND_ORGANIZATION_ASSIGNMENT(#25,#38,(#5)) ;
#26=PERSON_AND_ORGANIZATION_ROLE('classification_officer') ;
#34=PERSON_AND_ORGANIZATION_ROLE('design_supplier') ;
#36=PERSON_AND_ORGANIZATION_ROLE('creator') ;
#38=PERSON_AND_ORGANIZATION_ROLE('design_owner') ;
#39=CC_DESIGN_SECURITY_CLASSIFICATION(#16,(#6)) ;
#60=CIRCLE('generated circle',#59,2.5) ;
#76=CIRCLE('generated circle',#75,2.5) ;
#95=CIRCLE('generated circle',#94,2.5) ;
#100=CIRCLE('generated circle',#99,2.5) ;
#117=CIRCLE('generated circle',#116,3.9) ;
#133=CIRCLE('generated circle',#132,3.9) ;
#167=CIRCLE('generated circle',#166,3.) ;
#176=CIRCLE('generated circle',#175,3.) ;
#206=CIRCLE('generated circle',#205,3.) ;
#234=CIRCLE('generated circle',#233,3.) ;
#286=CIRCLE('generated circle',#285,1.5) ;
#295=CIRCLE('generated circle',#294,1.5) ;
#302=CIRCLE('generated circle',#301,3.9) ;
#307=CIRCLE('generated circle',#306,3.9) ;
#329=CIRCLE('generated circle',#328,3.9) ;
#336=CIRCLE('generated circle',#335,3.9) ;
#343=CIRCLE('generated circle',#342,1.5) ;
#350=CIRCLE('generated circle',#349,1.5) ;
#414=SHAPE_REPRESENTATION_RELATIONSHIP(' ',' ',#49,#413) ;
#56=CYLINDRICAL_SURFACE('generated cylinder',#55,2.5) ;
#113=CYLINDRICAL_SURFACE('generated cylinder',#112,3.9) ;
#195=CYLINDRICAL_SURFACE('generated cylinder',#194,3.) ;
#392=CYLINDRICAL_SURFACE('generated cylinder',#391,1.5) ;
#3=DESIGN_CONTEXT(' ',#1,'design') ;
#65=EDGE_CURVE('',#62,#64,#60,.T.) ;
#72=EDGE_CURVE('',#62,#71,#69,.T.) ;
#79=EDGE_CURVE('',#71,#78,#76,.T.) ;
#84=EDGE_CURVE('',#64,#78,#83,.T.) ;
#96=EDGE_CURVE('',#64,#62,#95,.T.) ;
#101=EDGE_CURVE('',#78,#71,#100,.T.) ;
#122=EDGE_CURVE('',#119,#121,#117,.T.) ;
#129=EDGE_CURVE('',#119,#128,#126,.F.) ;
#136=EDGE_CURVE('',#128,#135,#133,.T.) ;
#141=EDGE_CURVE('',#121,#135,#140,.F.) ;
#172=EDGE_CURVE('',#169,#171,#167,.T.) ;
#179=EDGE_CURVE('',#171,#178,#176,.T.) ;
#184=EDGE_CURVE('',#169,#178,#183,.T.) ;
#202=EDGE_CURVE('',#171,#201,#199,.F.) ;
#209=EDGE_CURVE('',#201,#208,#206,.T.) ;
#216=EDGE_CURVE('',#215,#208,#213,.F.) ;
#222=EDGE_CURVE('',#215,#178,#217,.T.) ;
#235=EDGE_CURVE('',#208,#201,#234,.T.) ;
#248=EDGE_CURVE('',#247,#169,#236,.T.) ;
#256=EDGE_CURVE('',#215,#247,#249,.T.) ;
#291=EDGE_CURVE('',#288,#290,#286,.T.) ;
#298=EDGE_CURVE('',#290,#297,#295,.T.) ;
#303=EDGE_CURVE('',#135,#297,#302,.T.) ;
#308=EDGE_CURVE('',#288,#128,#307,.T.) ;
#332=EDGE_CURVE('',#331,#119,#329,.T.) ;
#339=EDGE_CURVE('',#121,#338,#336,.T.) ;
#346=EDGE_CURVE('',#345,#338,#343,.T.) ;
#351=EDGE_CURVE('',#331,#345,#350,.T.) ;
#368=EDGE_CURVE('',#297,#338,#367,.T.) ;
#380=EDGE_CURVE('',#288,#331,#379,.T.) ;
#397=EDGE_CURVE('',#345,#290,#396,.F.) ;
#85=EDGE_LOOP('',(#86,#87,#88,#89)) ;
#102=EDGE_LOOP('',(#103,#104,#105,#106)) ;
#142=EDGE_LOOP('',(#143,#144,#145,#146)) ;
#154=EDGE_LOOP('',(#155,#156)) ;
#185=EDGE_LOOP('',(#186,#187,#188)) ;
#223=EDGE_LOOP('',(#224,#225,#226,#227,#228)) ;
#257=EDGE_LOOP('',(#258,#259,#260,#261,#262,#263)) ;
#271=EDGE_LOOP('',(#272,#273,#274,#275)) ;
#309=EDGE_LOOP('',(#310,#311,#312,#313,#314)) ;
#316=EDGE_LOOP('',(#317,#318)) ;
#352=EDGE_LOOP('',(#353,#354,#355,#356,#357)) ;
#359=EDGE_LOOP('',(#360,#361)) ;
#369=EDGE_LOOP('',(#370,#371,#372,#373)) ;
#381=EDGE_LOOP('',(#382,#383,#384,#385)) ;
#398=EDGE_LOOP('',(#399,#400,#401,#402)) ;
#405=EDGE_LOOP('',(#406,#407,#408,#409)) ;
#90=FACE_OUTER_BOUND('',#85,.T.) ;
#107=FACE_OUTER_BOUND('',#102,.T.) ;
#147=FACE_OUTER_BOUND('',#142,.T.) ;
#157=FACE_OUTER_BOUND('',#154,.T.) ;
#189=FACE_OUTER_BOUND('',#185,.T.) ;
#229=FACE_OUTER_BOUND('',#223,.T.) ;
#264=FACE_OUTER_BOUND('',#257,.T.) ;
#276=FACE_OUTER_BOUND('',#271,.T.) ;
#315=FACE_OUTER_BOUND('',#309,.T.) ;
#358=FACE_OUTER_BOUND('',#352,.T.) ;
#374=FACE_OUTER_BOUND('',#369,.T.) ;
#386=FACE_OUTER_BOUND('',#381,.T.) ;
#403=FACE_OUTER_BOUND('',#398,.T.) ;
#410=FACE_OUTER_BOUND('',#405,.T.) ;
#45=UNCERTAINTY_MEASURE_WITH_UNIT(LENGTH_MEASURE(0.005),#41,'distance_accuracy_value','CONFUSED CURVE UNCERTAINTY') ;
#69=LINE('Line',#66,#68) ;
#83=LINE('Line',#80,#82) ;
#126=LINE('Line',#123,#125) ;
#140=LINE('Line',#137,#139) ;
#183=LINE('Line',#180,#182) ;
#199=LINE('Line',#196,#198) ;
#213=LINE('Line',#210,#212) ;
#367=LINE('Line',#364,#366) ;
#379=LINE('Line',#376,#378) ;
#396=LINE('Line',#393,#395) ;
#2=MECHANICAL_CONTEXT(' ',#1,'mechanical') ;
#24=PERSONAL_ADDRESS(' ',' ',' ',' ',' ',' ',' ',' ',' ',' ',' ',' ',(#22),' ') ;
#153=PLANE('Plane',#152) ;
#163=PLANE('Plane',#162) ;
#270=PLANE('Plane',#269) ;
#282=PLANE('Plane',#281) ;
#325=PLANE('Plane',#324) ;
#43=PLANE_ANGLE_MEASURE_WITH_UNIT(PLANE_ANGLE_MEASURE(0.0174532925199),#42) ;
#7=PRODUCT_CATEGORY('part',$) ;
#9=PRODUCT_CATEGORY_RELATIONSHIP(' ',' ',#7,#8) ;
#6=PRODUCT_DEFINITION_FORMATION_WITH_SPECIFIED_SOURCE('',' ',#5,.NOT_KNOWN.) ;
#8=PRODUCT_RELATED_PRODUCT_CATEGORY('detail',$,(#5)) ;
#50=SHAPE_DEFINITION_REPRESENTATION(#40,#49) ;
#62=VERTEX_POINT('',#61) ;
#64=VERTEX_POINT('',#63) ;
#71=VERTEX_POINT('',#70) ;
#78=VERTEX_POINT('',#77) ;
#119=VERTEX_POINT('',#118) ;
#121=VERTEX_POINT('',#120) ;
#128=VERTEX_POINT('',#127) ;
#135=VERTEX_POINT('',#134) ;
#169=VERTEX_POINT('',#168) ;
#171=VERTEX_POINT('',#170) ;
#178=VERTEX_POINT('',#177) ;
#201=VERTEX_POINT('',#200) ;
#208=VERTEX_POINT('',#207) ;
#215=VERTEX_POINT('',#214) ;
#247=VERTEX_POINT('',#246) ;
#288=VERTEX_POINT('',#287) ;
#290=VERTEX_POINT('',#289) ;
#297=VERTEX_POINT('',#296) ;
#331=VERTEX_POINT('',#330) ;
#338=VERTEX_POINT('',#337) ;
#345=VERTEX_POINT('',#344) ;
#41=(LENGTH_UNIT()NAMED_UNIT(*)SI_UNIT(.MILLI.,.METRE.)) ;
#42=(NAMED_UNIT(*)PLANE_ANGLE_UNIT()SI_UNIT($,.RADIAN.)) ;
#44=(NAMED_UNIT(*)SI_UNIT($,.STERADIAN.)SOLID_ANGLE_UNIT()) ;
#46=(GEOMETRIC_REPRESENTATION_CONTEXT(3)GLOBAL_UNCERTAINTY_ASSIGNED_CONTEXT((#45))GLOBAL_UNIT_ASSIGNED_CONTEXT((#41,#42,#44))REPRESENTATION_CONTEXT(' ',' ')) ;
ENDSEC;
END-ISO-10303-21;
